  0
SECTION
  2
HEADER
  9
$ACADVER
  1
AC1006
  9
$EXTMIN
 10
2.252516
 20
-8.808345
  9
$EXTMAX
 10
38.205662
 20
7.905199
  9
$LTSCALE
 40
0.152817
  9
$PDMODE
 70
    35
  9
$PDSIZE
 40
0.122253
  0
ENDSEC
  0
SECTION
  2
TABLES
  0
TABLE
  2
LTYPE
 70
     9
  0
LTYPE
  2
CONTINUOUS
 70
    64
  3
Solid line
 72
    65
 73
     0
 40
0.000000
  0
LTYPE
  2
DASHED
 70
    64
  3
__ __ __ __ __ __ __ __ __ __ __ __ __ __ __
 72
    65
 73
     2
 40
0.001146
 49
0.000764
 49
-0.000382
  0
LTYPE
  2
HIDDEN
 70
    64
  3
 _ _ _ _ _ _ _ _ _ _ _ _ _ _ _ _ _ _ _ _ _ _
 72
    65
 73
     2
 40
0.000573
 49
0.000382
 49
-0.000191
  0
LTYPE
  2
CENTER
 70
    64
  3
____ _ ____ _ ____ _ ____ _ ____ _ ____ _ ____
 72
    65
 73
     4
 40
0.003056
 49
0.001910
 49
-0.000382
 49
0.000382
 49
-0.000382
  0
LTYPE
  2
PHANTOM
 70
    64
  3
_____ _ _ _____ _ _ _____ _ _ _____ _ _ ____
 72
    65
 73
     6
 40
0.003820
 49
0.001910
 49
-0.000382
 49
0.000382
 49
-0.000382
 49
0.000382
 49
-0.000382
  0
LTYPE
  2
DOT
 70
    64
  3
...............................................
 72
    65
 73
     2
 40
0.000382
 49
0.000000
 49
-0.000382
  0
LTYPE
  2
DASHDOT
 70
    64
  3
__ . __ . __ . __ . __ . __ . __ . __ . __ . __
 72
    65
 73
     4
 40
0.001528
 49
0.000764
 49
-0.000382
 49
0.000000
 49
-0.000382
  0
LTYPE
  2
BORDER
 70
    64
  3
__ __ . __ __ . __ __ . __ __ . __ __ . __ __
 72
    65
 73
     6
 40
0.002674
 49
0.000764
 49
-0.000382
 49
0.000764
 49
-0.000382
 49
0.000000
 49
-0.000382
  0
LTYPE
  2
DIVIDE
 70
    64
  3
__ . . __ . . __ . . __ . . __ . . __ . . __
 72
    65
 73
     6
 40
0.001910
 49
0.000764
 49
-0.000382
 49
0.000000
 49
-0.000382
 49
0.000000
 49
-0.000382
  0
LTYPE
  2
DOTDOT
 70
    64
  3
 . .  . .  . .  . .  . .  . . 
 72
    65
 73
     5
 40
0.000840
 49
-0.000382
 49
0.000000
 49
-0.000382
 49
0.000000
 49
-0.000382
  0
ENDTAB
  0
TABLE
  2
STYLE
 70
     4
  0
STYLE
 70
     0
  2
SN0
 40
0.000000
 41
0.001528
 50
0.000000
 71
     0
 42
0.000000
  3
ROMAND
  0
STYLE
 70
    68
  2
SV0
 40
0.000000
 41
0.001528
 50
0.000000
 71
     0
 42
0.000000
  3
ROMAND
  0
STYLE
 70
     0
  2
SN1
 40
0.000000
 41
0.001528
 50
0.000000
 71
     0
 42
0.000000
  3
ROMAND
  0
STYLE
 70
    68
  2
SV1
 40
0.000000
 41
0.001528
 50
0.000000
 71
     0
 42
0.000000
  3
ROMAND
  0
ENDTAB
  0
TABLE
  2
LAYER
 70
     3
  0
LAYER
  2
FOREGROUND
 70
    64
 62
     7
  6
CONTINUOUS
  0
LAYER
  2
BACKGROUND
 70
    65
 62
    -7
  6
CONTINUOUS
  0
LAYER
  2
0
 70
    64
 62
     7
  6
CONTINUOUS
  0
ENDTAB
  0
ENDSEC
  0
SECTION
  2
ENTITIES
  0
POLYLINE
  8
FOREGROUND
  6
CONTINUOUS
 66
     1
 40
0.000000
 41
0.000000
  0
VERTEX
  8
FOREGROUND
  6
CONTINUOUS
 10
0.000000
 20
-0.903146
  0
VERTEX
  8
FOREGROUND
  6
CONTINUOUS
 10
8.499656
 20
-0.903146
  0
VERTEX
  8
FOREGROUND
  6
CONTINUOUS
 10
8.499656
 20
-11.902880
  0
VERTEX
  8
FOREGROUND
  6
CONTINUOUS
 10
0.000000
 20
-11.902880
  0
VERTEX
  8
FOREGROUND
  6
CONTINUOUS
 10
0.000000
 20
-0.903146
  0
SEQEND
  8
0
  0
POLYLINE
  8
FOREGROUND
  6
CONTINUOUS
 66
     1
 40
0.000000
 41
0.000000
  0
VERTEX
  8
FOREGROUND
  6
CONTINUOUS
 10
0.000000
 20
-0.903146
  0
VERTEX
  8
FOREGROUND
  6
CONTINUOUS
 10
8.499656
 20
-0.903146
  0
VERTEX
  8
FOREGROUND
  6
CONTINUOUS
 10
8.499656
 20
-11.902880
  0
VERTEX
  8
FOREGROUND
  6
CONTINUOUS
 10
0.000000
 20
-11.902880
  0
VERTEX
  8
FOREGROUND
  6
CONTINUOUS
 10
0.000000
 20
-0.903146
  0
SEQEND
  8
0
  0
TEXT
  8
0
 10
37.433939
 20
7.350475
 40
0.014831
  1
B242
 41
1.000000
  7
SN0
 71
     0
 72
     5
 11
37.473487
 21
7.350475
  0
TEXT
  8
0
 10
37.987134
 20
7.298518
 40
0.014831
  1
B242
 41
1.000000
  7
SN0
 71
     0
 72
     5
 11
38.026683
 21
7.298518
  0
TEXT
  8
0
 10
37.583699
 20
4.615059
 40
0.014831
  1
B242
 41
1.000000
  7
SN0
 71
     0
 72
     5
 11
37.623247
 21
4.615059
  0
TEXT
  8
0
 10
37.377396
 20
7.883805
 40
0.018127
  1
B242
 41
1.000000
  7
SN0
 71
     0
 72
     5
 11
37.422338
 21
7.883805
  0
POLYLINE
  8
0
  6
CONTINUOUS
 66
     1
 40
0.013753
 41
0.013753
  0
VERTEX
  8
0
  6
CONTINUOUS
 10
3.861674
 20
-4.003793
  0
VERTEX
  8
0
  6
CONTINUOUS
 10
4.115349
 20
-4.003793
  0
VERTEX
  8
0
  6
CONTINUOUS
 10
4.119934
 20
-4.008378
  0
VERTEX
  8
0
  6
CONTINUOUS
 10
4.225377
 20
-4.071033
  0
VERTEX
  8
0
  6
CONTINUOUS
 10
4.335405
 20
-4.127575
  0
VERTEX
  8
0
  6
CONTINUOUS
 10
4.448489
 20
-4.181060
  0
VERTEX
  8
0
  6
CONTINUOUS
 10
4.564630
 20
-4.229962
  0
VERTEX
  8
0
  6
CONTINUOUS
 10
4.683827
 20
-4.274278
  0
VERTEX
  8
0
  6
CONTINUOUS
 10
4.806080
 20
-4.315539
  0
VERTEX
  8
0
  6
CONTINUOUS
 10
4.929861
 20
-4.350687
  0
VERTEX
  8
0
  6
CONTINUOUS
 10
5.055171
 20
-4.384306
  0
VERTEX
  8
0
  6
CONTINUOUS
 10
5.182009
 20
-4.411813
  0
VERTEX
  8
0
  6
CONTINUOUS
 10
5.308846
 20
-4.437792
  0
VERTEX
  8
0
  6
CONTINUOUS
 10
5.437212
 20
-4.457658
  0
VERTEX
  8
0
  6
CONTINUOUS
 10
5.564050
 20
-4.475996
  0
VERTEX
  8
0
  6
CONTINUOUS
 10
5.690888
 20
-4.489750
  0
VERTEX
  8
0
  6
CONTINUOUS
 10
5.817726
 20
-4.500447
  0
VERTEX
  8
0
  6
CONTINUOUS
 10
5.941507
 20
-4.508088
  0
VERTEX
  8
0
  6
CONTINUOUS
 10
6.065288
 20
-4.512672
  0
VERTEX
  8
0
  6
CONTINUOUS
 10
6.068345
 20
-4.512672
  0
VERTEX
  8
0
  6
CONTINUOUS
 10
6.068345
 20
-4.576855
  0
VERTEX
  8
0
  6
CONTINUOUS
 10
6.095852
 20
-4.578383
  0
VERTEX
  8
0
  6
CONTINUOUS
 10
6.118774
 20
-4.581440
  0
VERTEX
  8
0
  6
CONTINUOUS
 10
6.141697
 20
-4.587552
  0
VERTEX
  8
0
  6
CONTINUOUS
 10
6.160035
 20
-4.595193
  0
VERTEX
  8
0
  6
CONTINUOUS
 10
6.176844
 20
-4.604362
  0
VERTEX
  8
0
  6
CONTINUOUS
 10
6.192126
 20
-4.613531
  0
VERTEX
  8
0
  6
CONTINUOUS
 10
6.216577
 20
-4.637982
  0
VERTEX
  8
0
  6
CONTINUOUS
 10
6.233386
 20
-4.665489
  0
VERTEX
  8
0
  6
CONTINUOUS
 10
6.245612
 20
-4.692996
  0
VERTEX
  8
0
  6
CONTINUOUS
 10
6.253253
 20
-4.718975
  0
VERTEX
  8
0
  6
CONTINUOUS
 10
6.257837
 20
-4.741897
  0
VERTEX
  8
0
  6
CONTINUOUS
 10
6.257837
 20
-4.746482
  0
VERTEX
  8
0
  6
CONTINUOUS
 10
2.261685
 20
-4.746482
  0
VERTEX
  8
0
  6
CONTINUOUS
 10
2.261685
 20
-3.505611
  0
VERTEX
  8
0
  6
CONTINUOUS
 10
3.345154
 20
-3.505611
  0
VERTEX
  8
0
  6
CONTINUOUS
 10
3.345154
 20
-3.756230
  0
VERTEX
  8
0
  6
CONTINUOUS
 10
3.854033
 20
-3.756230
  0
VERTEX
  8
0
  6
CONTINUOUS
 10
3.854033
 20
-4.003793
  0
VERTEX
  8
0
  6
CONTINUOUS
 10
3.861674
 20
-4.003793
  0
SEQEND
  8
0
  0
POLYLINE
  8
0
  6
CONTINUOUS
 66
     1
 40
0.012225
 41
0.012225
  0
VERTEX
  8
0
  6
CONTINUOUS
 10
37.299460
 20
-1.697792
  0
VERTEX
  8
0
  6
CONTINUOUS
 10
37.310157
 20
-1.697792
  0
SEQEND
  8
0
  0
POLYLINE
  8
0
  6
CONTINUOUS
 66
     1
 40
0.012225
 41
0.012225
  0
VERTEX
  8
0
  6
CONTINUOUS
 10
37.299460
 20
-2.989091
  0
VERTEX
  8
0
  6
CONTINUOUS
 10
37.310157
 20
-2.989091
  0
SEQEND
  8
0
  0
POLYLINE
  8
0
  6
CONTINUOUS
 66
     1
 40
0.012225
 41
0.012225
  0
VERTEX
  8
0
  6
CONTINUOUS
 10
38.198021
 20
-2.970753
  0
VERTEX
  8
0
  6
CONTINUOUS
 10
38.198021
 20
-2.989091
  0
SEQEND
  8
0
  0
SOLID
  8
0
 62
    15
 10
6.066816
 20
-8.140537
 11
6.068345
 21
-7.413130
 12
6.118774
 22
-8.145121
 13
6.120302
 23
-7.417715
  0
POLYLINE
  8
0
  6
CONTINUOUS
 66
     1
 40
0.000000
 41
0.000000
  0
VERTEX
  8
0
  6
CONTINUOUS
 10
6.066816
 20
-8.140537
  0
VERTEX
  8
0
  6
CONTINUOUS
 10
6.068345
 20
-7.413130
  0
VERTEX
  8
0
  6
CONTINUOUS
 10
6.120302
 20
-7.417715
  0
VERTEX
  8
0
  6
CONTINUOUS
 10
6.118774
 20
-8.145121
  0
VERTEX
  8
0
  6
CONTINUOUS
 10
6.066816
 20
-8.140537
  0
SEQEND
  8
0
  0
SOLID
  8
0
 62
    15
 10
4.115349
 20
-7.567475
 11
4.116877
 21
-6.840068
 12
4.119934
 22
-7.570531
 13
4.121462
 23
-6.843124
  0
POLYLINE
  8
0
  6
CONTINUOUS
 66
     1
 40
0.000000
 41
0.000000
  0
VERTEX
  8
0
  6
CONTINUOUS
 10
4.115349
 20
-7.567475
  0
VERTEX
  8
0
  6
CONTINUOUS
 10
4.116877
 20
-6.840068
  0
VERTEX
  8
0
  6
CONTINUOUS
 10
4.121462
 20
-6.843124
  0
VERTEX
  8
0
  6
CONTINUOUS
 10
4.119934
 20
-7.570531
  0
VERTEX
  8
0
  6
CONTINUOUS
 10
4.115349
 20
-7.567475
  0
SEQEND
  8
0
  0
SOLID
  8
0
 62
    15
 10
4.119934
 20
-7.570531
 11
4.121462
 21
-6.843124
 12
4.225377
 22
-7.633186
 13
4.226905
 23
-6.905779
  0
POLYLINE
  8
0
  6
CONTINUOUS
 66
     1
 40
0.000000
 41
0.000000
  0
VERTEX
  8
0
  6
CONTINUOUS
 10
4.119934
 20
-7.570531
  0
VERTEX
  8
0
  6
CONTINUOUS
 10
4.121462
 20
-6.843124
  0
VERTEX
  8
0
  6
CONTINUOUS
 10
4.226905
 20
-6.905779
  0
VERTEX
  8
0
  6
CONTINUOUS
 10
4.225377
 20
-7.633186
  0
VERTEX
  8
0
  6
CONTINUOUS
 10
4.119934
 20
-7.570531
  0
SEQEND
  8
0
  0
SOLID
  8
0
 62
    15
 10
4.225377
 20
-7.633186
 11
4.226905
 21
-6.905779
 12
4.333877
 22
-7.691256
 13
4.335405
 23
-6.963850
  0
POLYLINE
  8
0
  6
CONTINUOUS
 66
     1
 40
0.000000
 41
0.000000
  0
VERTEX
  8
0
  6
CONTINUOUS
 10
4.225377
 20
-7.633186
  0
VERTEX
  8
0
  6
CONTINUOUS
 10
4.226905
 20
-6.905779
  0
VERTEX
  8
0
  6
CONTINUOUS
 10
4.335405
 20
-6.963850
  0
VERTEX
  8
0
  6
CONTINUOUS
 10
4.333877
 20
-7.691256
  0
VERTEX
  8
0
  6
CONTINUOUS
 10
4.225377
 20
-7.633186
  0
SEQEND
  8
0
  0
SOLID
  8
0
 62
    15
 10
4.333877
 20
-7.691256
 11
4.335405
 21
-6.963850
 12
4.564630
 22
-7.793643
 13
4.566158
 23
-7.066237
  0
POLYLINE
  8
0
  6
CONTINUOUS
 66
     1
 40
0.000000
 41
0.000000
  0
VERTEX
  8
0
  6
CONTINUOUS
 10
4.333877
 20
-7.691256
  0
VERTEX
  8
0
  6
CONTINUOUS
 10
4.335405
 20
-6.963850
  0
VERTEX
  8
0
  6
CONTINUOUS
 10
4.566158
 20
-7.066237
  0
VERTEX
  8
0
  6
CONTINUOUS
 10
4.564630
 20
-7.793643
  0
VERTEX
  8
0
  6
CONTINUOUS
 10
4.333877
 20
-7.691256
  0
SEQEND
  8
0
  0
SOLID
  8
0
 62
    15
 10
4.564630
 20
-7.793643
 11
4.566158
 21
-7.066237
 12
4.806080
 22
-7.877692
 13
4.807608
 23
-7.150286
  0
POLYLINE
  8
0
  6
CONTINUOUS
 66
     1
 40
0.000000
 41
0.000000
  0
VERTEX
  8
0
  6
CONTINUOUS
 10
4.564630
 20
-7.793643
  0
VERTEX
  8
0
  6
CONTINUOUS
 10
4.566158
 20
-7.066237
  0
VERTEX
  8
0
  6
CONTINUOUS
 10
4.807608
 20
-7.150286
  0
VERTEX
  8
0
  6
CONTINUOUS
 10
4.806080
 20
-7.877692
  0
VERTEX
  8
0
  6
CONTINUOUS
 10
4.564630
 20
-7.793643
  0
SEQEND
  8
0
  0
SOLID
  8
0
 62
    15
 10
4.806080
 20
-7.877692
 11
4.807608
 21
-7.150286
 12
5.055171
 22
-7.946460
 13
5.056699
 23
-7.219053
  0
POLYLINE
  8
0
  6
CONTINUOUS
 66
     1
 40
0.000000
 41
0.000000
  0
VERTEX
  8
0
  6
CONTINUOUS
 10
4.806080
 20
-7.877692
  0
VERTEX
  8
0
  6
CONTINUOUS
 10
4.807608
 20
-7.150286
  0
VERTEX
  8
0
  6
CONTINUOUS
 10
5.056699
 20
-7.219053
  0
VERTEX
  8
0
  6
CONTINUOUS
 10
5.055171
 20
-7.946460
  0
VERTEX
  8
0
  6
CONTINUOUS
 10
4.806080
 20
-7.877692
  0
SEQEND
  8
0
  0
SOLID
  8
0
 62
    15
 10
5.055171
 20
-7.946460
 11
5.056699
 21
-7.219053
 12
5.308846
 22
-7.999946
 13
5.310375
 23
-7.272539
  0
POLYLINE
  8
0
  6
CONTINUOUS
 66
     1
 40
0.000000
 41
0.000000
  0
VERTEX
  8
0
  6
CONTINUOUS
 10
5.055171
 20
-7.946460
  0
VERTEX
  8
0
  6
CONTINUOUS
 10
5.056699
 20
-7.219053
  0
VERTEX
  8
0
  6
CONTINUOUS
 10
5.310375
 20
-7.272539
  0
VERTEX
  8
0
  6
CONTINUOUS
 10
5.308846
 20
-7.999946
  0
VERTEX
  8
0
  6
CONTINUOUS
 10
5.055171
 20
-7.946460
  0
SEQEND
  8
0
  0
SOLID
  8
0
 62
    15
 10
5.308846
 20
-7.999946
 11
5.310375
 21
-7.272539
 12
5.564050
 22
-8.038150
 13
5.565578
 23
-7.310743
  0
POLYLINE
  8
0
  6
CONTINUOUS
 66
     1
 40
0.000000
 41
0.000000
  0
VERTEX
  8
0
  6
CONTINUOUS
 10
5.308846
 20
-7.999946
  0
VERTEX
  8
0
  6
CONTINUOUS
 10
5.310375
 20
-7.272539
  0
VERTEX
  8
0
  6
CONTINUOUS
 10
5.565578
 20
-7.310743
  0
VERTEX
  8
0
  6
CONTINUOUS
 10
5.564050
 20
-8.038150
  0
VERTEX
  8
0
  6
CONTINUOUS
 10
5.308846
 20
-7.999946
  0
SEQEND
  8
0
  0
SOLID
  8
0
 62
    15
 10
5.564050
 20
-8.038150
 11
5.565578
 21
-7.310743
 12
5.816197
 22
-8.064129
 13
5.817726
 23
-7.336722
  0
POLYLINE
  8
0
  6
CONTINUOUS
 66
     1
 40
0.000000
 41
0.000000
  0
VERTEX
  8
0
  6
CONTINUOUS
 10
5.564050
 20
-8.038150
  0
VERTEX
  8
0
  6
CONTINUOUS
 10
5.565578
 20
-7.310743
  0
VERTEX
  8
0
  6
CONTINUOUS
 10
5.817726
 20
-7.336722
  0
VERTEX
  8
0
  6
CONTINUOUS
 10
5.816197
 20
-8.064129
  0
VERTEX
  8
0
  6
CONTINUOUS
 10
5.564050
 20
-8.038150
  0
SEQEND
  8
0
  0
SOLID
  8
0
 62
    15
 10
5.816197
 20
-8.064129
 11
5.817726
 21
-7.336722
 12
6.065288
 22
-8.074826
 13
6.066816
 23
-7.347419
  0
POLYLINE
  8
0
  6
CONTINUOUS
 66
     1
 40
0.000000
 41
0.000000
  0
VERTEX
  8
0
  6
CONTINUOUS
 10
5.816197
 20
-8.064129
  0
VERTEX
  8
0
  6
CONTINUOUS
 10
5.817726
 20
-7.336722
  0
VERTEX
  8
0
  6
CONTINUOUS
 10
6.066816
 20
-7.347419
  0
VERTEX
  8
0
  6
CONTINUOUS
 10
6.065288
 20
-8.074826
  0
VERTEX
  8
0
  6
CONTINUOUS
 10
5.816197
 20
-8.064129
  0
SEQEND
  8
0
  0
SOLID
  8
0
 62
    15
 10
6.066816
 20
-8.074826
 11
6.068345
 21
-7.347419
 12
6.066816
 22
-8.140537
 13
6.068345
 23
-7.413130
  0
POLYLINE
  8
0
  6
CONTINUOUS
 66
     1
 40
0.000000
 41
0.000000
  0
VERTEX
  8
0
  6
CONTINUOUS
 10
6.066816
 20
-8.074826
  0
VERTEX
  8
0
  6
CONTINUOUS
 10
6.068345
 20
-7.347419
  0
VERTEX
  8
0
  6
CONTINUOUS
 10
6.068345
 20
-7.413130
  0
VERTEX
  8
0
  6
CONTINUOUS
 10
6.066816
 20
-8.140537
  0
VERTEX
  8
0
  6
CONTINUOUS
 10
6.066816
 20
-8.074826
  0
SEQEND
  8
0
  0
SOLID
  8
0
 62
    15
 10
3.860146
 20
-7.567475
 11
3.863202
 21
-6.840068
 12
4.115349
 22
-7.567475
 13
4.116877
 23
-6.840068
  0
POLYLINE
  8
0
  6
CONTINUOUS
 66
     1
 40
0.000000
 41
0.000000
  0
VERTEX
  8
0
  6
CONTINUOUS
 10
3.860146
 20
-7.567475
  0
VERTEX
  8
0
  6
CONTINUOUS
 10
3.863202
 20
-6.840068
  0
VERTEX
  8
0
  6
CONTINUOUS
 10
4.116877
 20
-6.840068
  0
VERTEX
  8
0
  6
CONTINUOUS
 10
4.115349
 20
-7.567475
  0
VERTEX
  8
0
  6
CONTINUOUS
 10
3.860146
 20
-7.567475
  0
SEQEND
  8
0
  0
SOLID
  8
0
 62
    15
 10
6.065288
 20
-8.074826
 11
6.066816
 21
-7.347419
 12
6.066816
 22
-8.074826
 13
6.068345
 23
-7.347419
  0
POLYLINE
  8
0
  6
CONTINUOUS
 66
     1
 40
0.000000
 41
0.000000
  0
VERTEX
  8
0
  6
CONTINUOUS
 10
6.065288
 20
-8.074826
  0
VERTEX
  8
0
  6
CONTINUOUS
 10
6.066816
 20
-7.347419
  0
VERTEX
  8
0
  6
CONTINUOUS
 10
6.068345
 20
-7.347419
  0
VERTEX
  8
0
  6
CONTINUOUS
 10
6.066816
 20
-8.074826
  0
VERTEX
  8
0
  6
CONTINUOUS
 10
6.065288
 20
-8.074826
  0
SEQEND
  8
0
  0
SOLID
  8
0
 62
    15
 10
6.118774
 20
-8.145121
 11
6.120302
 21
-7.417715
 12
6.160035
 22
-8.157347
 13
6.161563
 23
-7.429940
  0
POLYLINE
  8
0
  6
CONTINUOUS
 66
     1
 40
0.000000
 41
0.000000
  0
VERTEX
  8
0
  6
CONTINUOUS
 10
6.118774
 20
-8.145121
  0
VERTEX
  8
0
  6
CONTINUOUS
 10
6.120302
 20
-7.417715
  0
VERTEX
  8
0
  6
CONTINUOUS
 10
6.161563
 20
-7.429940
  0
VERTEX
  8
0
  6
CONTINUOUS
 10
6.160035
 20
-8.157347
  0
VERTEX
  8
0
  6
CONTINUOUS
 10
6.118774
 20
-8.145121
  0
SEQEND
  8
0
  0
SOLID
  8
0
 62
    15
 10
6.160035
 20
-8.157347
 11
6.161563
 21
-7.429940
 12
6.190598
 22
-8.177213
 13
6.192126
 23
-7.449806
  0
POLYLINE
  8
0
  6
CONTINUOUS
 66
     1
 40
0.000000
 41
0.000000
  0
VERTEX
  8
0
  6
CONTINUOUS
 10
6.160035
 20
-8.157347
  0
VERTEX
  8
0
  6
CONTINUOUS
 10
6.161563
 20
-7.429940
  0
VERTEX
  8
0
  6
CONTINUOUS
 10
6.192126
 20
-7.449806
  0
VERTEX
  8
0
  6
CONTINUOUS
 10
6.190598
 20
-8.177213
  0
VERTEX
  8
0
  6
CONTINUOUS
 10
6.160035
 20
-8.157347
  0
SEQEND
  8
0
  0
SOLID
  8
0
 62
    15
 10
6.190598
 20
-8.177213
 11
6.192126
 21
-7.449806
 12
6.215048
 22
-8.201663
 13
6.216577
 23
-7.474257
  0
POLYLINE
  8
0
  6
CONTINUOUS
 66
     1
 40
0.000000
 41
0.000000
  0
VERTEX
  8
0
  6
CONTINUOUS
 10
6.190598
 20
-8.177213
  0
VERTEX
  8
0
  6
CONTINUOUS
 10
6.192126
 20
-7.449806
  0
VERTEX
  8
0
  6
CONTINUOUS
 10
6.216577
 20
-7.474257
  0
VERTEX
  8
0
  6
CONTINUOUS
 10
6.215048
 20
-8.201663
  0
VERTEX
  8
0
  6
CONTINUOUS
 10
6.190598
 20
-8.177213
  0
SEQEND
  8
0
  0
SOLID
  8
0
 62
    15
 10
6.244084
 20
-8.255149
 11
6.245612
 21
-7.527743
 12
6.256309
 22
-8.304051
 13
6.257837
 23
-7.576644
  0
POLYLINE
  8
0
  6
CONTINUOUS
 66
     1
 40
0.000000
 41
0.000000
  0
VERTEX
  8
0
  6
CONTINUOUS
 10
6.244084
 20
-8.255149
  0
VERTEX
  8
0
  6
CONTINUOUS
 10
6.245612
 20
-7.527743
  0
VERTEX
  8
0
  6
CONTINUOUS
 10
6.257837
 20
-7.576644
  0
VERTEX
  8
0
  6
CONTINUOUS
 10
6.256309
 20
-8.304051
  0
VERTEX
  8
0
  6
CONTINUOUS
 10
6.244084
 20
-8.255149
  0
SEQEND
  8
0
  0
SOLID
  8
0
 62
    15
 10
6.215048
 20
-8.201663
 11
6.216577
 21
-7.474257
 12
6.244084
 22
-8.255149
 13
6.245612
 23
-7.527743
  0
POLYLINE
  8
0
  6
CONTINUOUS
 66
     1
 40
0.000000
 41
0.000000
  0
VERTEX
  8
0
  6
CONTINUOUS
 10
6.215048
 20
-8.201663
  0
VERTEX
  8
0
  6
CONTINUOUS
 10
6.216577
 20
-7.474257
  0
VERTEX
  8
0
  6
CONTINUOUS
 10
6.245612
 20
-7.527743
  0
VERTEX
  8
0
  6
CONTINUOUS
 10
6.244084
 20
-8.255149
  0
VERTEX
  8
0
  6
CONTINUOUS
 10
6.215048
 20
-8.201663
  0
SEQEND
  8
0
  0
SOLID
  8
0
 62
    15
 10
6.256309
 20
-8.304051
 11
6.257837
 21
-7.576644
 12
6.256309
 22
-8.308635
 13
6.257837
 23
-7.581228
  0
POLYLINE
  8
0
  6
CONTINUOUS
 66
     1
 40
0.000000
 41
0.000000
  0
VERTEX
  8
0
  6
CONTINUOUS
 10
6.256309
 20
-8.304051
  0
VERTEX
  8
0
  6
CONTINUOUS
 10
6.257837
 20
-7.576644
  0
VERTEX
  8
0
  6
CONTINUOUS
 10
6.257837
 20
-7.581228
  0
VERTEX
  8
0
  6
CONTINUOUS
 10
6.256309
 20
-8.308635
  0
VERTEX
  8
0
  6
CONTINUOUS
 10
6.256309
 20
-8.304051
  0
SEQEND
  8
0
  0
SOLID
  8
0
 62
    15
 10
2.260157
 20
-7.069293
 11
2.261685
 21
-6.341886
 12
3.343626
 22
-7.069293
 13
3.345154
 23
-6.341886
  0
POLYLINE
  8
0
  6
CONTINUOUS
 66
     1
 40
0.000000
 41
0.000000
  0
VERTEX
  8
0
  6
CONTINUOUS
 10
2.260157
 20
-7.069293
  0
VERTEX
  8
0
  6
CONTINUOUS
 10
2.261685
 20
-6.341886
  0
VERTEX
  8
0
  6
CONTINUOUS
 10
3.345154
 20
-6.341886
  0
VERTEX
  8
0
  6
CONTINUOUS
 10
3.343626
 20
-7.069293
  0
VERTEX
  8
0
  6
CONTINUOUS
 10
2.260157
 20
-7.069293
  0
SEQEND
  8
0
  0
SOLID
  8
0
 62
    15
 10
3.343626
 20
-7.069293
 11
3.345154
 21
-6.341886
 12
3.343626
 22
-7.319912
 13
3.345154
 23
-6.592505
  0
POLYLINE
  8
0
  6
CONTINUOUS
 66
     1
 40
0.000000
 41
0.000000
  0
VERTEX
  8
0
  6
CONTINUOUS
 10
3.343626
 20
-7.069293
  0
VERTEX
  8
0
  6
CONTINUOUS
 10
3.345154
 20
-6.341886
  0
VERTEX
  8
0
  6
CONTINUOUS
 10
3.345154
 20
-6.592505
  0
VERTEX
  8
0
  6
CONTINUOUS
 10
3.343626
 20
-7.319912
  0
VERTEX
  8
0
  6
CONTINUOUS
 10
3.343626
 20
-7.069293
  0
SEQEND
  8
0
  0
SOLID
  8
0
 62
    15
 10
3.343626
 20
-7.319912
 11
3.345154
 21
-6.592505
 12
3.852505
 22
-7.319912
 13
3.854033
 23
-6.592505
  0
POLYLINE
  8
0
  6
CONTINUOUS
 66
     1
 40
0.000000
 41
0.000000
  0
VERTEX
  8
0
  6
CONTINUOUS
 10
3.343626
 20
-7.319912
  0
VERTEX
  8
0
  6
CONTINUOUS
 10
3.345154
 20
-6.592505
  0
VERTEX
  8
0
  6
CONTINUOUS
 10
3.854033
 20
-6.592505
  0
VERTEX
  8
0
  6
CONTINUOUS
 10
3.852505
 20
-7.319912
  0
VERTEX
  8
0
  6
CONTINUOUS
 10
3.343626
 20
-7.319912
  0
SEQEND
  8
0
  0
SOLID
  8
0
 62
    15
 10
3.852505
 20
-7.319912
 11
3.854033
 21
-6.592505
 12
3.852505
 22
-7.567475
 13
3.854033
 23
-6.840068
  0
POLYLINE
  8
0
  6
CONTINUOUS
 66
     1
 40
0.000000
 41
0.000000
  0
VERTEX
  8
0
  6
CONTINUOUS
 10
3.852505
 20
-7.319912
  0
VERTEX
  8
0
  6
CONTINUOUS
 10
3.854033
 20
-6.592505
  0
VERTEX
  8
0
  6
CONTINUOUS
 10
3.854033
 20
-6.840068
  0
VERTEX
  8
0
  6
CONTINUOUS
 10
3.852505
 20
-7.567475
  0
VERTEX
  8
0
  6
CONTINUOUS
 10
3.852505
 20
-7.319912
  0
SEQEND
  8
0
  0
SOLID
  8
0
 62
    15
 10
3.852505
 20
-7.567475
 11
3.854033
 21
-6.840068
 12
3.860146
 22
-7.567475
 13
3.863202
 23
-6.840068
  0
POLYLINE
  8
0
  6
CONTINUOUS
 66
     1
 40
0.000000
 41
0.000000
  0
VERTEX
  8
0
  6
CONTINUOUS
 10
3.852505
 20
-7.567475
  0
VERTEX
  8
0
  6
CONTINUOUS
 10
3.854033
 20
-6.840068
  0
VERTEX
  8
0
  6
CONTINUOUS
 10
3.863202
 20
-6.840068
  0
VERTEX
  8
0
  6
CONTINUOUS
 10
3.860146
 20
-7.567475
  0
VERTEX
  8
0
  6
CONTINUOUS
 10
3.852505
 20
-7.567475
  0
SEQEND
  8
0
  0
POLYLINE
  8
0
  6
CONTINUOUS
 66
     1
 40
0.000000
 41
0.000000
  0
VERTEX
  8
0
  6
CONTINUOUS
 10
3.860146
 20
-7.567475
  0
VERTEX
  8
0
  6
CONTINUOUS
 10
4.115349
 20
-7.567475
  0
VERTEX
  8
0
  6
CONTINUOUS
 10
4.119934
 20
-7.570531
  0
VERTEX
  8
0
  6
CONTINUOUS
 10
4.225377
 20
-7.633186
  0
VERTEX
  8
0
  6
CONTINUOUS
 10
4.333877
 20
-7.691256
  0
VERTEX
  8
0
  6
CONTINUOUS
 10
4.564630
 20
-7.793643
  0
VERTEX
  8
0
  6
CONTINUOUS
 10
4.806080
 20
-7.877692
  0
VERTEX
  8
0
  6
CONTINUOUS
 10
5.055171
 20
-7.946460
  0
VERTEX
  8
0
  6
CONTINUOUS
 10
5.308846
 20
-7.999946
  0
VERTEX
  8
0
  6
CONTINUOUS
 10
5.564050
 20
-8.038150
  0
VERTEX
  8
0
  6
CONTINUOUS
 10
5.816197
 20
-8.064129
  0
VERTEX
  8
0
  6
CONTINUOUS
 10
6.065288
 20
-8.074826
  0
VERTEX
  8
0
  6
CONTINUOUS
 10
6.066816
 20
-8.074826
  0
VERTEX
  8
0
  6
CONTINUOUS
 10
6.066816
 20
-8.140537
  0
VERTEX
  8
0
  6
CONTINUOUS
 10
6.118774
 20
-8.145121
  0
VERTEX
  8
0
  6
CONTINUOUS
 10
6.160035
 20
-8.157347
  0
VERTEX
  8
0
  6
CONTINUOUS
 10
6.190598
 20
-8.177213
  0
VERTEX
  8
0
  6
CONTINUOUS
 10
6.215048
 20
-8.201663
  0
VERTEX
  8
0
  6
CONTINUOUS
 10
6.244084
 20
-8.255149
  0
VERTEX
  8
0
  6
CONTINUOUS
 10
6.256309
 20
-8.304051
  0
VERTEX
  8
0
  6
CONTINUOUS
 10
6.256309
 20
-8.308635
  0
VERTEX
  8
0
  6
CONTINUOUS
 10
2.260157
 20
-8.308635
  0
VERTEX
  8
0
  6
CONTINUOUS
 10
2.260157
 20
-7.069293
  0
VERTEX
  8
0
  6
CONTINUOUS
 10
3.343626
 20
-7.069293
  0
VERTEX
  8
0
  6
CONTINUOUS
 10
3.343626
 20
-7.319912
  0
VERTEX
  8
0
  6
CONTINUOUS
 10
3.852505
 20
-7.319912
  0
VERTEX
  8
0
  6
CONTINUOUS
 10
3.852505
 20
-7.567475
  0
VERTEX
  8
0
  6
CONTINUOUS
 10
3.860146
 20
-7.567475
  0
SEQEND
  8
0
  0
TEXT
  8
0
 10
3.964061
 20
-8.573008
 40
0.133481
  1
BA  154
 41
1.000000
  7
SN1
 71
     0
 72
     5
 11
4.548300
 21
-8.573008
  0
TEXT
  8
0
 10
3.876956
 20
-8.764028
 40
0.133481
  1
1-1/4" x 4"
 41
1.000000
  7
SN1
 71
     0
 72
     5
 11
4.628376
 21
-8.764028
  0
TEXT
  8
0
 10
7.588869
 20
-1.505243
 40
0.133481
  1
case
 41
1.000000
  7
SN1
 71
     0
 72
     5
 11
7.937615
 21
-1.505243
  0
TEXT
  8
0
 10
7.625545
 20
-1.696264
 40
0.133481
  1
154
 41
1.000000
  7
SN1
 71
     0
 72
     5
 11
7.900587
 21
-1.696264
  0
ENDSEC
  0
EOF
