  0
SECTION
  2
HEADER
  9
$ACADVER
  1
AC1006
  9
$EXTMIN
 10
1.635920
 20
0.675840
  9
$EXTMAX
 10
7.084440
 20
6.380000
  9
$LTSCALE
 40
0.044000
  9
$PDMODE
 70
    35
  9
$PDSIZE
 40
0.035200
  0
ENDSEC
  0
SECTION
  2
TABLES
  0
TABLE
  2
LTYPE
 70
     9
  0
LTYPE
  2
CONTINUOUS
 70
    64
  3
Solid line
 72
    65
 73
     0
 40
0.000000
  0
LTYPE
  2
DASHED
 70
    64
  3
__ __ __ __ __ __ __ __ __ __ __ __ __ __ __
 72
    65
 73
     2
 40
0.000330
 49
0.000220
 49
-0.000110
  0
LTYPE
  2
HIDDEN
 70
    64
  3
 _ _ _ _ _ _ _ _ _ _ _ _ _ _ _ _ _ _ _ _ _ _
 72
    65
 73
     2
 40
0.000165
 49
0.000110
 49
-0.000055
  0
LTYPE
  2
CENTER
 70
    64
  3
____ _ ____ _ ____ _ ____ _ ____ _ ____ _ ____
 72
    65
 73
     4
 40
0.000880
 49
0.000550
 49
-0.000110
 49
0.000110
 49
-0.000110
  0
LTYPE
  2
PHANTOM
 70
    64
  3
_____ _ _ _____ _ _ _____ _ _ _____ _ _ ____
 72
    65
 73
     6
 40
0.001100
 49
0.000550
 49
-0.000110
 49
0.000110
 49
-0.000110
 49
0.000110
 49
-0.000110
  0
LTYPE
  2
DOT
 70
    64
  3
...............................................
 72
    65
 73
     2
 40
0.000110
 49
0.000000
 49
-0.000110
  0
LTYPE
  2
DASHDOT
 70
    64
  3
__ . __ . __ . __ . __ . __ . __ . __ . __ . __
 72
    65
 73
     4
 40
0.000440
 49
0.000220
 49
-0.000110
 49
0.000000
 49
-0.000110
  0
LTYPE
  2
BORDER
 70
    64
  3
__ __ . __ __ . __ __ . __ __ . __ __ . __ __
 72
    65
 73
     6
 40
0.000770
 49
0.000220
 49
-0.000110
 49
0.000220
 49
-0.000110
 49
0.000000
 49
-0.000110
  0
LTYPE
  2
DIVIDE
 70
    64
  3
__ . . __ . . __ . . __ . . __ . . __ . . __
 72
    65
 73
     6
 40
0.000550
 49
0.000220
 49
-0.000110
 49
0.000000
 49
-0.000110
 49
0.000000
 49
-0.000110
  0
LTYPE
  2
DOTDOT
 70
    64
  3
 . .  . .  . .  . .  . .  . . 
 72
    65
 73
     5
 40
0.000242
 49
-0.000110
 49
0.000000
 49
-0.000110
 49
0.000000
 49
-0.000110
  0
ENDTAB
  0
TABLE
  2
STYLE
 70
     2
  0
STYLE
 70
     0
  2
SN0
 40
0.000000
 41
0.000440
 50
0.000000
 71
     0
 42
0.000000
  3
ROMAND
  0
STYLE
 70
    68
  2
SV0
 40
0.000000
 41
0.000440
 50
0.000000
 71
     0
 42
0.000000
  3
ROMAND
  0
ENDTAB
  0
TABLE
  2
LAYER
 70
     3
  0
LAYER
  2
FOREGROUND
 70
    64
 62
     7
  6
CONTINUOUS
  0
LAYER
  2
BACKGROUND
 70
    65
 62
    -7
  6
CONTINUOUS
  0
LAYER
  2
0
 70
    64
 62
     7
  6
CONTINUOUS
  0
ENDTAB
  0
ENDSEC
  0
SECTION
  2
ENTITIES
  0
POLYLINE
  8
FOREGROUND
  6
CONTINUOUS
 66
     1
 40
0.000000
 41
0.000000
  0
VERTEX
  8
FOREGROUND
  6
CONTINUOUS
 10
0.000000
 20
7.055840
  0
VERTEX
  8
FOREGROUND
  6
CONTINUOUS
 10
8.499920
 20
7.055840
  0
VERTEX
  8
FOREGROUND
  6
CONTINUOUS
 10
8.499920
 20
-3.944160
  0
VERTEX
  8
FOREGROUND
  6
CONTINUOUS
 10
0.000000
 20
-3.944160
  0
VERTEX
  8
FOREGROUND
  6
CONTINUOUS
 10
0.000000
 20
7.055840
  0
SEQEND
  8
0
  0
POLYLINE
  8
FOREGROUND
  6
CONTINUOUS
 66
     1
 40
0.000000
 41
0.000000
  0
VERTEX
  8
FOREGROUND
  6
CONTINUOUS
 10
0.000000
 20
7.055840
  0
VERTEX
  8
FOREGROUND
  6
CONTINUOUS
 10
8.499920
 20
7.055840
  0
VERTEX
  8
FOREGROUND
  6
CONTINUOUS
 10
8.499920
 20
-3.944160
  0
VERTEX
  8
FOREGROUND
  6
CONTINUOUS
 10
0.000000
 20
-3.944160
  0
VERTEX
  8
FOREGROUND
  6
CONTINUOUS
 10
0.000000
 20
7.055840
  0
SEQEND
  8
0
  0
POLYLINE
  8
0
  6
CONTINUOUS
 66
     1
 40
0.014080
 41
0.014080
  0
VERTEX
  8
0
  6
CONTINUOUS
 10
3.595680
 20
6.245800
  0
VERTEX
  8
0
  6
CONTINUOUS
 10
3.687640
 20
6.245800
  0
VERTEX
  8
0
  6
CONTINUOUS
 10
3.688080
 20
6.272640
  0
VERTEX
  8
0
  6
CONTINUOUS
 10
3.692920
 20
6.294200
  0
VERTEX
  8
0
  6
CONTINUOUS
 10
3.701280
 20
6.314000
  0
VERTEX
  8
0
  6
CONTINUOUS
 10
3.713160
 20
6.331600
  0
VERTEX
  8
0
  6
CONTINUOUS
 10
3.728560
 20
6.347000
  0
VERTEX
  8
0
  6
CONTINUOUS
 10
3.746160
 20
6.358880
  0
VERTEX
  8
0
  6
CONTINUOUS
 10
3.765960
 20
6.367240
  0
VERTEX
  8
0
  6
CONTINUOUS
 10
3.787520
 20
6.372080
  0
VERTEX
  8
0
  6
CONTINUOUS
 10
3.809520
 20
6.372080
  0
VERTEX
  8
0
  6
CONTINUOUS
 10
3.831080
 20
6.367240
  0
VERTEX
  8
0
  6
CONTINUOUS
 10
3.850440
 20
6.358880
  0
VERTEX
  8
0
  6
CONTINUOUS
 10
3.868480
 20
6.347000
  0
VERTEX
  8
0
  6
CONTINUOUS
 10
3.883440
 20
6.331600
  0
VERTEX
  8
0
  6
CONTINUOUS
 10
3.895320
 20
6.314000
  0
VERTEX
  8
0
  6
CONTINUOUS
 10
3.903680
 20
6.294200
  0
VERTEX
  8
0
  6
CONTINUOUS
 10
3.908520
 20
6.272640
  0
VERTEX
  8
0
  6
CONTINUOUS
 10
3.908960
 20
6.245800
  0
VERTEX
  8
0
  6
CONTINUOUS
 10
4.091560
 20
6.245800
  0
VERTEX
  8
0
  6
CONTINUOUS
 10
4.103880
 20
6.194760
  0
VERTEX
  8
0
  6
CONTINUOUS
 10
4.121480
 20
6.145040
  0
VERTEX
  8
0
  6
CONTINUOUS
 10
4.143920
 20
6.097520
  0
VERTEX
  8
0
  6
CONTINUOUS
 10
4.170320
 20
6.051760
  0
VERTEX
  8
0
  6
CONTINUOUS
 10
4.201120
 20
6.008200
  0
VERTEX
  8
0
  6
CONTINUOUS
 10
4.235880
 20
5.967280
  0
VERTEX
  8
0
  6
CONTINUOUS
 10
4.273280
 20
5.929000
  0
VERTEX
  8
0
  6
CONTINUOUS
 10
4.314200
 20
5.893800
  0
VERTEX
  8
0
  6
CONTINUOUS
 10
4.357760
 20
5.861680
  0
VERTEX
  8
0
  6
CONTINUOUS
 10
4.403520
 20
5.833080
  0
VERTEX
  8
0
  6
CONTINUOUS
 10
4.451040
 20
5.808440
  0
VERTEX
  8
0
  6
CONTINUOUS
 10
4.499880
 20
5.787320
  0
VERTEX
  8
0
  6
CONTINUOUS
 10
4.550480
 20
5.771040
  0
VERTEX
  8
0
  6
CONTINUOUS
 10
4.576000
 20
5.764000
  0
VERTEX
  8
0
  6
CONTINUOUS
 10
4.627480
 20
5.754320
  0
VERTEX
  8
0
  6
CONTINUOUS
 10
4.678960
 20
5.749040
  0
VERTEX
  8
0
  6
CONTINUOUS
 10
4.714160
 20
5.748600
  0
VERTEX
  8
0
  6
CONTINUOUS
 10
4.714600
 20
5.781160
  0
VERTEX
  8
0
  6
CONTINUOUS
 10
4.719440
 20
5.802720
  0
VERTEX
  8
0
  6
CONTINUOUS
 10
4.728240
 20
5.822520
  0
VERTEX
  8
0
  6
CONTINUOUS
 10
4.740560
 20
5.839680
  0
VERTEX
  8
0
  6
CONTINUOUS
 10
4.755960
 20
5.854640
  0
VERTEX
  8
0
  6
CONTINUOUS
 10
4.774000
 20
5.866080
  0
VERTEX
  8
0
  6
CONTINUOUS
 10
4.794240
 20
5.874440
  0
VERTEX
  8
0
  6
CONTINUOUS
 10
4.816240
 20
5.878840
  0
VERTEX
  8
0
  6
CONTINUOUS
 10
4.839120
 20
5.878840
  0
VERTEX
  8
0
  6
CONTINUOUS
 10
4.861120
 20
5.874000
  0
VERTEX
  8
0
  6
CONTINUOUS
 10
4.881360
 20
5.864760
  0
VERTEX
  8
0
  6
CONTINUOUS
 10
4.899400
 20
5.852440
  0
VERTEX
  8
0
  6
CONTINUOUS
 10
4.915240
 20
5.836600
  0
VERTEX
  8
0
  6
CONTINUOUS
 10
4.928000
 20
5.818120
  0
VERTEX
  8
0
  6
CONTINUOUS
 10
4.936800
 20
5.797880
  0
VERTEX
  8
0
  6
CONTINUOUS
 10
4.941640
 20
5.775880
  0
VERTEX
  8
0
  6
CONTINUOUS
 10
4.942080
 20
5.751240
  0
VERTEX
  8
0
  6
CONTINUOUS
 10
5.104880
 20
5.751240
  0
VERTEX
  8
0
  6
CONTINUOUS
 10
5.104880
 20
5.543120
  0
VERTEX
  8
0
  6
CONTINUOUS
 10
3.591720
 20
5.543120
  0
VERTEX
  8
0
  6
CONTINUOUS
 10
3.591720
 20
6.245800
  0
VERTEX
  8
0
  6
CONTINUOUS
 10
3.591720
 20
6.243160
  0
VERTEX
  8
0
  6
CONTINUOUS
 10
3.591720
 20
6.245800
  0
VERTEX
  8
0
  6
CONTINUOUS
 10
3.599640
 20
6.245800
  0
VERTEX
  8
0
  6
CONTINUOUS
 10
3.595680
 20
6.245800
  0
SEQEND
  8
0
  0
SOLID
  8
0
 62
    15
 10
6.756640
 20
2.122560
 11
6.750920
 21
2.848560
 12
6.785240
 22
2.146320
 13
6.779520
 23
2.872320
  0
POLYLINE
  8
0
  6
CONTINUOUS
 66
     1
 40
0.000000
 41
0.000000
  0
VERTEX
  8
0
  6
CONTINUOUS
 10
6.756640
 20
2.122560
  0
VERTEX
  8
0
  6
CONTINUOUS
 10
6.750920
 20
2.848560
  0
VERTEX
  8
0
  6
CONTINUOUS
 10
6.779520
 20
2.872320
  0
VERTEX
  8
0
  6
CONTINUOUS
 10
6.785240
 20
2.146320
  0
VERTEX
  8
0
  6
CONTINUOUS
 10
6.756640
 20
2.122560
  0
SEQEND
  8
0
  0
SOLID
  8
0
 62
    15
 10
3.623840
 20
1.969440
 11
3.618120
 21
2.695440
 12
3.810400
 22
1.969440
 13
3.804680
 23
2.695440
  0
POLYLINE
  8
0
  6
CONTINUOUS
 66
     1
 40
0.000000
 41
0.000000
  0
VERTEX
  8
0
  6
CONTINUOUS
 10
3.623840
 20
1.969440
  0
VERTEX
  8
0
  6
CONTINUOUS
 10
3.618120
 20
2.695440
  0
VERTEX
  8
0
  6
CONTINUOUS
 10
3.804680
 20
2.695440
  0
VERTEX
  8
0
  6
CONTINUOUS
 10
3.810400
 20
1.969440
  0
VERTEX
  8
0
  6
CONTINUOUS
 10
3.623840
 20
1.969440
  0
SEQEND
  8
0
  0
SOLID
  8
0
 62
    15
 10
3.810400
 20
1.969440
 11
3.804680
 21
2.695440
 12
3.810400
 22
2.035000
 13
3.804680
 23
2.761000
  0
POLYLINE
  8
0
  6
CONTINUOUS
 66
     1
 40
0.000000
 41
0.000000
  0
VERTEX
  8
0
  6
CONTINUOUS
 10
3.810400
 20
1.969440
  0
VERTEX
  8
0
  6
CONTINUOUS
 10
3.804680
 20
2.695440
  0
VERTEX
  8
0
  6
CONTINUOUS
 10
3.804680
 20
2.761000
  0
VERTEX
  8
0
  6
CONTINUOUS
 10
3.810400
 20
2.035000
  0
VERTEX
  8
0
  6
CONTINUOUS
 10
3.810400
 20
1.969440
  0
SEQEND
  8
0
  0
SOLID
  8
0
 62
    15
 10
3.811720
 20
2.038960
 11
3.806000
 21
2.764960
 12
4.884000
 22
2.232560
 13
4.878280
 23
2.958560
  0
POLYLINE
  8
0
  6
CONTINUOUS
 66
     1
 40
0.000000
 41
0.000000
  0
VERTEX
  8
0
  6
CONTINUOUS
 10
3.811720
 20
2.038960
  0
VERTEX
  8
0
  6
CONTINUOUS
 10
3.806000
 20
2.764960
  0
VERTEX
  8
0
  6
CONTINUOUS
 10
4.878280
 20
2.958560
  0
VERTEX
  8
0
  6
CONTINUOUS
 10
4.884000
 20
2.232560
  0
VERTEX
  8
0
  6
CONTINUOUS
 10
3.811720
 20
2.038960
  0
SEQEND
  8
0
  0
SOLID
  8
0
 62
    15
 10
4.884000
 20
2.232560
 11
4.878280
 21
2.958560
 12
4.886640
 22
2.232560
 13
4.880920
 23
2.958560
  0
POLYLINE
  8
0
  6
CONTINUOUS
 66
     1
 40
0.000000
 41
0.000000
  0
VERTEX
  8
0
  6
CONTINUOUS
 10
4.884000
 20
2.232560
  0
VERTEX
  8
0
  6
CONTINUOUS
 10
4.878280
 20
2.958560
  0
VERTEX
  8
0
  6
CONTINUOUS
 10
4.880920
 20
2.958560
  0
VERTEX
  8
0
  6
CONTINUOUS
 10
4.886640
 20
2.232560
  0
VERTEX
  8
0
  6
CONTINUOUS
 10
4.884000
 20
2.232560
  0
SEQEND
  8
0
  0
SOLID
  8
0
 62
    15
 10
5.981360
 20
1.974720
 11
5.975640
 21
2.700720
 12
6.154720
 22
1.974720
 13
6.149000
 23
2.700720
  0
POLYLINE
  8
0
  6
CONTINUOUS
 66
     1
 40
0.000000
 41
0.000000
  0
VERTEX
  8
0
  6
CONTINUOUS
 10
5.981360
 20
1.974720
  0
VERTEX
  8
0
  6
CONTINUOUS
 10
5.975640
 20
2.700720
  0
VERTEX
  8
0
  6
CONTINUOUS
 10
6.149000
 20
2.700720
  0
VERTEX
  8
0
  6
CONTINUOUS
 10
6.154720
 20
1.974720
  0
VERTEX
  8
0
  6
CONTINUOUS
 10
5.981360
 20
1.974720
  0
SEQEND
  8
0
  0
SOLID
  8
0
 62
    15
 10
4.886640
 20
2.232560
 11
4.880920
 21
2.958560
 12
5.981360
 22
2.038960
 13
5.975640
 23
2.764960
  0
POLYLINE
  8
0
  6
CONTINUOUS
 66
     1
 40
0.000000
 41
0.000000
  0
VERTEX
  8
0
  6
CONTINUOUS
 10
4.886640
 20
2.232560
  0
VERTEX
  8
0
  6
CONTINUOUS
 10
4.880920
 20
2.958560
  0
VERTEX
  8
0
  6
CONTINUOUS
 10
5.975640
 20
2.764960
  0
VERTEX
  8
0
  6
CONTINUOUS
 10
5.981360
 20
2.038960
  0
VERTEX
  8
0
  6
CONTINUOUS
 10
4.886640
 20
2.232560
  0
SEQEND
  8
0
  0
SOLID
  8
0
 62
    15
 10
6.154720
 20
1.974720
 11
6.149000
 21
2.700720
 12
6.154720
 22
2.225960
 13
6.149000
 23
2.951960
  0
POLYLINE
  8
0
  6
CONTINUOUS
 66
     1
 40
0.000000
 41
0.000000
  0
VERTEX
  8
0
  6
CONTINUOUS
 10
6.154720
 20
1.974720
  0
VERTEX
  8
0
  6
CONTINUOUS
 10
6.149000
 20
2.700720
  0
VERTEX
  8
0
  6
CONTINUOUS
 10
6.149000
 20
2.951960
  0
VERTEX
  8
0
  6
CONTINUOUS
 10
6.154720
 20
2.225960
  0
VERTEX
  8
0
  6
CONTINUOUS
 10
6.154720
 20
1.974720
  0
SEQEND
  8
0
  0
SOLID
  8
0
 62
    15
 10
6.576240
 20
1.968120
 11
6.570520
 21
2.694120
 12
6.700320
 22
1.968120
 13
6.694600
 23
2.694120
  0
POLYLINE
  8
0
  6
CONTINUOUS
 66
     1
 40
0.000000
 41
0.000000
  0
VERTEX
  8
0
  6
CONTINUOUS
 10
6.576240
 20
1.968120
  0
VERTEX
  8
0
  6
CONTINUOUS
 10
6.570520
 20
2.694120
  0
VERTEX
  8
0
  6
CONTINUOUS
 10
6.694600
 20
2.694120
  0
VERTEX
  8
0
  6
CONTINUOUS
 10
6.700320
 20
1.968120
  0
VERTEX
  8
0
  6
CONTINUOUS
 10
6.576240
 20
1.968120
  0
SEQEND
  8
0
  0
SOLID
  8
0
 62
    15
 10
6.154720
 20
2.225960
 11
6.149000
 21
2.951960
 12
6.576240
 22
2.225960
 13
6.570520
 23
2.951960
  0
POLYLINE
  8
0
  6
CONTINUOUS
 66
     1
 40
0.000000
 41
0.000000
  0
VERTEX
  8
0
  6
CONTINUOUS
 10
6.154720
 20
2.225960
  0
VERTEX
  8
0
  6
CONTINUOUS
 10
6.149000
 20
2.951960
  0
VERTEX
  8
0
  6
CONTINUOUS
 10
6.570520
 20
2.951960
  0
VERTEX
  8
0
  6
CONTINUOUS
 10
6.576240
 20
2.225960
  0
VERTEX
  8
0
  6
CONTINUOUS
 10
6.154720
 20
2.225960
  0
SEQEND
  8
0
  0
SOLID
  8
0
 62
    15
 10
6.700320
 20
1.968120
 11
6.694600
 21
2.694120
 12
6.700320
 22
1.987040
 13
6.694600
 23
2.713040
  0
POLYLINE
  8
0
  6
CONTINUOUS
 66
     1
 40
0.000000
 41
0.000000
  0
VERTEX
  8
0
  6
CONTINUOUS
 10
6.700320
 20
1.968120
  0
VERTEX
  8
0
  6
CONTINUOUS
 10
6.694600
 20
2.694120
  0
VERTEX
  8
0
  6
CONTINUOUS
 10
6.694600
 20
2.713040
  0
VERTEX
  8
0
  6
CONTINUOUS
 10
6.700320
 20
1.987040
  0
VERTEX
  8
0
  6
CONTINUOUS
 10
6.700320
 20
1.968120
  0
SEQEND
  8
0
  0
SOLID
  8
0
 62
    15
 10
6.700320
 20
1.987040
 11
6.694600
 21
2.713040
 12
6.704280
 22
2.025320
 13
6.698560
 23
2.751320
  0
POLYLINE
  8
0
  6
CONTINUOUS
 66
     1
 40
0.000000
 41
0.000000
  0
VERTEX
  8
0
  6
CONTINUOUS
 10
6.700320
 20
1.987040
  0
VERTEX
  8
0
  6
CONTINUOUS
 10
6.694600
 20
2.713040
  0
VERTEX
  8
0
  6
CONTINUOUS
 10
6.698560
 20
2.751320
  0
VERTEX
  8
0
  6
CONTINUOUS
 10
6.704280
 20
2.025320
  0
VERTEX
  8
0
  6
CONTINUOUS
 10
6.700320
 20
1.987040
  0
SEQEND
  8
0
  0
SOLID
  8
0
 62
    15
 10
6.704280
 20
2.025320
 11
6.698560
 21
2.751320
 12
6.715280
 22
2.061400
 13
6.709560
 23
2.787400
  0
POLYLINE
  8
0
  6
CONTINUOUS
 66
     1
 40
0.000000
 41
0.000000
  0
VERTEX
  8
0
  6
CONTINUOUS
 10
6.704280
 20
2.025320
  0
VERTEX
  8
0
  6
CONTINUOUS
 10
6.698560
 20
2.751320
  0
VERTEX
  8
0
  6
CONTINUOUS
 10
6.709560
 20
2.787400
  0
VERTEX
  8
0
  6
CONTINUOUS
 10
6.715280
 20
2.061400
  0
VERTEX
  8
0
  6
CONTINUOUS
 10
6.704280
 20
2.025320
  0
SEQEND
  8
0
  0
SOLID
  8
0
 62
    15
 10
6.715280
 20
2.061400
 11
6.709560
 21
2.787400
 12
6.733320
 22
2.093960
 13
6.727600
 23
2.819960
  0
POLYLINE
  8
0
  6
CONTINUOUS
 66
     1
 40
0.000000
 41
0.000000
  0
VERTEX
  8
0
  6
CONTINUOUS
 10
6.715280
 20
2.061400
  0
VERTEX
  8
0
  6
CONTINUOUS
 10
6.709560
 20
2.787400
  0
VERTEX
  8
0
  6
CONTINUOUS
 10
6.727600
 20
2.819960
  0
VERTEX
  8
0
  6
CONTINUOUS
 10
6.733320
 20
2.093960
  0
VERTEX
  8
0
  6
CONTINUOUS
 10
6.715280
 20
2.061400
  0
SEQEND
  8
0
  0
SOLID
  8
0
 62
    15
 10
6.733320
 20
2.093960
 11
6.727600
 21
2.819960
 12
6.756640
 22
2.122560
 13
6.750920
 23
2.848560
  0
POLYLINE
  8
0
  6
CONTINUOUS
 66
     1
 40
0.000000
 41
0.000000
  0
VERTEX
  8
0
  6
CONTINUOUS
 10
6.733320
 20
2.093960
  0
VERTEX
  8
0
  6
CONTINUOUS
 10
6.727600
 20
2.819960
  0
VERTEX
  8
0
  6
CONTINUOUS
 10
6.750920
 20
2.848560
  0
VERTEX
  8
0
  6
CONTINUOUS
 10
6.756640
 20
2.122560
  0
VERTEX
  8
0
  6
CONTINUOUS
 10
6.733320
 20
2.093960
  0
SEQEND
  8
0
  0
SOLID
  8
0
 62
    15
 10
3.810400
 20
2.035000
 11
3.804680
 21
2.761000
 12
3.811720
 22
2.038960
 13
3.806000
 23
2.764960
  0
POLYLINE
  8
0
  6
CONTINUOUS
 66
     1
 40
0.000000
 41
0.000000
  0
VERTEX
  8
0
  6
CONTINUOUS
 10
3.810400
 20
2.035000
  0
VERTEX
  8
0
  6
CONTINUOUS
 10
3.804680
 20
2.761000
  0
VERTEX
  8
0
  6
CONTINUOUS
 10
3.806000
 20
2.764960
  0
VERTEX
  8
0
  6
CONTINUOUS
 10
3.811720
 20
2.038960
  0
VERTEX
  8
0
  6
CONTINUOUS
 10
3.810400
 20
2.035000
  0
SEQEND
  8
0
  0
SOLID
  8
0
 62
    15
 10
6.785240
 20
2.146320
 11
6.779520
 21
2.872320
 12
6.817800
 22
2.163920
 13
6.812080
 23
2.889920
  0
POLYLINE
  8
0
  6
CONTINUOUS
 66
     1
 40
0.000000
 41
0.000000
  0
VERTEX
  8
0
  6
CONTINUOUS
 10
6.785240
 20
2.146320
  0
VERTEX
  8
0
  6
CONTINUOUS
 10
6.779520
 20
2.872320
  0
VERTEX
  8
0
  6
CONTINUOUS
 10
6.812080
 20
2.889920
  0
VERTEX
  8
0
  6
CONTINUOUS
 10
6.817800
 20
2.163920
  0
VERTEX
  8
0
  6
CONTINUOUS
 10
6.785240
 20
2.146320
  0
SEQEND
  8
0
  0
SOLID
  8
0
 62
    15
 10
6.817800
 20
2.163920
 11
6.812080
 21
2.889920
 12
6.853880
 22
2.175360
 13
6.848160
 23
2.901360
  0
POLYLINE
  8
0
  6
CONTINUOUS
 66
     1
 40
0.000000
 41
0.000000
  0
VERTEX
  8
0
  6
CONTINUOUS
 10
6.817800
 20
2.163920
  0
VERTEX
  8
0
  6
CONTINUOUS
 10
6.812080
 20
2.889920
  0
VERTEX
  8
0
  6
CONTINUOUS
 10
6.848160
 20
2.901360
  0
VERTEX
  8
0
  6
CONTINUOUS
 10
6.853880
 20
2.175360
  0
VERTEX
  8
0
  6
CONTINUOUS
 10
6.817800
 20
2.163920
  0
SEQEND
  8
0
  0
SOLID
  8
0
 62
    15
 10
6.876320
 20
1.673320
 11
6.870600
 21
2.399320
 12
7.075200
 22
1.673320
 13
7.069480
 23
2.399320
  0
POLYLINE
  8
0
  6
CONTINUOUS
 66
     1
 40
0.000000
 41
0.000000
  0
VERTEX
  8
0
  6
CONTINUOUS
 10
6.876320
 20
1.673320
  0
VERTEX
  8
0
  6
CONTINUOUS
 10
6.870600
 20
2.399320
  0
VERTEX
  8
0
  6
CONTINUOUS
 10
7.069480
 20
2.399320
  0
VERTEX
  8
0
  6
CONTINUOUS
 10
7.075200
 20
1.673320
  0
VERTEX
  8
0
  6
CONTINUOUS
 10
6.876320
 20
1.673320
  0
SEQEND
  8
0
  0
SOLID
  8
0
 62
    15
 10
6.892160
 20
2.178880
 11
6.886440
 21
2.904880
 12
6.930880
 22
2.175360
 13
6.925160
 23
2.901360
  0
POLYLINE
  8
0
  6
CONTINUOUS
 66
     1
 40
0.000000
 41
0.000000
  0
VERTEX
  8
0
  6
CONTINUOUS
 10
6.892160
 20
2.178880
  0
VERTEX
  8
0
  6
CONTINUOUS
 10
6.886440
 20
2.904880
  0
VERTEX
  8
0
  6
CONTINUOUS
 10
6.925160
 20
2.901360
  0
VERTEX
  8
0
  6
CONTINUOUS
 10
6.930880
 20
2.175360
  0
VERTEX
  8
0
  6
CONTINUOUS
 10
6.892160
 20
2.178880
  0
SEQEND
  8
0
  0
SOLID
  8
0
 62
    15
 10
6.930880
 20
2.175360
 11
6.925160
 21
2.901360
 12
6.966520
 22
2.163920
 13
6.961240
 23
2.889920
  0
POLYLINE
  8
0
  6
CONTINUOUS
 66
     1
 40
0.000000
 41
0.000000
  0
VERTEX
  8
0
  6
CONTINUOUS
 10
6.930880
 20
2.175360
  0
VERTEX
  8
0
  6
CONTINUOUS
 10
6.925160
 20
2.901360
  0
VERTEX
  8
0
  6
CONTINUOUS
 10
6.961240
 20
2.889920
  0
VERTEX
  8
0
  6
CONTINUOUS
 10
6.966520
 20
2.163920
  0
VERTEX
  8
0
  6
CONTINUOUS
 10
6.930880
 20
2.175360
  0
SEQEND
  8
0
  0
SOLID
  8
0
 62
    15
 10
6.966520
 20
2.163920
 11
6.961240
 21
2.889920
 12
6.999080
 22
2.146320
 13
6.993800
 23
2.872320
  0
POLYLINE
  8
0
  6
CONTINUOUS
 66
     1
 40
0.000000
 41
0.000000
  0
VERTEX
  8
0
  6
CONTINUOUS
 10
6.966520
 20
2.163920
  0
VERTEX
  8
0
  6
CONTINUOUS
 10
6.961240
 20
2.889920
  0
VERTEX
  8
0
  6
CONTINUOUS
 10
6.993800
 20
2.872320
  0
VERTEX
  8
0
  6
CONTINUOUS
 10
6.999080
 20
2.146320
  0
VERTEX
  8
0
  6
CONTINUOUS
 10
6.966520
 20
2.163920
  0
SEQEND
  8
0
  0
SOLID
  8
0
 62
    15
 10
6.999080
 20
2.146320
 11
6.993800
 21
2.872320
 12
7.027680
 22
2.122560
 13
7.021960
 23
2.848560
  0
POLYLINE
  8
0
  6
CONTINUOUS
 66
     1
 40
0.000000
 41
0.000000
  0
VERTEX
  8
0
  6
CONTINUOUS
 10
6.999080
 20
2.146320
  0
VERTEX
  8
0
  6
CONTINUOUS
 10
6.993800
 20
2.872320
  0
VERTEX
  8
0
  6
CONTINUOUS
 10
7.021960
 20
2.848560
  0
VERTEX
  8
0
  6
CONTINUOUS
 10
7.027680
 20
2.122560
  0
VERTEX
  8
0
  6
CONTINUOUS
 10
6.999080
 20
2.146320
  0
SEQEND
  8
0
  0
SOLID
  8
0
 62
    15
 10
7.051440
 20
2.093960
 11
7.045720
 21
2.819960
 12
7.069040
 22
2.061400
 13
7.063320
 23
2.787400
  0
POLYLINE
  8
0
  6
CONTINUOUS
 66
     1
 40
0.000000
 41
0.000000
  0
VERTEX
  8
0
  6
CONTINUOUS
 10
7.051440
 20
2.093960
  0
VERTEX
  8
0
  6
CONTINUOUS
 10
7.045720
 20
2.819960
  0
VERTEX
  8
0
  6
CONTINUOUS
 10
7.063320
 20
2.787400
  0
VERTEX
  8
0
  6
CONTINUOUS
 10
7.069040
 20
2.061400
  0
VERTEX
  8
0
  6
CONTINUOUS
 10
7.051440
 20
2.093960
  0
SEQEND
  8
0
  0
SOLID
  8
0
 62
    15
 10
7.027680
 20
2.122560
 11
7.021960
 21
2.848560
 12
7.051440
 22
2.093960
 13
7.045720
 23
2.819960
  0
POLYLINE
  8
0
  6
CONTINUOUS
 66
     1
 40
0.000000
 41
0.000000
  0
VERTEX
  8
0
  6
CONTINUOUS
 10
7.027680
 20
2.122560
  0
VERTEX
  8
0
  6
CONTINUOUS
 10
7.021960
 20
2.848560
  0
VERTEX
  8
0
  6
CONTINUOUS
 10
7.045720
 20
2.819960
  0
VERTEX
  8
0
  6
CONTINUOUS
 10
7.051440
 20
2.093960
  0
VERTEX
  8
0
  6
CONTINUOUS
 10
7.027680
 20
2.122560
  0
SEQEND
  8
0
  0
SOLID
  8
0
 62
    15
 10
7.069040
 20
2.061400
 11
7.063320
 21
2.787400
 12
7.080480
 22
2.025320
 13
7.074760
 23
2.751320
  0
POLYLINE
  8
0
  6
CONTINUOUS
 66
     1
 40
0.000000
 41
0.000000
  0
VERTEX
  8
0
  6
CONTINUOUS
 10
7.069040
 20
2.061400
  0
VERTEX
  8
0
  6
CONTINUOUS
 10
7.063320
 20
2.787400
  0
VERTEX
  8
0
  6
CONTINUOUS
 10
7.074760
 20
2.751320
  0
VERTEX
  8
0
  6
CONTINUOUS
 10
7.080480
 20
2.025320
  0
VERTEX
  8
0
  6
CONTINUOUS
 10
7.069040
 20
2.061400
  0
SEQEND
  8
0
  0
SOLID
  8
0
 62
    15
 10
7.080480
 20
2.025320
 11
7.074760
 21
2.751320
 12
7.084440
 22
1.987040
 13
7.078720
 23
2.713040
  0
POLYLINE
  8
0
  6
CONTINUOUS
 66
     1
 40
0.000000
 41
0.000000
  0
VERTEX
  8
0
  6
CONTINUOUS
 10
7.080480
 20
2.025320
  0
VERTEX
  8
0
  6
CONTINUOUS
 10
7.074760
 20
2.751320
  0
VERTEX
  8
0
  6
CONTINUOUS
 10
7.078720
 20
2.713040
  0
VERTEX
  8
0
  6
CONTINUOUS
 10
7.084440
 20
1.987040
  0
VERTEX
  8
0
  6
CONTINUOUS
 10
7.080480
 20
2.025320
  0
SEQEND
  8
0
  0
SOLID
  8
0
 62
    15
 10
6.853880
 20
2.175360
 11
6.848160
 21
2.901360
 12
6.892160
 22
2.178880
 13
6.886440
 23
2.904880
  0
POLYLINE
  8
0
  6
CONTINUOUS
 66
     1
 40
0.000000
 41
0.000000
  0
VERTEX
  8
0
  6
CONTINUOUS
 10
6.853880
 20
2.175360
  0
VERTEX
  8
0
  6
CONTINUOUS
 10
6.848160
 20
2.901360
  0
VERTEX
  8
0
  6
CONTINUOUS
 10
6.886440
 20
2.904880
  0
VERTEX
  8
0
  6
CONTINUOUS
 10
6.892160
 20
2.178880
  0
VERTEX
  8
0
  6
CONTINUOUS
 10
6.853880
 20
2.175360
  0
SEQEND
  8
0
  0
SOLID
  8
0
 62
    15
 10
1.675080
 20
1.178320
 11
1.669800
 21
1.904320
 12
1.675080
 22
2.227280
 13
1.669800
 23
2.953280
  0
POLYLINE
  8
0
  6
CONTINUOUS
 66
     1
 40
0.000000
 41
0.000000
  0
VERTEX
  8
0
  6
CONTINUOUS
 10
1.675080
 20
1.178320
  0
VERTEX
  8
0
  6
CONTINUOUS
 10
1.669800
 20
1.904320
  0
VERTEX
  8
0
  6
CONTINUOUS
 10
1.669800
 20
2.953280
  0
VERTEX
  8
0
  6
CONTINUOUS
 10
1.675080
 20
2.227280
  0
VERTEX
  8
0
  6
CONTINUOUS
 10
1.675080
 20
1.178320
  0
SEQEND
  8
0
  0
SOLID
  8
0
 62
    15
 10
1.675080
 20
2.227280
 11
1.669800
 21
2.953280
 12
3.623840
 22
2.227280
 13
3.618120
 23
2.953280
  0
POLYLINE
  8
0
  6
CONTINUOUS
 66
     1
 40
0.000000
 41
0.000000
  0
VERTEX
  8
0
  6
CONTINUOUS
 10
1.675080
 20
2.227280
  0
VERTEX
  8
0
  6
CONTINUOUS
 10
1.669800
 20
2.953280
  0
VERTEX
  8
0
  6
CONTINUOUS
 10
3.618120
 20
2.953280
  0
VERTEX
  8
0
  6
CONTINUOUS
 10
3.623840
 20
2.227280
  0
VERTEX
  8
0
  6
CONTINUOUS
 10
1.675080
 20
2.227280
  0
SEQEND
  8
0
  0
POLYLINE
  8
0
  6
CONTINUOUS
 66
     1
 40
0.000000
 41
0.000000
  0
VERTEX
  8
0
  6
CONTINUOUS
 10
3.623840
 20
2.222000
  0
VERTEX
  8
0
  6
CONTINUOUS
 10
3.623840
 20
1.969440
  0
VERTEX
  8
0
  6
CONTINUOUS
 10
3.810400
 20
1.969440
  0
VERTEX
  8
0
  6
CONTINUOUS
 10
3.810400
 20
2.035000
  0
VERTEX
  8
0
  6
CONTINUOUS
 10
3.811720
 20
2.038960
  0
VERTEX
  8
0
  6
CONTINUOUS
 10
4.884000
 20
2.232560
  0
VERTEX
  8
0
  6
CONTINUOUS
 10
4.886640
 20
2.232560
  0
VERTEX
  8
0
  6
CONTINUOUS
 10
5.981360
 20
2.038960
  0
VERTEX
  8
0
  6
CONTINUOUS
 10
5.981360
 20
1.974720
  0
VERTEX
  8
0
  6
CONTINUOUS
 10
6.154720
 20
1.974720
  0
VERTEX
  8
0
  6
CONTINUOUS
 10
6.154720
 20
2.225960
  0
VERTEX
  8
0
  6
CONTINUOUS
 10
6.576240
 20
2.225960
  0
VERTEX
  8
0
  6
CONTINUOUS
 10
6.576240
 20
1.968120
  0
VERTEX
  8
0
  6
CONTINUOUS
 10
6.700320
 20
1.968120
  0
VERTEX
  8
0
  6
CONTINUOUS
 10
6.700320
 20
1.987040
  0
VERTEX
  8
0
  6
CONTINUOUS
 10
6.704280
 20
2.025320
  0
VERTEX
  8
0
  6
CONTINUOUS
 10
6.715280
 20
2.061400
  0
VERTEX
  8
0
  6
CONTINUOUS
 10
6.733320
 20
2.093960
  0
VERTEX
  8
0
  6
CONTINUOUS
 10
6.756640
 20
2.122560
  0
VERTEX
  8
0
  6
CONTINUOUS
 10
6.785240
 20
2.146320
  0
VERTEX
  8
0
  6
CONTINUOUS
 10
6.817800
 20
2.163920
  0
VERTEX
  8
0
  6
CONTINUOUS
 10
6.853880
 20
2.175360
  0
VERTEX
  8
0
  6
CONTINUOUS
 10
6.892160
 20
2.178880
  0
VERTEX
  8
0
  6
CONTINUOUS
 10
6.930880
 20
2.175360
  0
VERTEX
  8
0
  6
CONTINUOUS
 10
6.966520
 20
2.163920
  0
VERTEX
  8
0
  6
CONTINUOUS
 10
6.999080
 20
2.146320
  0
VERTEX
  8
0
  6
CONTINUOUS
 10
7.027680
 20
2.122560
  0
VERTEX
  8
0
  6
CONTINUOUS
 10
7.051440
 20
2.093960
  0
VERTEX
  8
0
  6
CONTINUOUS
 10
7.069040
 20
2.061400
  0
VERTEX
  8
0
  6
CONTINUOUS
 10
7.080480
 20
2.025320
  0
VERTEX
  8
0
  6
CONTINUOUS
 10
7.084440
 20
1.987040
  0
VERTEX
  8
0
  6
CONTINUOUS
 10
7.080480
 20
1.948320
  0
VERTEX
  8
0
  6
CONTINUOUS
 10
7.069920
 20
1.912240
  0
VERTEX
  8
0
  6
CONTINUOUS
 10
7.052760
 20
1.879680
  0
VERTEX
  8
0
  6
CONTINUOUS
 10
7.029880
 20
1.851520
  0
VERTEX
  8
0
  6
CONTINUOUS
 10
7.002160
 20
1.827760
  0
VERTEX
  8
0
  6
CONTINUOUS
 10
6.970040
 20
1.810160
  0
VERTEX
  8
0
  6
CONTINUOUS
 10
6.934400
 20
1.798720
  0
VERTEX
  8
0
  6
CONTINUOUS
 10
6.896120
 20
1.794760
  0
VERTEX
  8
0
  6
CONTINUOUS
 10
6.876320
 20
1.794760
  0
VERTEX
  8
0
  6
CONTINUOUS
 10
6.876320
 20
1.673320
  0
VERTEX
  8
0
  6
CONTINUOUS
 10
7.075200
 20
1.673320
  0
VERTEX
  8
0
  6
CONTINUOUS
 10
7.075200
 20
1.178320
  0
VERTEX
  8
0
  6
CONTINUOUS
 10
1.675080
 20
1.178320
  0
VERTEX
  8
0
  6
CONTINUOUS
 10
1.675080
 20
2.227280
  0
VERTEX
  8
0
  6
CONTINUOUS
 10
3.623840
 20
2.227280
  0
VERTEX
  8
0
  6
CONTINUOUS
 10
3.623840
 20
2.222000
  0
SEQEND
  8
0
  0
SOLID
  8
0
 62
     7
 10
2.440240
 20
2.547160
 11
2.435840
 21
3.311000
 12
2.486000
 22
2.518560
 13
2.481600
 23
3.282840
  0
POLYLINE
  8
0
  6
CONTINUOUS
 66
     1
 40
0.000000
 41
0.000000
  0
VERTEX
  8
0
  6
CONTINUOUS
 10
2.440240
 20
2.547160
  0
VERTEX
  8
0
  6
CONTINUOUS
 10
2.435840
 20
3.311000
  0
VERTEX
  8
0
  6
CONTINUOUS
 10
2.481600
 20
3.282840
  0
VERTEX
  8
0
  6
CONTINUOUS
 10
2.486000
 20
2.518560
  0
VERTEX
  8
0
  6
CONTINUOUS
 10
2.440240
 20
2.547160
  0
SEQEND
  8
0
  0
SOLID
  8
0
 62
    15
 10
1.678600
 20
2.931280
 11
1.674200
 21
3.695560
 12
1.770560
 22
2.931280
 13
1.766160
 23
3.695560
  0
POLYLINE
  8
0
  6
CONTINUOUS
 66
     1
 40
0.000000
 41
0.000000
  0
VERTEX
  8
0
  6
CONTINUOUS
 10
1.678600
 20
2.931280
  0
VERTEX
  8
0
  6
CONTINUOUS
 10
1.674200
 20
3.695560
  0
VERTEX
  8
0
  6
CONTINUOUS
 10
1.766160
 20
3.695560
  0
VERTEX
  8
0
  6
CONTINUOUS
 10
1.770560
 20
2.931280
  0
VERTEX
  8
0
  6
CONTINUOUS
 10
1.678600
 20
2.931280
  0
SEQEND
  8
0
  0
SOLID
  8
0
 62
    15
 10
1.770560
 20
2.931280
 11
1.766160
 21
3.695560
 12
1.770560
 22
2.947120
 13
1.766160
 23
3.711400
  0
POLYLINE
  8
0
  6
CONTINUOUS
 66
     1
 40
0.000000
 41
0.000000
  0
VERTEX
  8
0
  6
CONTINUOUS
 10
1.770560
 20
2.931280
  0
VERTEX
  8
0
  6
CONTINUOUS
 10
1.766160
 20
3.695560
  0
VERTEX
  8
0
  6
CONTINUOUS
 10
1.766160
 20
3.711400
  0
VERTEX
  8
0
  6
CONTINUOUS
 10
1.770560
 20
2.947120
  0
VERTEX
  8
0
  6
CONTINUOUS
 10
1.770560
 20
2.931280
  0
SEQEND
  8
0
  0
SOLID
  8
0
 62
    15
 10
1.772760
 20
2.969120
 11
1.768360
 21
3.733400
 12
1.779360
 22
2.989800
 13
1.774960
 23
3.754080
  0
POLYLINE
  8
0
  6
CONTINUOUS
 66
     1
 40
0.000000
 41
0.000000
  0
VERTEX
  8
0
  6
CONTINUOUS
 10
1.772760
 20
2.969120
  0
VERTEX
  8
0
  6
CONTINUOUS
 10
1.768360
 20
3.733400
  0
VERTEX
  8
0
  6
CONTINUOUS
 10
1.774960
 20
3.754080
  0
VERTEX
  8
0
  6
CONTINUOUS
 10
1.779360
 20
2.989800
  0
VERTEX
  8
0
  6
CONTINUOUS
 10
1.772760
 20
2.969120
  0
SEQEND
  8
0
  0
SOLID
  8
0
 62
    15
 10
1.779360
 20
2.989800
 11
1.774960
 21
3.754080
 12
1.789480
 22
3.008720
 13
1.785080
 23
3.772560
  0
POLYLINE
  8
0
  6
CONTINUOUS
 66
     1
 40
0.000000
 41
0.000000
  0
VERTEX
  8
0
  6
CONTINUOUS
 10
1.779360
 20
2.989800
  0
VERTEX
  8
0
  6
CONTINUOUS
 10
1.774960
 20
3.754080
  0
VERTEX
  8
0
  6
CONTINUOUS
 10
1.785080
 20
3.772560
  0
VERTEX
  8
0
  6
CONTINUOUS
 10
1.789480
 20
3.008720
  0
VERTEX
  8
0
  6
CONTINUOUS
 10
1.779360
 20
2.989800
  0
SEQEND
  8
0
  0
SOLID
  8
0
 62
    15
 10
1.789480
 20
3.008720
 11
1.785080
 21
3.772560
 12
1.803120
 22
3.025000
 13
1.798720
 23
3.789280
  0
POLYLINE
  8
0
  6
CONTINUOUS
 66
     1
 40
0.000000
 41
0.000000
  0
VERTEX
  8
0
  6
CONTINUOUS
 10
1.789480
 20
3.008720
  0
VERTEX
  8
0
  6
CONTINUOUS
 10
1.785080
 20
3.772560
  0
VERTEX
  8
0
  6
CONTINUOUS
 10
1.798720
 20
3.789280
  0
VERTEX
  8
0
  6
CONTINUOUS
 10
1.803120
 20
3.025000
  0
VERTEX
  8
0
  6
CONTINUOUS
 10
1.789480
 20
3.008720
  0
SEQEND
  8
0
  0
SOLID
  8
0
 62
    15
 10
1.803120
 20
3.025000
 11
1.798720
 21
3.789280
 12
1.819840
 22
3.038640
 13
1.815440
 23
3.802920
  0
POLYLINE
  8
0
  6
CONTINUOUS
 66
     1
 40
0.000000
 41
0.000000
  0
VERTEX
  8
0
  6
CONTINUOUS
 10
1.803120
 20
3.025000
  0
VERTEX
  8
0
  6
CONTINUOUS
 10
1.798720
 20
3.789280
  0
VERTEX
  8
0
  6
CONTINUOUS
 10
1.815440
 20
3.802920
  0
VERTEX
  8
0
  6
CONTINUOUS
 10
1.819840
 20
3.038640
  0
VERTEX
  8
0
  6
CONTINUOUS
 10
1.803120
 20
3.025000
  0
SEQEND
  8
0
  0
SOLID
  8
0
 62
    15
 10
1.819840
 20
3.038640
 11
1.815440
 21
3.802920
 12
1.838320
 22
3.049200
 13
1.833920
 23
3.813040
  0
POLYLINE
  8
0
  6
CONTINUOUS
 66
     1
 40
0.000000
 41
0.000000
  0
VERTEX
  8
0
  6
CONTINUOUS
 10
1.819840
 20
3.038640
  0
VERTEX
  8
0
  6
CONTINUOUS
 10
1.815440
 20
3.802920
  0
VERTEX
  8
0
  6
CONTINUOUS
 10
1.833920
 20
3.813040
  0
VERTEX
  8
0
  6
CONTINUOUS
 10
1.838320
 20
3.049200
  0
VERTEX
  8
0
  6
CONTINUOUS
 10
1.819840
 20
3.038640
  0
SEQEND
  8
0
  0
SOLID
  8
0
 62
    15
 10
1.838320
 20
3.049200
 11
1.833920
 21
3.813040
 12
1.859000
 22
3.055800
 13
1.854600
 23
3.819640
  0
POLYLINE
  8
0
  6
CONTINUOUS
 66
     1
 40
0.000000
 41
0.000000
  0
VERTEX
  8
0
  6
CONTINUOUS
 10
1.838320
 20
3.049200
  0
VERTEX
  8
0
  6
CONTINUOUS
 10
1.833920
 20
3.813040
  0
VERTEX
  8
0
  6
CONTINUOUS
 10
1.854600
 20
3.819640
  0
VERTEX
  8
0
  6
CONTINUOUS
 10
1.859000
 20
3.055800
  0
VERTEX
  8
0
  6
CONTINUOUS
 10
1.838320
 20
3.049200
  0
SEQEND
  8
0
  0
SOLID
  8
0
 62
    15
 10
1.859000
 20
3.055800
 11
1.854600
 21
3.819640
 12
1.881000
 22
3.058000
 13
1.876600
 23
3.821840
  0
POLYLINE
  8
0
  6
CONTINUOUS
 66
     1
 40
0.000000
 41
0.000000
  0
VERTEX
  8
0
  6
CONTINUOUS
 10
1.859000
 20
3.055800
  0
VERTEX
  8
0
  6
CONTINUOUS
 10
1.854600
 20
3.819640
  0
VERTEX
  8
0
  6
CONTINUOUS
 10
1.876600
 20
3.821840
  0
VERTEX
  8
0
  6
CONTINUOUS
 10
1.881000
 20
3.058000
  0
VERTEX
  8
0
  6
CONTINUOUS
 10
1.859000
 20
3.055800
  0
SEQEND
  8
0
  0
SOLID
  8
0
 62
     7
 10
1.881000
 20
3.058000
 11
1.876600
 21
3.821840
 12
1.903000
 22
3.055800
 13
1.898600
 23
3.819640
  0
POLYLINE
  8
0
  6
CONTINUOUS
 66
     1
 40
0.000000
 41
0.000000
  0
VERTEX
  8
0
  6
CONTINUOUS
 10
1.881000
 20
3.058000
  0
VERTEX
  8
0
  6
CONTINUOUS
 10
1.876600
 20
3.821840
  0
VERTEX
  8
0
  6
CONTINUOUS
 10
1.898600
 20
3.819640
  0
VERTEX
  8
0
  6
CONTINUOUS
 10
1.903000
 20
3.055800
  0
VERTEX
  8
0
  6
CONTINUOUS
 10
1.881000
 20
3.058000
  0
SEQEND
  8
0
  0
SOLID
  8
0
 62
     7
 10
1.903000
 20
3.055800
 11
1.898600
 21
3.819640
 12
1.923680
 22
3.049200
 13
1.919280
 23
3.813040
  0
POLYLINE
  8
0
  6
CONTINUOUS
 66
     1
 40
0.000000
 41
0.000000
  0
VERTEX
  8
0
  6
CONTINUOUS
 10
1.903000
 20
3.055800
  0
VERTEX
  8
0
  6
CONTINUOUS
 10
1.898600
 20
3.819640
  0
VERTEX
  8
0
  6
CONTINUOUS
 10
1.919280
 20
3.813040
  0
VERTEX
  8
0
  6
CONTINUOUS
 10
1.923680
 20
3.049200
  0
VERTEX
  8
0
  6
CONTINUOUS
 10
1.903000
 20
3.055800
  0
SEQEND
  8
0
  0
SOLID
  8
0
 62
     7
 10
1.923680
 20
3.049200
 11
1.919280
 21
3.813040
 12
1.942600
 22
3.038640
 13
1.938200
 23
3.802920
  0
POLYLINE
  8
0
  6
CONTINUOUS
 66
     1
 40
0.000000
 41
0.000000
  0
VERTEX
  8
0
  6
CONTINUOUS
 10
1.923680
 20
3.049200
  0
VERTEX
  8
0
  6
CONTINUOUS
 10
1.919280
 20
3.813040
  0
VERTEX
  8
0
  6
CONTINUOUS
 10
1.938200
 20
3.802920
  0
VERTEX
  8
0
  6
CONTINUOUS
 10
1.942600
 20
3.038640
  0
VERTEX
  8
0
  6
CONTINUOUS
 10
1.923680
 20
3.049200
  0
SEQEND
  8
0
  0
SOLID
  8
0
 62
     7
 10
1.942600
 20
3.038640
 11
1.938200
 21
3.802920
 12
1.958880
 22
3.025000
 13
1.954480
 23
3.789280
  0
POLYLINE
  8
0
  6
CONTINUOUS
 66
     1
 40
0.000000
 41
0.000000
  0
VERTEX
  8
0
  6
CONTINUOUS
 10
1.942600
 20
3.038640
  0
VERTEX
  8
0
  6
CONTINUOUS
 10
1.938200
 20
3.802920
  0
VERTEX
  8
0
  6
CONTINUOUS
 10
1.954480
 20
3.789280
  0
VERTEX
  8
0
  6
CONTINUOUS
 10
1.958880
 20
3.025000
  0
VERTEX
  8
0
  6
CONTINUOUS
 10
1.942600
 20
3.038640
  0
SEQEND
  8
0
  0
SOLID
  8
0
 62
     7
 10
1.958880
 20
3.025000
 11
1.954480
 21
3.789280
 12
1.972520
 22
3.008720
 13
1.968120
 23
3.772560
  0
POLYLINE
  8
0
  6
CONTINUOUS
 66
     1
 40
0.000000
 41
0.000000
  0
VERTEX
  8
0
  6
CONTINUOUS
 10
1.958880
 20
3.025000
  0
VERTEX
  8
0
  6
CONTINUOUS
 10
1.954480
 20
3.789280
  0
VERTEX
  8
0
  6
CONTINUOUS
 10
1.968120
 20
3.772560
  0
VERTEX
  8
0
  6
CONTINUOUS
 10
1.972520
 20
3.008720
  0
VERTEX
  8
0
  6
CONTINUOUS
 10
1.958880
 20
3.025000
  0
SEQEND
  8
0
  0
SOLID
  8
0
 62
    15
 10
1.972520
 20
3.008720
 11
1.968120
 21
3.772560
 12
1.983080
 22
2.989800
 13
1.978680
 23
3.754080
  0
POLYLINE
  8
0
  6
CONTINUOUS
 66
     1
 40
0.000000
 41
0.000000
  0
VERTEX
  8
0
  6
CONTINUOUS
 10
1.972520
 20
3.008720
  0
VERTEX
  8
0
  6
CONTINUOUS
 10
1.968120
 20
3.772560
  0
VERTEX
  8
0
  6
CONTINUOUS
 10
1.978680
 20
3.754080
  0
VERTEX
  8
0
  6
CONTINUOUS
 10
1.983080
 20
2.989800
  0
VERTEX
  8
0
  6
CONTINUOUS
 10
1.972520
 20
3.008720
  0
SEQEND
  8
0
  0
SOLID
  8
0
 62
    15
 10
1.983080
 20
2.989800
 11
1.978680
 21
3.754080
 12
1.989240
 22
2.969120
 13
1.984840
 23
3.733400
  0
POLYLINE
  8
0
  6
CONTINUOUS
 66
     1
 40
0.000000
 41
0.000000
  0
VERTEX
  8
0
  6
CONTINUOUS
 10
1.983080
 20
2.989800
  0
VERTEX
  8
0
  6
CONTINUOUS
 10
1.978680
 20
3.754080
  0
VERTEX
  8
0
  6
CONTINUOUS
 10
1.984840
 20
3.733400
  0
VERTEX
  8
0
  6
CONTINUOUS
 10
1.989240
 20
2.969120
  0
VERTEX
  8
0
  6
CONTINUOUS
 10
1.983080
 20
2.989800
  0
SEQEND
  8
0
  0
SOLID
  8
0
 62
     7
 10
1.991880
 20
2.931280
 11
1.987480
 21
3.695560
 12
2.174480
 22
2.931280
 13
2.170080
 23
3.695560
  0
POLYLINE
  8
0
  6
CONTINUOUS
 66
     1
 40
0.000000
 41
0.000000
  0
VERTEX
  8
0
  6
CONTINUOUS
 10
1.991880
 20
2.931280
  0
VERTEX
  8
0
  6
CONTINUOUS
 10
1.987480
 20
3.695560
  0
VERTEX
  8
0
  6
CONTINUOUS
 10
2.170080
 20
3.695560
  0
VERTEX
  8
0
  6
CONTINUOUS
 10
2.174480
 20
2.931280
  0
VERTEX
  8
0
  6
CONTINUOUS
 10
1.991880
 20
2.931280
  0
SEQEND
  8
0
  0
SOLID
  8
0
 62
    15
 10
1.989240
 20
2.969120
 11
1.984840
 21
3.733400
 12
1.991880
 22
2.947120
 13
1.987480
 23
3.711400
  0
POLYLINE
  8
0
  6
CONTINUOUS
 66
     1
 40
0.000000
 41
0.000000
  0
VERTEX
  8
0
  6
CONTINUOUS
 10
1.989240
 20
2.969120
  0
VERTEX
  8
0
  6
CONTINUOUS
 10
1.984840
 20
3.733400
  0
VERTEX
  8
0
  6
CONTINUOUS
 10
1.987480
 20
3.711400
  0
VERTEX
  8
0
  6
CONTINUOUS
 10
1.991880
 20
2.947120
  0
VERTEX
  8
0
  6
CONTINUOUS
 10
1.989240
 20
2.969120
  0
SEQEND
  8
0
  0
SOLID
  8
0
 62
    15
 10
2.174480
 20
2.931280
 11
2.170080
 21
3.695560
 12
2.186800
 22
2.880240
 13
2.182400
 23
3.644520
  0
POLYLINE
  8
0
  6
CONTINUOUS
 66
     1
 40
0.000000
 41
0.000000
  0
VERTEX
  8
0
  6
CONTINUOUS
 10
2.174480
 20
2.931280
  0
VERTEX
  8
0
  6
CONTINUOUS
 10
2.170080
 20
3.695560
  0
VERTEX
  8
0
  6
CONTINUOUS
 10
2.182400
 20
3.644520
  0
VERTEX
  8
0
  6
CONTINUOUS
 10
2.186800
 20
2.880240
  0
VERTEX
  8
0
  6
CONTINUOUS
 10
2.174480
 20
2.931280
  0
SEQEND
  8
0
  0
SOLID
  8
0
 62
    15
 10
2.186800
 20
2.880240
 11
2.182400
 21
3.644520
 12
2.204400
 22
2.830520
 13
2.200000
 23
3.594800
  0
POLYLINE
  8
0
  6
CONTINUOUS
 66
     1
 40
0.000000
 41
0.000000
  0
VERTEX
  8
0
  6
CONTINUOUS
 10
2.186800
 20
2.880240
  0
VERTEX
  8
0
  6
CONTINUOUS
 10
2.182400
 20
3.644520
  0
VERTEX
  8
0
  6
CONTINUOUS
 10
2.200000
 20
3.594800
  0
VERTEX
  8
0
  6
CONTINUOUS
 10
2.204400
 20
2.830520
  0
VERTEX
  8
0
  6
CONTINUOUS
 10
2.186800
 20
2.880240
  0
SEQEND
  8
0
  0
SOLID
  8
0
 62
    15
 10
2.204400
 20
2.830520
 11
2.200000
 21
3.594800
 12
2.226840
 22
2.783000
 13
2.222440
 23
3.546840
  0
POLYLINE
  8
0
  6
CONTINUOUS
 66
     1
 40
0.000000
 41
0.000000
  0
VERTEX
  8
0
  6
CONTINUOUS
 10
2.204400
 20
2.830520
  0
VERTEX
  8
0
  6
CONTINUOUS
 10
2.200000
 20
3.594800
  0
VERTEX
  8
0
  6
CONTINUOUS
 10
2.222440
 20
3.546840
  0
VERTEX
  8
0
  6
CONTINUOUS
 10
2.226840
 20
2.783000
  0
VERTEX
  8
0
  6
CONTINUOUS
 10
2.204400
 20
2.830520
  0
SEQEND
  8
0
  0
SOLID
  8
0
 62
    15
 10
2.226840
 20
2.783000
 11
2.222440
 21
3.546840
 12
2.253240
 22
2.737240
 13
2.248840
 23
3.501080
  0
POLYLINE
  8
0
  6
CONTINUOUS
 66
     1
 40
0.000000
 41
0.000000
  0
VERTEX
  8
0
  6
CONTINUOUS
 10
2.226840
 20
2.783000
  0
VERTEX
  8
0
  6
CONTINUOUS
 10
2.222440
 20
3.546840
  0
VERTEX
  8
0
  6
CONTINUOUS
 10
2.248840
 20
3.501080
  0
VERTEX
  8
0
  6
CONTINUOUS
 10
2.253240
 20
2.737240
  0
VERTEX
  8
0
  6
CONTINUOUS
 10
2.226840
 20
2.783000
  0
SEQEND
  8
0
  0
SOLID
  8
0
 62
    15
 10
2.253240
 20
2.737240
 11
2.248840
 21
3.501080
 12
2.284040
 22
2.693680
 13
2.279640
 23
3.457520
  0
POLYLINE
  8
0
  6
CONTINUOUS
 66
     1
 40
0.000000
 41
0.000000
  0
VERTEX
  8
0
  6
CONTINUOUS
 10
2.253240
 20
2.737240
  0
VERTEX
  8
0
  6
CONTINUOUS
 10
2.248840
 20
3.501080
  0
VERTEX
  8
0
  6
CONTINUOUS
 10
2.279640
 20
3.457520
  0
VERTEX
  8
0
  6
CONTINUOUS
 10
2.284040
 20
2.693680
  0
VERTEX
  8
0
  6
CONTINUOUS
 10
2.253240
 20
2.737240
  0
SEQEND
  8
0
  0
SOLID
  8
0
 62
     7
 10
2.284040
 20
2.693680
 11
2.279640
 21
3.457520
 12
2.318360
 22
2.652760
 13
2.313960
 23
3.416600
  0
POLYLINE
  8
0
  6
CONTINUOUS
 66
     1
 40
0.000000
 41
0.000000
  0
VERTEX
  8
0
  6
CONTINUOUS
 10
2.284040
 20
2.693680
  0
VERTEX
  8
0
  6
CONTINUOUS
 10
2.279640
 20
3.457520
  0
VERTEX
  8
0
  6
CONTINUOUS
 10
2.313960
 20
3.416600
  0
VERTEX
  8
0
  6
CONTINUOUS
 10
2.318360
 20
2.652760
  0
VERTEX
  8
0
  6
CONTINUOUS
 10
2.284040
 20
2.693680
  0
SEQEND
  8
0
  0
SOLID
  8
0
 62
     7
 10
2.318360
 20
2.652760
 11
2.313960
 21
3.416600
 12
2.356200
 22
2.614480
 13
2.351800
 23
3.378320
  0
POLYLINE
  8
0
  6
CONTINUOUS
 66
     1
 40
0.000000
 41
0.000000
  0
VERTEX
  8
0
  6
CONTINUOUS
 10
2.318360
 20
2.652760
  0
VERTEX
  8
0
  6
CONTINUOUS
 10
2.313960
 20
3.416600
  0
VERTEX
  8
0
  6
CONTINUOUS
 10
2.351800
 20
3.378320
  0
VERTEX
  8
0
  6
CONTINUOUS
 10
2.356200
 20
2.614480
  0
VERTEX
  8
0
  6
CONTINUOUS
 10
2.318360
 20
2.652760
  0
SEQEND
  8
0
  0
SOLID
  8
0
 62
     7
 10
2.356200
 20
2.614480
 11
2.351800
 21
3.378320
 12
2.397120
 22
2.579280
 13
2.392720
 23
3.343120
  0
POLYLINE
  8
0
  6
CONTINUOUS
 66
     1
 40
0.000000
 41
0.000000
  0
VERTEX
  8
0
  6
CONTINUOUS
 10
2.356200
 20
2.614480
  0
VERTEX
  8
0
  6
CONTINUOUS
 10
2.351800
 20
3.378320
  0
VERTEX
  8
0
  6
CONTINUOUS
 10
2.392720
 20
3.343120
  0
VERTEX
  8
0
  6
CONTINUOUS
 10
2.397120
 20
2.579280
  0
VERTEX
  8
0
  6
CONTINUOUS
 10
2.356200
 20
2.614480
  0
SEQEND
  8
0
  0
SOLID
  8
0
 62
     7
 10
2.397120
 20
2.579280
 11
2.392720
 21
3.343120
 12
2.440240
 22
2.547160
 13
2.435840
 23
3.311000
  0
POLYLINE
  8
0
  6
CONTINUOUS
 66
     1
 40
0.000000
 41
0.000000
  0
VERTEX
  8
0
  6
CONTINUOUS
 10
2.397120
 20
2.579280
  0
VERTEX
  8
0
  6
CONTINUOUS
 10
2.392720
 20
3.343120
  0
VERTEX
  8
0
  6
CONTINUOUS
 10
2.435840
 20
3.311000
  0
VERTEX
  8
0
  6
CONTINUOUS
 10
2.440240
 20
2.547160
  0
VERTEX
  8
0
  6
CONTINUOUS
 10
2.397120
 20
2.579280
  0
SEQEND
  8
0
  0
SOLID
  8
0
 62
    15
 10
1.770560
 20
2.947120
 11
1.766160
 21
3.711400
 12
1.772760
 22
2.969120
 13
1.768360
 23
3.733400
  0
POLYLINE
  8
0
  6
CONTINUOUS
 66
     1
 40
0.000000
 41
0.000000
  0
VERTEX
  8
0
  6
CONTINUOUS
 10
1.770560
 20
2.947120
  0
VERTEX
  8
0
  6
CONTINUOUS
 10
1.766160
 20
3.711400
  0
VERTEX
  8
0
  6
CONTINUOUS
 10
1.768360
 20
3.733400
  0
VERTEX
  8
0
  6
CONTINUOUS
 10
1.772760
 20
2.969120
  0
VERTEX
  8
0
  6
CONTINUOUS
 10
1.770560
 20
2.947120
  0
SEQEND
  8
0
  0
SOLID
  8
0
 62
     7
 10
2.486000
 20
2.518560
 11
2.481600
 21
3.282840
 12
2.533520
 22
2.493480
 13
2.529120
 23
3.257760
  0
POLYLINE
  8
0
  6
CONTINUOUS
 66
     1
 40
0.000000
 41
0.000000
  0
VERTEX
  8
0
  6
CONTINUOUS
 10
2.486000
 20
2.518560
  0
VERTEX
  8
0
  6
CONTINUOUS
 10
2.481600
 20
3.282840
  0
VERTEX
  8
0
  6
CONTINUOUS
 10
2.529120
 20
3.257760
  0
VERTEX
  8
0
  6
CONTINUOUS
 10
2.533520
 20
2.493480
  0
VERTEX
  8
0
  6
CONTINUOUS
 10
2.486000
 20
2.518560
  0
SEQEND
  8
0
  0
SOLID
  8
0
 62
     7
 10
2.533520
 20
2.493480
 11
2.529120
 21
3.257760
 12
2.582800
 22
2.472800
 13
2.578400
 23
3.237080
  0
POLYLINE
  8
0
  6
CONTINUOUS
 66
     1
 40
0.000000
 41
0.000000
  0
VERTEX
  8
0
  6
CONTINUOUS
 10
2.533520
 20
2.493480
  0
VERTEX
  8
0
  6
CONTINUOUS
 10
2.529120
 20
3.257760
  0
VERTEX
  8
0
  6
CONTINUOUS
 10
2.578400
 20
3.237080
  0
VERTEX
  8
0
  6
CONTINUOUS
 10
2.582800
 20
2.472800
  0
VERTEX
  8
0
  6
CONTINUOUS
 10
2.533520
 20
2.493480
  0
SEQEND
  8
0
  0
SOLID
  8
0
 62
     7
 10
2.582800
 20
2.472800
 11
2.578400
 21
3.237080
 12
2.632960
 22
2.456080
 13
2.628560
 23
3.220360
  0
POLYLINE
  8
0
  6
CONTINUOUS
 66
     1
 40
0.000000
 41
0.000000
  0
VERTEX
  8
0
  6
CONTINUOUS
 10
2.582800
 20
2.472800
  0
VERTEX
  8
0
  6
CONTINUOUS
 10
2.578400
 20
3.237080
  0
VERTEX
  8
0
  6
CONTINUOUS
 10
2.628560
 20
3.220360
  0
VERTEX
  8
0
  6
CONTINUOUS
 10
2.632960
 20
2.456080
  0
VERTEX
  8
0
  6
CONTINUOUS
 10
2.582800
 20
2.472800
  0
SEQEND
  8
0
  0
SOLID
  8
0
 62
     7
 10
2.632960
 20
2.456080
 11
2.628560
 21
3.220360
 12
2.684440
 22
2.443760
 13
2.680040
 23
3.208040
  0
POLYLINE
  8
0
  6
CONTINUOUS
 66
     1
 40
0.000000
 41
0.000000
  0
VERTEX
  8
0
  6
CONTINUOUS
 10
2.632960
 20
2.456080
  0
VERTEX
  8
0
  6
CONTINUOUS
 10
2.628560
 20
3.220360
  0
VERTEX
  8
0
  6
CONTINUOUS
 10
2.680040
 20
3.208040
  0
VERTEX
  8
0
  6
CONTINUOUS
 10
2.684440
 20
2.443760
  0
VERTEX
  8
0
  6
CONTINUOUS
 10
2.632960
 20
2.456080
  0
SEQEND
  8
0
  0
SOLID
  8
0
 62
     7
 10
2.684440
 20
2.443760
 11
2.680040
 21
3.208040
 12
2.735920
 22
2.436280
 13
2.731520
 23
3.200560
  0
POLYLINE
  8
0
  6
CONTINUOUS
 66
     1
 40
0.000000
 41
0.000000
  0
VERTEX
  8
0
  6
CONTINUOUS
 10
2.684440
 20
2.443760
  0
VERTEX
  8
0
  6
CONTINUOUS
 10
2.680040
 20
3.208040
  0
VERTEX
  8
0
  6
CONTINUOUS
 10
2.731520
 20
3.200560
  0
VERTEX
  8
0
  6
CONTINUOUS
 10
2.735920
 20
2.436280
  0
VERTEX
  8
0
  6
CONTINUOUS
 10
2.684440
 20
2.443760
  0
SEQEND
  8
0
  0
SOLID
  8
0
 62
     7
 10
2.787840
 20
2.434080
 11
2.783440
 21
3.197920
 12
2.797080
 22
2.434080
 13
2.792680
 23
3.197920
  0
POLYLINE
  8
0
  6
CONTINUOUS
 66
     1
 40
0.000000
 41
0.000000
  0
VERTEX
  8
0
  6
CONTINUOUS
 10
2.787840
 20
2.434080
  0
VERTEX
  8
0
  6
CONTINUOUS
 10
2.783440
 20
3.197920
  0
VERTEX
  8
0
  6
CONTINUOUS
 10
2.792680
 20
3.197920
  0
VERTEX
  8
0
  6
CONTINUOUS
 10
2.797080
 20
2.434080
  0
VERTEX
  8
0
  6
CONTINUOUS
 10
2.787840
 20
2.434080
  0
SEQEND
  8
0
  0
SOLID
  8
0
 62
     7
 10
2.735920
 20
2.436280
 11
2.731520
 21
3.200560
 12
2.787840
 22
2.434080
 13
2.783440
 23
3.197920
  0
POLYLINE
  8
0
  6
CONTINUOUS
 66
     1
 40
0.000000
 41
0.000000
  0
VERTEX
  8
0
  6
CONTINUOUS
 10
2.735920
 20
2.436280
  0
VERTEX
  8
0
  6
CONTINUOUS
 10
2.731520
 20
3.200560
  0
VERTEX
  8
0
  6
CONTINUOUS
 10
2.783440
 20
3.197920
  0
VERTEX
  8
0
  6
CONTINUOUS
 10
2.787840
 20
2.434080
  0
VERTEX
  8
0
  6
CONTINUOUS
 10
2.735920
 20
2.436280
  0
SEQEND
  8
0
  0
SOLID
  8
0
 62
    15
 10
2.797080
 20
2.434080
 11
2.792680
 21
3.197920
 12
2.797080
 22
2.455200
 13
2.792680
 23
3.219480
  0
POLYLINE
  8
0
  6
CONTINUOUS
 66
     1
 40
0.000000
 41
0.000000
  0
VERTEX
  8
0
  6
CONTINUOUS
 10
2.797080
 20
2.434080
  0
VERTEX
  8
0
  6
CONTINUOUS
 10
2.792680
 20
3.197920
  0
VERTEX
  8
0
  6
CONTINUOUS
 10
2.792680
 20
3.219480
  0
VERTEX
  8
0
  6
CONTINUOUS
 10
2.797080
 20
2.455200
  0
VERTEX
  8
0
  6
CONTINUOUS
 10
2.797080
 20
2.434080
  0
SEQEND
  8
0
  0
SOLID
  8
0
 62
    15
 10
2.797080
 20
2.455200
 11
2.792680
 21
3.219480
 12
2.799280
 22
2.477640
 13
2.794880
 23
3.241480
  0
POLYLINE
  8
0
  6
CONTINUOUS
 66
     1
 40
0.000000
 41
0.000000
  0
VERTEX
  8
0
  6
CONTINUOUS
 10
2.797080
 20
2.455200
  0
VERTEX
  8
0
  6
CONTINUOUS
 10
2.792680
 20
3.219480
  0
VERTEX
  8
0
  6
CONTINUOUS
 10
2.794880
 20
3.241480
  0
VERTEX
  8
0
  6
CONTINUOUS
 10
2.799280
 20
2.477640
  0
VERTEX
  8
0
  6
CONTINUOUS
 10
2.797080
 20
2.455200
  0
SEQEND
  8
0
  0
SOLID
  8
0
 62
    15
 10
2.799280
 20
2.477640
 11
2.794880
 21
3.241480
 12
2.806320
 22
2.498320
 13
2.801920
 23
3.262160
  0
POLYLINE
  8
0
  6
CONTINUOUS
 66
     1
 40
0.000000
 41
0.000000
  0
VERTEX
  8
0
  6
CONTINUOUS
 10
2.799280
 20
2.477640
  0
VERTEX
  8
0
  6
CONTINUOUS
 10
2.794880
 20
3.241480
  0
VERTEX
  8
0
  6
CONTINUOUS
 10
2.801920
 20
3.262160
  0
VERTEX
  8
0
  6
CONTINUOUS
 10
2.806320
 20
2.498320
  0
VERTEX
  8
0
  6
CONTINUOUS
 10
2.799280
 20
2.477640
  0
SEQEND
  8
0
  0
SOLID
  8
0
 62
    15
 10
2.806320
 20
2.498320
 11
2.801920
 21
3.262160
 12
2.816880
 22
2.516800
 13
2.812480
 23
3.281080
  0
POLYLINE
  8
0
  6
CONTINUOUS
 66
     1
 40
0.000000
 41
0.000000
  0
VERTEX
  8
0
  6
CONTINUOUS
 10
2.806320
 20
2.498320
  0
VERTEX
  8
0
  6
CONTINUOUS
 10
2.801920
 20
3.262160
  0
VERTEX
  8
0
  6
CONTINUOUS
 10
2.812480
 20
3.281080
  0
VERTEX
  8
0
  6
CONTINUOUS
 10
2.816880
 20
2.516800
  0
VERTEX
  8
0
  6
CONTINUOUS
 10
2.806320
 20
2.498320
  0
SEQEND
  8
0
  0
SOLID
  8
0
 62
    15
 10
2.816880
 20
2.516800
 11
2.812480
 21
3.281080
 12
2.830520
 22
2.533080
 13
2.826120
 23
3.296920
  0
POLYLINE
  8
0
  6
CONTINUOUS
 66
     1
 40
0.000000
 41
0.000000
  0
VERTEX
  8
0
  6
CONTINUOUS
 10
2.816880
 20
2.516800
  0
VERTEX
  8
0
  6
CONTINUOUS
 10
2.812480
 20
3.281080
  0
VERTEX
  8
0
  6
CONTINUOUS
 10
2.826120
 20
3.296920
  0
VERTEX
  8
0
  6
CONTINUOUS
 10
2.830520
 20
2.533080
  0
VERTEX
  8
0
  6
CONTINUOUS
 10
2.816880
 20
2.516800
  0
SEQEND
  8
0
  0
SOLID
  8
0
 62
    15
 10
2.830520
 20
2.533080
 11
2.826120
 21
3.296920
 12
2.847680
 22
2.546280
 13
2.843280
 23
3.310120
  0
POLYLINE
  8
0
  6
CONTINUOUS
 66
     1
 40
0.000000
 41
0.000000
  0
VERTEX
  8
0
  6
CONTINUOUS
 10
2.830520
 20
2.533080
  0
VERTEX
  8
0
  6
CONTINUOUS
 10
2.826120
 20
3.296920
  0
VERTEX
  8
0
  6
CONTINUOUS
 10
2.843280
 20
3.310120
  0
VERTEX
  8
0
  6
CONTINUOUS
 10
2.847680
 20
2.546280
  0
VERTEX
  8
0
  6
CONTINUOUS
 10
2.830520
 20
2.533080
  0
SEQEND
  8
0
  0
SOLID
  8
0
 62
    15
 10
2.847680
 20
2.546280
 11
2.843280
 21
3.310120
 12
2.866600
 22
2.555960
 13
2.862200
 23
3.320240
  0
POLYLINE
  8
0
  6
CONTINUOUS
 66
     1
 40
0.000000
 41
0.000000
  0
VERTEX
  8
0
  6
CONTINUOUS
 10
2.847680
 20
2.546280
  0
VERTEX
  8
0
  6
CONTINUOUS
 10
2.843280
 20
3.310120
  0
VERTEX
  8
0
  6
CONTINUOUS
 10
2.862200
 20
3.320240
  0
VERTEX
  8
0
  6
CONTINUOUS
 10
2.866600
 20
2.555960
  0
VERTEX
  8
0
  6
CONTINUOUS
 10
2.847680
 20
2.546280
  0
SEQEND
  8
0
  0
SOLID
  8
0
 62
    15
 10
2.866600
 20
2.555960
 11
2.862200
 21
3.320240
 12
2.887720
 22
2.562560
 13
2.883320
 23
3.326400
  0
POLYLINE
  8
0
  6
CONTINUOUS
 66
     1
 40
0.000000
 41
0.000000
  0
VERTEX
  8
0
  6
CONTINUOUS
 10
2.866600
 20
2.555960
  0
VERTEX
  8
0
  6
CONTINUOUS
 10
2.862200
 20
3.320240
  0
VERTEX
  8
0
  6
CONTINUOUS
 10
2.883320
 20
3.326400
  0
VERTEX
  8
0
  6
CONTINUOUS
 10
2.887720
 20
2.562560
  0
VERTEX
  8
0
  6
CONTINUOUS
 10
2.866600
 20
2.555960
  0
SEQEND
  8
0
  0
SOLID
  8
0
 62
     7
 10
2.887720
 20
2.562560
 11
2.883320
 21
3.326400
 12
2.910600
 22
2.564760
 13
2.906200
 23
3.328600
  0
POLYLINE
  8
0
  6
CONTINUOUS
 66
     1
 40
0.000000
 41
0.000000
  0
VERTEX
  8
0
  6
CONTINUOUS
 10
2.887720
 20
2.562560
  0
VERTEX
  8
0
  6
CONTINUOUS
 10
2.883320
 20
3.326400
  0
VERTEX
  8
0
  6
CONTINUOUS
 10
2.906200
 20
3.328600
  0
VERTEX
  8
0
  6
CONTINUOUS
 10
2.910600
 20
2.564760
  0
VERTEX
  8
0
  6
CONTINUOUS
 10
2.887720
 20
2.562560
  0
SEQEND
  8
0
  0
SOLID
  8
0
 62
     7
 10
2.910600
 20
2.564760
 11
2.906200
 21
3.328600
 12
2.933040
 22
2.562120
 13
2.928640
 23
3.326400
  0
POLYLINE
  8
0
  6
CONTINUOUS
 66
     1
 40
0.000000
 41
0.000000
  0
VERTEX
  8
0
  6
CONTINUOUS
 10
2.910600
 20
2.564760
  0
VERTEX
  8
0
  6
CONTINUOUS
 10
2.906200
 20
3.328600
  0
VERTEX
  8
0
  6
CONTINUOUS
 10
2.928640
 20
3.326400
  0
VERTEX
  8
0
  6
CONTINUOUS
 10
2.933040
 20
2.562120
  0
VERTEX
  8
0
  6
CONTINUOUS
 10
2.910600
 20
2.564760
  0
SEQEND
  8
0
  0
SOLID
  8
0
 62
     7
 10
2.933040
 20
2.562120
 11
2.928640
 21
3.326400
 12
2.954160
 22
2.555080
 13
2.949760
 23
3.319360
  0
POLYLINE
  8
0
  6
CONTINUOUS
 66
     1
 40
0.000000
 41
0.000000
  0
VERTEX
  8
0
  6
CONTINUOUS
 10
2.933040
 20
2.562120
  0
VERTEX
  8
0
  6
CONTINUOUS
 10
2.928640
 20
3.326400
  0
VERTEX
  8
0
  6
CONTINUOUS
 10
2.949760
 20
3.319360
  0
VERTEX
  8
0
  6
CONTINUOUS
 10
2.954160
 20
2.555080
  0
VERTEX
  8
0
  6
CONTINUOUS
 10
2.933040
 20
2.562120
  0
SEQEND
  8
0
  0
SOLID
  8
0
 62
     7
 10
2.954160
 20
2.555080
 11
2.949760
 21
3.319360
 12
2.973520
 22
2.544520
 13
2.969120
 23
3.308360
  0
POLYLINE
  8
0
  6
CONTINUOUS
 66
     1
 40
0.000000
 41
0.000000
  0
VERTEX
  8
0
  6
CONTINUOUS
 10
2.954160
 20
2.555080
  0
VERTEX
  8
0
  6
CONTINUOUS
 10
2.949760
 20
3.319360
  0
VERTEX
  8
0
  6
CONTINUOUS
 10
2.969120
 20
3.308360
  0
VERTEX
  8
0
  6
CONTINUOUS
 10
2.973520
 20
2.544520
  0
VERTEX
  8
0
  6
CONTINUOUS
 10
2.954160
 20
2.555080
  0
SEQEND
  8
0
  0
SOLID
  8
0
 62
     7
 10
2.973520
 20
2.544520
 11
2.969120
 21
3.308360
 12
2.990680
 22
2.530000
 13
2.986280
 23
3.294280
  0
POLYLINE
  8
0
  6
CONTINUOUS
 66
     1
 40
0.000000
 41
0.000000
  0
VERTEX
  8
0
  6
CONTINUOUS
 10
2.973520
 20
2.544520
  0
VERTEX
  8
0
  6
CONTINUOUS
 10
2.969120
 20
3.308360
  0
VERTEX
  8
0
  6
CONTINUOUS
 10
2.986280
 20
3.294280
  0
VERTEX
  8
0
  6
CONTINUOUS
 10
2.990680
 20
2.530000
  0
VERTEX
  8
0
  6
CONTINUOUS
 10
2.973520
 20
2.544520
  0
SEQEND
  8
0
  0
SOLID
  8
0
 62
    15
 10
2.990680
 20
2.530000
 11
2.986280
 21
3.294280
 12
3.004760
 22
2.513280
 13
3.000360
 23
3.277120
  0
POLYLINE
  8
0
  6
CONTINUOUS
 66
     1
 40
0.000000
 41
0.000000
  0
VERTEX
  8
0
  6
CONTINUOUS
 10
2.990680
 20
2.530000
  0
VERTEX
  8
0
  6
CONTINUOUS
 10
2.986280
 20
3.294280
  0
VERTEX
  8
0
  6
CONTINUOUS
 10
3.000360
 20
3.277120
  0
VERTEX
  8
0
  6
CONTINUOUS
 10
3.004760
 20
2.513280
  0
VERTEX
  8
0
  6
CONTINUOUS
 10
2.990680
 20
2.530000
  0
SEQEND
  8
0
  0
SOLID
  8
0
 62
    15
 10
3.004760
 20
2.513280
 11
3.000360
 21
3.277120
 12
3.015760
 22
2.493480
 13
3.011360
 23
3.257760
  0
POLYLINE
  8
0
  6
CONTINUOUS
 66
     1
 40
0.000000
 41
0.000000
  0
VERTEX
  8
0
  6
CONTINUOUS
 10
3.004760
 20
2.513280
  0
VERTEX
  8
0
  6
CONTINUOUS
 10
3.000360
 20
3.277120
  0
VERTEX
  8
0
  6
CONTINUOUS
 10
3.011360
 20
3.257760
  0
VERTEX
  8
0
  6
CONTINUOUS
 10
3.015760
 20
2.493480
  0
VERTEX
  8
0
  6
CONTINUOUS
 10
3.004760
 20
2.513280
  0
SEQEND
  8
0
  0
SOLID
  8
0
 62
    15
 10
3.015760
 20
2.493480
 11
3.011360
 21
3.257760
 12
3.022800
 22
2.472360
 13
3.018400
 23
3.236640
  0
POLYLINE
  8
0
  6
CONTINUOUS
 66
     1
 40
0.000000
 41
0.000000
  0
VERTEX
  8
0
  6
CONTINUOUS
 10
3.015760
 20
2.493480
  0
VERTEX
  8
0
  6
CONTINUOUS
 10
3.011360
 20
3.257760
  0
VERTEX
  8
0
  6
CONTINUOUS
 10
3.018400
 20
3.236640
  0
VERTEX
  8
0
  6
CONTINUOUS
 10
3.022800
 20
2.472360
  0
VERTEX
  8
0
  6
CONTINUOUS
 10
3.015760
 20
2.493480
  0
SEQEND
  8
0
  0
SOLID
  8
0
 62
     7
 10
3.025000
 20
2.436720
 11
3.020600
 21
3.200560
 12
3.187800
 22
2.436720
 13
3.183400
 23
3.200560
  0
POLYLINE
  8
0
  6
CONTINUOUS
 66
     1
 40
0.000000
 41
0.000000
  0
VERTEX
  8
0
  6
CONTINUOUS
 10
3.025000
 20
2.436720
  0
VERTEX
  8
0
  6
CONTINUOUS
 10
3.020600
 20
3.200560
  0
VERTEX
  8
0
  6
CONTINUOUS
 10
3.183400
 20
3.200560
  0
VERTEX
  8
0
  6
CONTINUOUS
 10
3.187800
 20
2.436720
  0
VERTEX
  8
0
  6
CONTINUOUS
 10
3.025000
 20
2.436720
  0
SEQEND
  8
0
  0
SOLID
  8
0
 62
    15
 10
3.022800
 20
2.472360
 11
3.018400
 21
3.236640
 12
3.025000
 22
2.449920
 13
3.020600
 23
3.214200
  0
POLYLINE
  8
0
  6
CONTINUOUS
 66
     1
 40
0.000000
 41
0.000000
  0
VERTEX
  8
0
  6
CONTINUOUS
 10
3.022800
 20
2.472360
  0
VERTEX
  8
0
  6
CONTINUOUS
 10
3.018400
 20
3.236640
  0
VERTEX
  8
0
  6
CONTINUOUS
 10
3.020600
 20
3.214200
  0
VERTEX
  8
0
  6
CONTINUOUS
 10
3.025000
 20
2.449920
  0
VERTEX
  8
0
  6
CONTINUOUS
 10
3.022800
 20
2.472360
  0
SEQEND
  8
0
  0
SOLID
  8
0
 62
    15
 10
1.674200
 20
2.228600
 11
1.669800
 21
2.992880
 12
1.674200
 22
2.931280
 13
1.669800
 23
3.695560
  0
POLYLINE
  8
0
  6
CONTINUOUS
 66
     1
 40
0.000000
 41
0.000000
  0
VERTEX
  8
0
  6
CONTINUOUS
 10
1.674200
 20
2.228600
  0
VERTEX
  8
0
  6
CONTINUOUS
 10
1.669800
 20
2.992880
  0
VERTEX
  8
0
  6
CONTINUOUS
 10
1.669800
 20
3.695560
  0
VERTEX
  8
0
  6
CONTINUOUS
 10
1.674200
 20
2.931280
  0
VERTEX
  8
0
  6
CONTINUOUS
 10
1.674200
 20
2.228600
  0
SEQEND
  8
0
  0
SOLID
  8
0
 62
    15
 10
1.674200
 20
2.931280
 11
1.669800
 21
3.695560
 12
1.682560
 22
2.931280
 13
1.678160
 23
3.695560
  0
POLYLINE
  8
0
  6
CONTINUOUS
 66
     1
 40
0.000000
 41
0.000000
  0
VERTEX
  8
0
  6
CONTINUOUS
 10
1.674200
 20
2.931280
  0
VERTEX
  8
0
  6
CONTINUOUS
 10
1.669800
 20
3.695560
  0
VERTEX
  8
0
  6
CONTINUOUS
 10
1.678160
 20
3.695560
  0
VERTEX
  8
0
  6
CONTINUOUS
 10
1.682560
 20
2.931280
  0
VERTEX
  8
0
  6
CONTINUOUS
 10
1.674200
 20
2.931280
  0
SEQEND
  8
0
  0
POLYLINE
  8
0
  6
CONTINUOUS
 66
     1
 40
0.000000
 41
0.000000
  0
VERTEX
  8
0
  6
CONTINUOUS
 10
1.678600
 20
2.931280
  0
VERTEX
  8
0
  6
CONTINUOUS
 10
1.770560
 20
2.931280
  0
VERTEX
  8
0
  6
CONTINUOUS
 10
1.770560
 20
2.947120
  0
VERTEX
  8
0
  6
CONTINUOUS
 10
1.772760
 20
2.969120
  0
VERTEX
  8
0
  6
CONTINUOUS
 10
1.779360
 20
2.989800
  0
VERTEX
  8
0
  6
CONTINUOUS
 10
1.789480
 20
3.008720
  0
VERTEX
  8
0
  6
CONTINUOUS
 10
1.803120
 20
3.025000
  0
VERTEX
  8
0
  6
CONTINUOUS
 10
1.819840
 20
3.038640
  0
VERTEX
  8
0
  6
CONTINUOUS
 10
1.838320
 20
3.049200
  0
VERTEX
  8
0
  6
CONTINUOUS
 10
1.859000
 20
3.055800
  0
VERTEX
  8
0
  6
CONTINUOUS
 10
1.881000
 20
3.058000
  0
VERTEX
  8
0
  6
CONTINUOUS
 10
1.903000
 20
3.055800
  0
VERTEX
  8
0
  6
CONTINUOUS
 10
1.923680
 20
3.049200
  0
VERTEX
  8
0
  6
CONTINUOUS
 10
1.942600
 20
3.038640
  0
VERTEX
  8
0
  6
CONTINUOUS
 10
1.958880
 20
3.025000
  0
VERTEX
  8
0
  6
CONTINUOUS
 10
1.972520
 20
3.008720
  0
VERTEX
  8
0
  6
CONTINUOUS
 10
1.983080
 20
2.989800
  0
VERTEX
  8
0
  6
CONTINUOUS
 10
1.989240
 20
2.969120
  0
VERTEX
  8
0
  6
CONTINUOUS
 10
1.991880
 20
2.947120
  0
VERTEX
  8
0
  6
CONTINUOUS
 10
1.991880
 20
2.931280
  0
VERTEX
  8
0
  6
CONTINUOUS
 10
2.174480
 20
2.931280
  0
VERTEX
  8
0
  6
CONTINUOUS
 10
2.186800
 20
2.880240
  0
VERTEX
  8
0
  6
CONTINUOUS
 10
2.204400
 20
2.830520
  0
VERTEX
  8
0
  6
CONTINUOUS
 10
2.226840
 20
2.783000
  0
VERTEX
  8
0
  6
CONTINUOUS
 10
2.253240
 20
2.737240
  0
VERTEX
  8
0
  6
CONTINUOUS
 10
2.284040
 20
2.693680
  0
VERTEX
  8
0
  6
CONTINUOUS
 10
2.318360
 20
2.652760
  0
VERTEX
  8
0
  6
CONTINUOUS
 10
2.356200
 20
2.614480
  0
VERTEX
  8
0
  6
CONTINUOUS
 10
2.397120
 20
2.579280
  0
VERTEX
  8
0
  6
CONTINUOUS
 10
2.440240
 20
2.547160
  0
VERTEX
  8
0
  6
CONTINUOUS
 10
2.486000
 20
2.518560
  0
VERTEX
  8
0
  6
CONTINUOUS
 10
2.533520
 20
2.493480
  0
VERTEX
  8
0
  6
CONTINUOUS
 10
2.582800
 20
2.472800
  0
VERTEX
  8
0
  6
CONTINUOUS
 10
2.632960
 20
2.456080
  0
VERTEX
  8
0
  6
CONTINUOUS
 10
2.684440
 20
2.443760
  0
VERTEX
  8
0
  6
CONTINUOUS
 10
2.735920
 20
2.436280
  0
VERTEX
  8
0
  6
CONTINUOUS
 10
2.797080
 20
2.434080
  0
VERTEX
  8
0
  6
CONTINUOUS
 10
2.797080
 20
2.455200
  0
VERTEX
  8
0
  6
CONTINUOUS
 10
2.799280
 20
2.477640
  0
VERTEX
  8
0
  6
CONTINUOUS
 10
2.806320
 20
2.498320
  0
VERTEX
  8
0
  6
CONTINUOUS
 10
2.816880
 20
2.516800
  0
VERTEX
  8
0
  6
CONTINUOUS
 10
2.830520
 20
2.533080
  0
VERTEX
  8
0
  6
CONTINUOUS
 10
2.847680
 20
2.546280
  0
VERTEX
  8
0
  6
CONTINUOUS
 10
2.866600
 20
2.555960
  0
VERTEX
  8
0
  6
CONTINUOUS
 10
2.887720
 20
2.562560
  0
VERTEX
  8
0
  6
CONTINUOUS
 10
2.910600
 20
2.564760
  0
VERTEX
  8
0
  6
CONTINUOUS
 10
2.933040
 20
2.562120
  0
VERTEX
  8
0
  6
CONTINUOUS
 10
2.954160
 20
2.555080
  0
VERTEX
  8
0
  6
CONTINUOUS
 10
2.973520
 20
2.544520
  0
VERTEX
  8
0
  6
CONTINUOUS
 10
2.990680
 20
2.530000
  0
VERTEX
  8
0
  6
CONTINUOUS
 10
3.004760
 20
2.513280
  0
VERTEX
  8
0
  6
CONTINUOUS
 10
3.015760
 20
2.493480
  0
VERTEX
  8
0
  6
CONTINUOUS
 10
3.022800
 20
2.472360
  0
VERTEX
  8
0
  6
CONTINUOUS
 10
3.025000
 20
2.449920
  0
VERTEX
  8
0
  6
CONTINUOUS
 10
3.025000
 20
2.436720
  0
VERTEX
  8
0
  6
CONTINUOUS
 10
3.187800
 20
2.436720
  0
VERTEX
  8
0
  6
CONTINUOUS
 10
3.187800
 20
2.228600
  0
VERTEX
  8
0
  6
CONTINUOUS
 10
1.674200
 20
2.228600
  0
VERTEX
  8
0
  6
CONTINUOUS
 10
1.674200
 20
2.931280
  0
VERTEX
  8
0
  6
CONTINUOUS
 10
1.682560
 20
2.931280
  0
VERTEX
  8
0
  6
CONTINUOUS
 10
1.678600
 20
2.931280
  0
SEQEND
  8
0
  0
TEXT
  8
0
 10
3.641880
 20
0.910360
 40
0.138307
  1
BA  149 13/16" x 1-1/2"
 41
1.000000
  7
SN0
 71
     0
 72
     5
 11
5.365107
 21
0.910360
  0
TEXT
  8
0
 10
3.641880
 20
0.718960
 40
0.138307
  1
BA  157 1-1/16" x 5-3/8"
 41
1.000000
  7
SN0
 71
     0
 72
     5
 11
5.420152
 21
0.718960
  0
TEXT
  8
0
 10
1.716880
 20
2.276120
 40
0.138307
  1
149
 41
1.000000
  7
SN0
 71
     0
 72
     5
 11
1.994387
 21
2.276120
  0
TEXT
  8
0
 10
1.718640
 20
1.237280
 40
0.138307
  1
157
 41
1.000000
  7
SN0
 71
     0
 72
     5
 11
1.996147
 21
1.237280
  0
POLYLINE
  8
0
  6
CONTINUOUS
 66
     1
 40
0.014080
 41
0.014080
  0
VERTEX
  8
0
  6
CONTINUOUS
 10
3.592160
 20
5.113680
  0
VERTEX
  8
0
  6
CONTINUOUS
 10
3.592160
 20
4.861560
  0
VERTEX
  8
0
  6
CONTINUOUS
 10
3.778720
 20
4.861560
  0
VERTEX
  8
0
  6
CONTINUOUS
 10
3.778720
 20
4.926680
  0
VERTEX
  8
0
  6
CONTINUOUS
 10
3.780040
 20
4.930640
  0
VERTEX
  8
0
  6
CONTINUOUS
 10
4.854960
 20
5.124240
  0
VERTEX
  8
0
  6
CONTINUOUS
 10
5.950120
 20
4.930640
  0
VERTEX
  8
0
  6
CONTINUOUS
 10
5.950120
 20
4.866840
  0
VERTEX
  8
0
  6
CONTINUOUS
 10
6.123480
 20
4.866840
  0
VERTEX
  8
0
  6
CONTINUOUS
 10
6.123480
 20
5.117640
  0
VERTEX
  8
0
  6
CONTINUOUS
 10
6.544560
 20
5.117640
  0
VERTEX
  8
0
  6
CONTINUOUS
 10
6.544560
 20
4.868160
  0
VERTEX
  8
0
  6
CONTINUOUS
 10
6.544560
 20
4.872120
  0
VERTEX
  8
0
  6
CONTINUOUS
 10
6.544560
 20
4.860240
  0
VERTEX
  8
0
  6
CONTINUOUS
 10
6.668640
 20
4.860240
  0
VERTEX
  8
0
  6
CONTINUOUS
 10
6.669520
 20
4.898080
  0
VERTEX
  8
0
  6
CONTINUOUS
 10
6.672600
 20
4.917440
  0
VERTEX
  8
0
  6
CONTINUOUS
 10
6.677440
 20
4.935480
  0
VERTEX
  8
0
  6
CONTINUOUS
 10
6.684040
 20
4.953520
  0
VERTEX
  8
0
  6
CONTINUOUS
 10
6.691960
 20
4.970240
  0
VERTEX
  8
0
  6
CONTINUOUS
 10
6.701640
 20
4.986080
  0
VERTEX
  8
0
  6
CONTINUOUS
 10
6.712640
 20
5.000600
  0
VERTEX
  8
0
  6
CONTINUOUS
 10
6.739040
 20
5.027000
  0
VERTEX
  8
0
  6
CONTINUOUS
 10
6.753560
 20
5.038000
  0
VERTEX
  8
0
  6
CONTINUOUS
 10
6.769400
 20
5.047680
  0
VERTEX
  8
0
  6
CONTINUOUS
 10
6.786120
 20
5.055600
  0
VERTEX
  8
0
  6
CONTINUOUS
 10
6.804160
 20
5.062200
  0
VERTEX
  8
0
  6
CONTINUOUS
 10
6.822200
 20
5.067040
  0
VERTEX
  8
0
  6
CONTINUOUS
 10
6.841560
 20
5.070120
  0
VERTEX
  8
0
  6
CONTINUOUS
 10
6.860920
 20
5.071000
  0
VERTEX
  8
0
  6
CONTINUOUS
 10
6.880280
 20
5.070120
  0
VERTEX
  8
0
  6
CONTINUOUS
 10
6.899200
 20
5.067040
  0
VERTEX
  8
0
  6
CONTINUOUS
 10
6.917680
 20
5.062200
  0
VERTEX
  8
0
  6
CONTINUOUS
 10
6.952000
 20
5.047680
  0
VERTEX
  8
0
  6
CONTINUOUS
 10
6.982800
 20
5.027000
  0
VERTEX
  8
0
  6
CONTINUOUS
 10
7.008760
 20
5.000600
  0
VERTEX
  8
0
  6
CONTINUOUS
 10
7.019760
 20
4.986080
  0
VERTEX
  8
0
  6
CONTINUOUS
 10
7.029440
 20
4.970240
  0
VERTEX
  8
0
  6
CONTINUOUS
 10
7.037360
 20
4.953520
  0
VERTEX
  8
0
  6
CONTINUOUS
 10
7.043960
 20
4.935480
  0
VERTEX
  8
0
  6
CONTINUOUS
 10
7.048800
 20
4.917440
  0
VERTEX
  8
0
  6
CONTINUOUS
 10
7.051880
 20
4.898080
  0
VERTEX
  8
0
  6
CONTINUOUS
 10
7.052760
 20
4.878720
  0
VERTEX
  8
0
  6
CONTINUOUS
 10
7.051880
 20
4.859360
  0
VERTEX
  8
0
  6
CONTINUOUS
 10
7.048800
 20
4.840000
  0
VERTEX
  8
0
  6
CONTINUOUS
 10
7.044400
 20
4.821960
  0
VERTEX
  8
0
  6
CONTINUOUS
 10
7.038240
 20
4.803920
  0
VERTEX
  8
0
  6
CONTINUOUS
 10
7.021080
 20
4.771360
  0
VERTEX
  8
0
  6
CONTINUOUS
 10
6.998200
 20
4.742760
  0
VERTEX
  8
0
  6
CONTINUOUS
 10
6.985000
 20
4.730440
  0
VERTEX
  8
0
  6
CONTINUOUS
 10
6.955080
 20
4.709760
  0
VERTEX
  8
0
  6
CONTINUOUS
 10
6.938800
 20
4.701840
  0
VERTEX
  8
0
  6
CONTINUOUS
 10
6.921200
 20
4.695240
  0
VERTEX
  8
0
  6
CONTINUOUS
 10
6.903160
 20
4.690400
  0
VERTEX
  8
0
  6
CONTINUOUS
 10
6.884240
 20
4.687320
  0
VERTEX
  8
0
  6
CONTINUOUS
 10
6.844640
 20
4.686440
  0
VERTEX
  8
0
  6
CONTINUOUS
 10
6.844640
 20
4.565000
  0
VERTEX
  8
0
  6
CONTINUOUS
 10
7.043520
 20
4.565000
  0
VERTEX
  8
0
  6
CONTINUOUS
 10
7.043520
 20
4.070000
  0
VERTEX
  8
0
  6
CONTINUOUS
 10
1.643840
 20
4.070000
  0
VERTEX
  8
0
  6
CONTINUOUS
 10
1.643840
 20
5.118960
  0
VERTEX
  8
0
  6
CONTINUOUS
 10
1.642520
 20
5.118960
  0
VERTEX
  8
0
  6
CONTINUOUS
 10
3.592160
 20
5.118960
  0
VERTEX
  8
0
  6
CONTINUOUS
 10
3.592160
 20
5.113680
  0
SEQEND
  8
0
  0
ENDSEC
  0
EOF
