  0
SECTION
  2
HEADER
  9
$ACADVER
  1
AC1006
  9
$EXTMIN
 10
2.200880
 20
1.868240
  9
$EXTMAX
 10
5.756960
 20
4.800840
  9
$LTSCALE
 40
0.044000
  9
$PDMODE
 70
    35
  9
$PDSIZE
 40
0.035200
  0
ENDSEC
  0
SECTION
  2
TABLES
  0
TABLE
  2
LTYPE
 70
     9
  0
LTYPE
  2
CONTINUOUS
 70
    64
  3
Solid line
 72
    65
 73
     0
 40
0.000000
  0
LTYPE
  2
DASHED
 70
    64
  3
__ __ __ __ __ __ __ __ __ __ __ __ __ __ __
 72
    65
 73
     2
 40
0.000330
 49
0.000220
 49
-0.000110
  0
LTYPE
  2
HIDDEN
 70
    64
  3
 _ _ _ _ _ _ _ _ _ _ _ _ _ _ _ _ _ _ _ _ _ _
 72
    65
 73
     2
 40
0.000165
 49
0.000110
 49
-0.000055
  0
LTYPE
  2
CENTER
 70
    64
  3
____ _ ____ _ ____ _ ____ _ ____ _ ____ _ ____
 72
    65
 73
     4
 40
0.000880
 49
0.000550
 49
-0.000110
 49
0.000110
 49
-0.000110
  0
LTYPE
  2
PHANTOM
 70
    64
  3
_____ _ _ _____ _ _ _____ _ _ _____ _ _ ____
 72
    65
 73
     6
 40
0.001100
 49
0.000550
 49
-0.000110
 49
0.000110
 49
-0.000110
 49
0.000110
 49
-0.000110
  0
LTYPE
  2
DOT
 70
    64
  3
...............................................
 72
    65
 73
     2
 40
0.000110
 49
0.000000
 49
-0.000110
  0
LTYPE
  2
DASHDOT
 70
    64
  3
__ . __ . __ . __ . __ . __ . __ . __ . __ . __
 72
    65
 73
     4
 40
0.000440
 49
0.000220
 49
-0.000110
 49
0.000000
 49
-0.000110
  0
LTYPE
  2
BORDER
 70
    64
  3
__ __ . __ __ . __ __ . __ __ . __ __ . __ __
 72
    65
 73
     6
 40
0.000770
 49
0.000220
 49
-0.000110
 49
0.000220
 49
-0.000110
 49
0.000000
 49
-0.000110
  0
LTYPE
  2
DIVIDE
 70
    64
  3
__ . . __ . . __ . . __ . . __ . . __ . . __
 72
    65
 73
     6
 40
0.000550
 49
0.000220
 49
-0.000110
 49
0.000000
 49
-0.000110
 49
0.000000
 49
-0.000110
  0
LTYPE
  2
DOTDOT
 70
    64
  3
 . .  . .  . .  . .  . .  . . 
 72
    65
 73
     5
 40
0.000242
 49
-0.000110
 49
0.000000
 49
-0.000110
 49
0.000000
 49
-0.000110
  0
ENDTAB
  0
TABLE
  2
STYLE
 70
     2
  0
STYLE
 70
     0
  2
SN0
 40
0.000000
 41
0.000440
 50
0.000000
 71
     0
 42
0.000000
  3
ROMAND
  0
STYLE
 70
    68
  2
SV0
 40
0.000000
 41
0.000440
 50
0.000000
 71
     0
 42
0.000000
  3
ROMAND
  0
ENDTAB
  0
TABLE
  2
LAYER
 70
     3
  0
LAYER
  2
FOREGROUND
 70
    64
 62
     7
  6
CONTINUOUS
  0
LAYER
  2
BACKGROUND
 70
    65
 62
    -7
  6
CONTINUOUS
  0
LAYER
  2
0
 70
    64
 62
     7
  6
CONTINUOUS
  0
ENDTAB
  0
ENDSEC
  0
SECTION
  2
ENTITIES
  0
POLYLINE
  8
FOREGROUND
  6
CONTINUOUS
 66
     1
 40
0.000000
 41
0.000000
  0
VERTEX
  8
FOREGROUND
  6
CONTINUOUS
 10
0.000000
 20
6.669080
  0
VERTEX
  8
FOREGROUND
  6
CONTINUOUS
 10
8.499920
 20
6.669080
  0
VERTEX
  8
FOREGROUND
  6
CONTINUOUS
 10
8.499920
 20
-4.330920
  0
VERTEX
  8
FOREGROUND
  6
CONTINUOUS
 10
0.000000
 20
-4.330920
  0
VERTEX
  8
FOREGROUND
  6
CONTINUOUS
 10
0.000000
 20
6.669080
  0
SEQEND
  8
0
  0
POLYLINE
  8
FOREGROUND
  6
CONTINUOUS
 66
     1
 40
0.000000
 41
0.000000
  0
VERTEX
  8
FOREGROUND
  6
CONTINUOUS
 10
0.000000
 20
6.669080
  0
VERTEX
  8
FOREGROUND
  6
CONTINUOUS
 10
8.499920
 20
6.669080
  0
VERTEX
  8
FOREGROUND
  6
CONTINUOUS
 10
8.499920
 20
-4.330920
  0
VERTEX
  8
FOREGROUND
  6
CONTINUOUS
 10
0.000000
 20
-4.330920
  0
VERTEX
  8
FOREGROUND
  6
CONTINUOUS
 10
0.000000
 20
6.669080
  0
SEQEND
  8
0
  0
SOLID
  8
0
 62
    15
 10
5.444120
 20
2.611840
 11
5.450720
 21
3.344000
 12
5.444120
 22
2.345200
 13
5.450720
 23
3.077360
  0
POLYLINE
  8
0
  6
CONTINUOUS
 66
     1
 40
0.000000
 41
0.000000
  0
VERTEX
  8
0
  6
CONTINUOUS
 10
5.444120
 20
2.611840
  0
VERTEX
  8
0
  6
CONTINUOUS
 10
5.450720
 20
3.344000
  0
VERTEX
  8
0
  6
CONTINUOUS
 10
5.450720
 20
3.077360
  0
VERTEX
  8
0
  6
CONTINUOUS
 10
5.444120
 20
2.345200
  0
VERTEX
  8
0
  6
CONTINUOUS
 10
5.444120
 20
2.611840
  0
SEQEND
  8
0
  0
SOLID
  8
0
 62
    15
 10
3.954720
 20
3.097160
 11
3.961320
 21
3.829320
 12
5.317400
 22
3.097160
 13
5.324000
 23
3.829320
  0
POLYLINE
  8
0
  6
CONTINUOUS
 66
     1
 40
0.000000
 41
0.000000
  0
VERTEX
  8
0
  6
CONTINUOUS
 10
3.954720
 20
3.097160
  0
VERTEX
  8
0
  6
CONTINUOUS
 10
3.961320
 20
3.829320
  0
VERTEX
  8
0
  6
CONTINUOUS
 10
5.324000
 20
3.829320
  0
VERTEX
  8
0
  6
CONTINUOUS
 10
5.317400
 20
3.097160
  0
VERTEX
  8
0
  6
CONTINUOUS
 10
3.954720
 20
3.097160
  0
SEQEND
  8
0
  0
SOLID
  8
0
 62
    15
 10
5.317400
 20
3.097160
 11
5.324000
 21
3.829320
 12
5.441480
 22
2.977480
 13
5.448080
 23
3.709200
  0
POLYLINE
  8
0
  6
CONTINUOUS
 66
     1
 40
0.000000
 41
0.000000
  0
VERTEX
  8
0
  6
CONTINUOUS
 10
5.317400
 20
3.097160
  0
VERTEX
  8
0
  6
CONTINUOUS
 10
5.324000
 20
3.829320
  0
VERTEX
  8
0
  6
CONTINUOUS
 10
5.448080
 20
3.709200
  0
VERTEX
  8
0
  6
CONTINUOUS
 10
5.441480
 20
2.977480
  0
VERTEX
  8
0
  6
CONTINUOUS
 10
5.317400
 20
3.097160
  0
SEQEND
  8
0
  0
SOLID
  8
0
 62
    15
 10
5.444120
 20
2.840200
 11
5.450720
 21
3.571920
 12
5.560280
 22
2.840200
 13
5.566880
 23
3.571920
  0
POLYLINE
  8
0
  6
CONTINUOUS
 66
     1
 40
0.000000
 41
0.000000
  0
VERTEX
  8
0
  6
CONTINUOUS
 10
5.444120
 20
2.840200
  0
VERTEX
  8
0
  6
CONTINUOUS
 10
5.450720
 20
3.571920
  0
VERTEX
  8
0
  6
CONTINUOUS
 10
5.566880
 20
3.571920
  0
VERTEX
  8
0
  6
CONTINUOUS
 10
5.560280
 20
2.840200
  0
VERTEX
  8
0
  6
CONTINUOUS
 10
5.444120
 20
2.840200
  0
SEQEND
  8
0
  0
SOLID
  8
0
 62
    15
 10
5.444120
 20
2.974840
 11
5.450720
 21
3.706560
 12
5.444120
 22
2.840200
 13
5.450720
 23
3.571920
  0
POLYLINE
  8
0
  6
CONTINUOUS
 66
     1
 40
0.000000
 41
0.000000
  0
VERTEX
  8
0
  6
CONTINUOUS
 10
5.444120
 20
2.974840
  0
VERTEX
  8
0
  6
CONTINUOUS
 10
5.450720
 20
3.706560
  0
VERTEX
  8
0
  6
CONTINUOUS
 10
5.450720
 20
3.571920
  0
VERTEX
  8
0
  6
CONTINUOUS
 10
5.444120
 20
2.840200
  0
VERTEX
  8
0
  6
CONTINUOUS
 10
5.444120
 20
2.974840
  0
SEQEND
  8
0
  0
SOLID
  8
0
 62
    15
 10
5.441480
 20
2.977480
 11
5.448080
 21
3.709200
 12
5.444120
 22
2.974840
 13
5.450720
 23
3.706560
  0
POLYLINE
  8
0
  6
CONTINUOUS
 66
     1
 40
0.000000
 41
0.000000
  0
VERTEX
  8
0
  6
CONTINUOUS
 10
5.441480
 20
2.977480
  0
VERTEX
  8
0
  6
CONTINUOUS
 10
5.448080
 20
3.709200
  0
VERTEX
  8
0
  6
CONTINUOUS
 10
5.450720
 20
3.706560
  0
VERTEX
  8
0
  6
CONTINUOUS
 10
5.444120
 20
2.974840
  0
VERTEX
  8
0
  6
CONTINUOUS
 10
5.441480
 20
2.977480
  0
SEQEND
  8
0
  0
SOLID
  8
0
 62
    15
 10
5.560280
 20
2.840200
 11
5.566880
 21
3.571920
 12
5.596360
 22
2.839320
 13
5.602960
 23
3.571480
  0
POLYLINE
  8
0
  6
CONTINUOUS
 66
     1
 40
0.000000
 41
0.000000
  0
VERTEX
  8
0
  6
CONTINUOUS
 10
5.560280
 20
2.840200
  0
VERTEX
  8
0
  6
CONTINUOUS
 10
5.566880
 20
3.571920
  0
VERTEX
  8
0
  6
CONTINUOUS
 10
5.602960
 20
3.571480
  0
VERTEX
  8
0
  6
CONTINUOUS
 10
5.596360
 20
2.839320
  0
VERTEX
  8
0
  6
CONTINUOUS
 10
5.560280
 20
2.840200
  0
SEQEND
  8
0
  0
SOLID
  8
0
 62
    15
 10
5.596360
 20
2.839320
 11
5.602960
 21
3.571480
 12
5.628040
 22
2.833600
 13
5.634640
 23
3.565760
  0
POLYLINE
  8
0
  6
CONTINUOUS
 66
     1
 40
0.000000
 41
0.000000
  0
VERTEX
  8
0
  6
CONTINUOUS
 10
5.596360
 20
2.839320
  0
VERTEX
  8
0
  6
CONTINUOUS
 10
5.602960
 20
3.571480
  0
VERTEX
  8
0
  6
CONTINUOUS
 10
5.634640
 20
3.565760
  0
VERTEX
  8
0
  6
CONTINUOUS
 10
5.628040
 20
2.833600
  0
VERTEX
  8
0
  6
CONTINUOUS
 10
5.596360
 20
2.839320
  0
SEQEND
  8
0
  0
SOLID
  8
0
 62
    15
 10
5.628040
 20
2.833600
 11
5.634640
 21
3.565760
 12
5.655320
 22
2.823480
 13
5.661920
 23
3.555200
  0
POLYLINE
  8
0
  6
CONTINUOUS
 66
     1
 40
0.000000
 41
0.000000
  0
VERTEX
  8
0
  6
CONTINUOUS
 10
5.628040
 20
2.833600
  0
VERTEX
  8
0
  6
CONTINUOUS
 10
5.634640
 20
3.565760
  0
VERTEX
  8
0
  6
CONTINUOUS
 10
5.661920
 20
3.555200
  0
VERTEX
  8
0
  6
CONTINUOUS
 10
5.655320
 20
2.823480
  0
VERTEX
  8
0
  6
CONTINUOUS
 10
5.628040
 20
2.833600
  0
SEQEND
  8
0
  0
SOLID
  8
0
 62
    15
 10
5.655320
 20
2.823480
 11
5.661920
 21
3.555200
 12
5.678200
 22
2.809400
 13
5.684800
 23
3.541120
  0
POLYLINE
  8
0
  6
CONTINUOUS
 66
     1
 40
0.000000
 41
0.000000
  0
VERTEX
  8
0
  6
CONTINUOUS
 10
5.655320
 20
2.823480
  0
VERTEX
  8
0
  6
CONTINUOUS
 10
5.661920
 20
3.555200
  0
VERTEX
  8
0
  6
CONTINUOUS
 10
5.684800
 20
3.541120
  0
VERTEX
  8
0
  6
CONTINUOUS
 10
5.678200
 20
2.809400
  0
VERTEX
  8
0
  6
CONTINUOUS
 10
5.655320
 20
2.823480
  0
SEQEND
  8
0
  0
SOLID
  8
0
 62
    15
 10
5.678200
 20
2.809400
 11
5.684800
 21
3.541120
 12
5.696240
 22
2.792240
 13
5.702840
 23
3.524400
  0
POLYLINE
  8
0
  6
CONTINUOUS
 66
     1
 40
0.000000
 41
0.000000
  0
VERTEX
  8
0
  6
CONTINUOUS
 10
5.678200
 20
2.809400
  0
VERTEX
  8
0
  6
CONTINUOUS
 10
5.684800
 20
3.541120
  0
VERTEX
  8
0
  6
CONTINUOUS
 10
5.702840
 20
3.524400
  0
VERTEX
  8
0
  6
CONTINUOUS
 10
5.696240
 20
2.792240
  0
VERTEX
  8
0
  6
CONTINUOUS
 10
5.678200
 20
2.809400
  0
SEQEND
  8
0
  0
SOLID
  8
0
 62
    15
 10
5.696240
 20
2.792240
 11
5.702840
 21
3.524400
 12
5.709440
 22
2.772880
 13
5.716040
 23
3.505040
  0
POLYLINE
  8
0
  6
CONTINUOUS
 66
     1
 40
0.000000
 41
0.000000
  0
VERTEX
  8
0
  6
CONTINUOUS
 10
5.696240
 20
2.792240
  0
VERTEX
  8
0
  6
CONTINUOUS
 10
5.702840
 20
3.524400
  0
VERTEX
  8
0
  6
CONTINUOUS
 10
5.716040
 20
3.505040
  0
VERTEX
  8
0
  6
CONTINUOUS
 10
5.709440
 20
2.772880
  0
VERTEX
  8
0
  6
CONTINUOUS
 10
5.696240
 20
2.792240
  0
SEQEND
  8
0
  0
SOLID
  8
0
 62
    15
 10
5.717800
 20
2.751760
 11
5.724400
 21
3.483920
 12
5.721320
 22
2.730200
 13
5.727920
 23
3.461920
  0
POLYLINE
  8
0
  6
CONTINUOUS
 66
     1
 40
0.000000
 41
0.000000
  0
VERTEX
  8
0
  6
CONTINUOUS
 10
5.717800
 20
2.751760
  0
VERTEX
  8
0
  6
CONTINUOUS
 10
5.724400
 20
3.483920
  0
VERTEX
  8
0
  6
CONTINUOUS
 10
5.727920
 20
3.461920
  0
VERTEX
  8
0
  6
CONTINUOUS
 10
5.721320
 20
2.730200
  0
VERTEX
  8
0
  6
CONTINUOUS
 10
5.717800
 20
2.751760
  0
SEQEND
  8
0
  0
SOLID
  8
0
 62
    15
 10
5.709440
 20
2.772880
 11
5.716040
 21
3.505040
 12
5.717800
 22
2.751760
 13
5.724400
 23
3.483920
  0
POLYLINE
  8
0
  6
CONTINUOUS
 66
     1
 40
0.000000
 41
0.000000
  0
VERTEX
  8
0
  6
CONTINUOUS
 10
5.709440
 20
2.772880
  0
VERTEX
  8
0
  6
CONTINUOUS
 10
5.716040
 20
3.505040
  0
VERTEX
  8
0
  6
CONTINUOUS
 10
5.724400
 20
3.483920
  0
VERTEX
  8
0
  6
CONTINUOUS
 10
5.717800
 20
2.751760
  0
VERTEX
  8
0
  6
CONTINUOUS
 10
5.709440
 20
2.772880
  0
SEQEND
  8
0
  0
SOLID
  8
0
 62
    15
 10
3.825360
 20
2.972200
 11
3.831960
 21
3.703920
 12
3.954720
 22
3.097160
 13
3.961320
 23
3.829320
  0
POLYLINE
  8
0
  6
CONTINUOUS
 66
     1
 40
0.000000
 41
0.000000
  0
VERTEX
  8
0
  6
CONTINUOUS
 10
3.825360
 20
2.972200
  0
VERTEX
  8
0
  6
CONTINUOUS
 10
3.831960
 20
3.703920
  0
VERTEX
  8
0
  6
CONTINUOUS
 10
3.961320
 20
3.829320
  0
VERTEX
  8
0
  6
CONTINUOUS
 10
3.954720
 20
3.097160
  0
VERTEX
  8
0
  6
CONTINUOUS
 10
3.825360
 20
2.972200
  0
SEQEND
  8
0
  0
SOLID
  8
0
 62
    15
 10
2.201320
 20
2.610520
 11
2.208360
 21
3.342680
 12
2.208360
 22
2.611840
 13
2.214960
 23
3.344000
  0
POLYLINE
  8
0
  6
CONTINUOUS
 66
     1
 40
0.000000
 41
0.000000
  0
VERTEX
  8
0
  6
CONTINUOUS
 10
2.201320
 20
2.610520
  0
VERTEX
  8
0
  6
CONTINUOUS
 10
2.208360
 20
3.342680
  0
VERTEX
  8
0
  6
CONTINUOUS
 10
2.214960
 20
3.344000
  0
VERTEX
  8
0
  6
CONTINUOUS
 10
2.208360
 20
2.611840
  0
VERTEX
  8
0
  6
CONTINUOUS
 10
2.201320
 20
2.610520
  0
SEQEND
  8
0
  0
SOLID
  8
0
 62
    15
 10
2.208360
 20
2.611840
 11
2.214960
 21
3.344000
 12
2.320120
 22
2.611840
 13
2.326720
 23
3.344000
  0
POLYLINE
  8
0
  6
CONTINUOUS
 66
     1
 40
0.000000
 41
0.000000
  0
VERTEX
  8
0
  6
CONTINUOUS
 10
2.208360
 20
2.611840
  0
VERTEX
  8
0
  6
CONTINUOUS
 10
2.214960
 20
3.344000
  0
VERTEX
  8
0
  6
CONTINUOUS
 10
2.326720
 20
3.344000
  0
VERTEX
  8
0
  6
CONTINUOUS
 10
2.320120
 20
2.611840
  0
VERTEX
  8
0
  6
CONTINUOUS
 10
2.208360
 20
2.611840
  0
SEQEND
  8
0
  0
SOLID
  8
0
 62
    15
 10
2.320120
 20
2.611840
 11
2.326720
 21
3.344000
 12
2.360160
 22
2.614480
 13
2.366760
 23
3.346640
  0
POLYLINE
  8
0
  6
CONTINUOUS
 66
     1
 40
0.000000
 41
0.000000
  0
VERTEX
  8
0
  6
CONTINUOUS
 10
2.320120
 20
2.611840
  0
VERTEX
  8
0
  6
CONTINUOUS
 10
2.326720
 20
3.344000
  0
VERTEX
  8
0
  6
CONTINUOUS
 10
2.366760
 20
3.346640
  0
VERTEX
  8
0
  6
CONTINUOUS
 10
2.360160
 20
2.614480
  0
VERTEX
  8
0
  6
CONTINUOUS
 10
2.320120
 20
2.611840
  0
SEQEND
  8
0
  0
SOLID
  8
0
 62
    15
 10
2.360160
 20
2.614480
 11
2.366760
 21
3.346640
 12
2.394040
 22
2.621960
 13
2.400640
 23
3.354120
  0
POLYLINE
  8
0
  6
CONTINUOUS
 66
     1
 40
0.000000
 41
0.000000
  0
VERTEX
  8
0
  6
CONTINUOUS
 10
2.360160
 20
2.614480
  0
VERTEX
  8
0
  6
CONTINUOUS
 10
2.366760
 20
3.346640
  0
VERTEX
  8
0
  6
CONTINUOUS
 10
2.400640
 20
3.354120
  0
VERTEX
  8
0
  6
CONTINUOUS
 10
2.394040
 20
2.621960
  0
VERTEX
  8
0
  6
CONTINUOUS
 10
2.360160
 20
2.614480
  0
SEQEND
  8
0
  0
SOLID
  8
0
 62
    15
 10
2.394040
 20
2.621960
 11
2.400640
 21
3.354120
 12
2.422200
 22
2.633840
 13
2.428800
 23
3.365560
  0
POLYLINE
  8
0
  6
CONTINUOUS
 66
     1
 40
0.000000
 41
0.000000
  0
VERTEX
  8
0
  6
CONTINUOUS
 10
2.394040
 20
2.621960
  0
VERTEX
  8
0
  6
CONTINUOUS
 10
2.400640
 20
3.354120
  0
VERTEX
  8
0
  6
CONTINUOUS
 10
2.428800
 20
3.365560
  0
VERTEX
  8
0
  6
CONTINUOUS
 10
2.422200
 20
2.633840
  0
VERTEX
  8
0
  6
CONTINUOUS
 10
2.394040
 20
2.621960
  0
SEQEND
  8
0
  0
SOLID
  8
0
 62
    15
 10
2.422200
 20
2.633840
 11
2.428800
 21
3.365560
 12
2.445080
 22
2.648800
 13
2.451680
 23
3.380960
  0
POLYLINE
  8
0
  6
CONTINUOUS
 66
     1
 40
0.000000
 41
0.000000
  0
VERTEX
  8
0
  6
CONTINUOUS
 10
2.422200
 20
2.633840
  0
VERTEX
  8
0
  6
CONTINUOUS
 10
2.428800
 20
3.365560
  0
VERTEX
  8
0
  6
CONTINUOUS
 10
2.451680
 20
3.380960
  0
VERTEX
  8
0
  6
CONTINUOUS
 10
2.445080
 20
2.648800
  0
VERTEX
  8
0
  6
CONTINUOUS
 10
2.422200
 20
2.633840
  0
SEQEND
  8
0
  0
SOLID
  8
0
 62
    15
 10
2.445080
 20
2.648800
 11
2.451680
 21
3.380960
 12
2.462680
 22
2.666840
 13
2.469280
 23
3.399000
  0
POLYLINE
  8
0
  6
CONTINUOUS
 66
     1
 40
0.000000
 41
0.000000
  0
VERTEX
  8
0
  6
CONTINUOUS
 10
2.445080
 20
2.648800
  0
VERTEX
  8
0
  6
CONTINUOUS
 10
2.451680
 20
3.380960
  0
VERTEX
  8
0
  6
CONTINUOUS
 10
2.469280
 20
3.399000
  0
VERTEX
  8
0
  6
CONTINUOUS
 10
2.462680
 20
2.666840
  0
VERTEX
  8
0
  6
CONTINUOUS
 10
2.445080
 20
2.648800
  0
SEQEND
  8
0
  0
SOLID
  8
0
 62
    15
 10
2.462680
 20
2.666840
 11
2.469280
 21
3.399000
 12
2.474560
 22
2.686640
 13
2.481160
 23
3.418800
  0
POLYLINE
  8
0
  6
CONTINUOUS
 66
     1
 40
0.000000
 41
0.000000
  0
VERTEX
  8
0
  6
CONTINUOUS
 10
2.462680
 20
2.666840
  0
VERTEX
  8
0
  6
CONTINUOUS
 10
2.469280
 20
3.399000
  0
VERTEX
  8
0
  6
CONTINUOUS
 10
2.481160
 20
3.418800
  0
VERTEX
  8
0
  6
CONTINUOUS
 10
2.474560
 20
2.686640
  0
VERTEX
  8
0
  6
CONTINUOUS
 10
2.462680
 20
2.666840
  0
SEQEND
  8
0
  0
SOLID
  8
0
 62
    15
 10
2.474560
 20
2.686640
 11
2.481160
 21
3.418800
 12
2.481160
 22
2.708200
 13
2.487760
 23
3.440360
  0
POLYLINE
  8
0
  6
CONTINUOUS
 66
     1
 40
0.000000
 41
0.000000
  0
VERTEX
  8
0
  6
CONTINUOUS
 10
2.474560
 20
2.686640
  0
VERTEX
  8
0
  6
CONTINUOUS
 10
2.481160
 20
3.418800
  0
VERTEX
  8
0
  6
CONTINUOUS
 10
2.487760
 20
3.440360
  0
VERTEX
  8
0
  6
CONTINUOUS
 10
2.481160
 20
2.708200
  0
VERTEX
  8
0
  6
CONTINUOUS
 10
2.474560
 20
2.686640
  0
SEQEND
  8
0
  0
SOLID
  8
0
 62
    15
 10
2.481160
 20
2.708200
 11
2.487760
 21
3.440360
 12
2.482920
 22
2.730200
 13
2.489520
 23
3.461920
  0
POLYLINE
  8
0
  6
CONTINUOUS
 66
     1
 40
0.000000
 41
0.000000
  0
VERTEX
  8
0
  6
CONTINUOUS
 10
2.481160
 20
2.708200
  0
VERTEX
  8
0
  6
CONTINUOUS
 10
2.487760
 20
3.440360
  0
VERTEX
  8
0
  6
CONTINUOUS
 10
2.489520
 20
3.461920
  0
VERTEX
  8
0
  6
CONTINUOUS
 10
2.482920
 20
2.730200
  0
VERTEX
  8
0
  6
CONTINUOUS
 10
2.481160
 20
2.708200
  0
SEQEND
  8
0
  0
SOLID
  8
0
 62
    15
 10
2.201320
 20
2.977480
 11
2.208360
 21
3.709200
 12
2.325400
 22
3.097160
 13
2.332000
 23
3.829320
  0
POLYLINE
  8
0
  6
CONTINUOUS
 66
     1
 40
0.000000
 41
0.000000
  0
VERTEX
  8
0
  6
CONTINUOUS
 10
2.201320
 20
2.977480
  0
VERTEX
  8
0
  6
CONTINUOUS
 10
2.208360
 20
3.709200
  0
VERTEX
  8
0
  6
CONTINUOUS
 10
2.332000
 20
3.829320
  0
VERTEX
  8
0
  6
CONTINUOUS
 10
2.325400
 20
3.097160
  0
VERTEX
  8
0
  6
CONTINUOUS
 10
2.201320
 20
2.977480
  0
SEQEND
  8
0
  0
SOLID
  8
0
 62
    15
 10
2.325400
 20
3.097160
 11
2.332000
 21
3.829320
 12
3.688080
 22
3.097160
 13
3.694680
 23
3.829320
  0
POLYLINE
  8
0
  6
CONTINUOUS
 66
     1
 40
0.000000
 41
0.000000
  0
VERTEX
  8
0
  6
CONTINUOUS
 10
2.325400
 20
3.097160
  0
VERTEX
  8
0
  6
CONTINUOUS
 10
2.332000
 20
3.829320
  0
VERTEX
  8
0
  6
CONTINUOUS
 10
3.694680
 20
3.829320
  0
VERTEX
  8
0
  6
CONTINUOUS
 10
3.688080
 20
3.097160
  0
VERTEX
  8
0
  6
CONTINUOUS
 10
2.325400
 20
3.097160
  0
SEQEND
  8
0
  0
SOLID
  8
0
 62
    15
 10
3.688080
 20
3.097160
 11
3.694680
 21
3.829320
 12
3.817440
 22
2.972200
 13
3.824040
 23
3.703920
  0
POLYLINE
  8
0
  6
CONTINUOUS
 66
     1
 40
0.000000
 41
0.000000
  0
VERTEX
  8
0
  6
CONTINUOUS
 10
3.688080
 20
3.097160
  0
VERTEX
  8
0
  6
CONTINUOUS
 10
3.694680
 20
3.829320
  0
VERTEX
  8
0
  6
CONTINUOUS
 10
3.824040
 20
3.703920
  0
VERTEX
  8
0
  6
CONTINUOUS
 10
3.817440
 20
2.972200
  0
VERTEX
  8
0
  6
CONTINUOUS
 10
3.688080
 20
3.097160
  0
SEQEND
  8
0
  0
SOLID
  8
0
 62
    15
 10
3.817440
 20
2.972200
 11
3.824040
 21
3.703920
 12
3.825360
 22
2.972200
 13
3.831960
 23
3.703920
  0
POLYLINE
  8
0
  6
CONTINUOUS
 66
     1
 40
0.000000
 41
0.000000
  0
VERTEX
  8
0
  6
CONTINUOUS
 10
3.817440
 20
2.972200
  0
VERTEX
  8
0
  6
CONTINUOUS
 10
3.824040
 20
3.703920
  0
VERTEX
  8
0
  6
CONTINUOUS
 10
3.831960
 20
3.703920
  0
VERTEX
  8
0
  6
CONTINUOUS
 10
3.825360
 20
2.972200
  0
VERTEX
  8
0
  6
CONTINUOUS
 10
3.817440
 20
2.972200
  0
SEQEND
  8
0
  0
POLYLINE
  8
0
  6
CONTINUOUS
 66
     1
 40
0.000000
 41
0.000000
  0
VERTEX
  8
0
  6
CONTINUOUS
 10
3.825360
 20
2.972200
  0
VERTEX
  8
0
  6
CONTINUOUS
 10
3.954720
 20
3.097160
  0
VERTEX
  8
0
  6
CONTINUOUS
 10
5.317400
 20
3.097160
  0
VERTEX
  8
0
  6
CONTINUOUS
 10
5.444120
 20
2.974840
  0
VERTEX
  8
0
  6
CONTINUOUS
 10
5.444120
 20
2.840200
  0
VERTEX
  8
0
  6
CONTINUOUS
 10
5.560280
 20
2.840200
  0
VERTEX
  8
0
  6
CONTINUOUS
 10
5.596360
 20
2.839320
  0
VERTEX
  8
0
  6
CONTINUOUS
 10
5.628040
 20
2.833600
  0
VERTEX
  8
0
  6
CONTINUOUS
 10
5.655320
 20
2.823480
  0
VERTEX
  8
0
  6
CONTINUOUS
 10
5.678200
 20
2.809400
  0
VERTEX
  8
0
  6
CONTINUOUS
 10
5.696240
 20
2.792240
  0
VERTEX
  8
0
  6
CONTINUOUS
 10
5.709440
 20
2.772880
  0
VERTEX
  8
0
  6
CONTINUOUS
 10
5.717800
 20
2.751760
  0
VERTEX
  8
0
  6
CONTINUOUS
 10
5.721320
 20
2.730200
  0
VERTEX
  8
0
  6
CONTINUOUS
 10
5.720000
 20
2.708200
  0
VERTEX
  8
0
  6
CONTINUOUS
 10
5.713400
 20
2.686640
  0
VERTEX
  8
0
  6
CONTINUOUS
 10
5.701080
 20
2.666840
  0
VERTEX
  8
0
  6
CONTINUOUS
 10
5.683920
 20
2.648800
  0
VERTEX
  8
0
  6
CONTINUOUS
 10
5.661040
 20
2.633840
  0
VERTEX
  8
0
  6
CONTINUOUS
 10
5.632880
 20
2.621960
  0
VERTEX
  8
0
  6
CONTINUOUS
 10
5.598560
 20
2.614480
  0
VERTEX
  8
0
  6
CONTINUOUS
 10
5.558960
 20
2.611840
  0
VERTEX
  8
0
  6
CONTINUOUS
 10
5.444120
 20
2.611840
  0
VERTEX
  8
0
  6
CONTINUOUS
 10
5.444120
 20
2.345200
  0
VERTEX
  8
0
  6
CONTINUOUS
 10
5.441480
 20
2.343880
  0
VERTEX
  8
0
  6
CONTINUOUS
 10
2.201320
 20
2.343880
  0
VERTEX
  8
0
  6
CONTINUOUS
 10
2.201320
 20
2.610520
  0
VERTEX
  8
0
  6
CONTINUOUS
 10
2.208360
 20
2.611840
  0
VERTEX
  8
0
  6
CONTINUOUS
 10
2.320120
 20
2.611840
  0
VERTEX
  8
0
  6
CONTINUOUS
 10
2.360160
 20
2.614480
  0
VERTEX
  8
0
  6
CONTINUOUS
 10
2.394040
 20
2.621960
  0
VERTEX
  8
0
  6
CONTINUOUS
 10
2.422200
 20
2.633840
  0
VERTEX
  8
0
  6
CONTINUOUS
 10
2.445080
 20
2.648800
  0
VERTEX
  8
0
  6
CONTINUOUS
 10
2.462680
 20
2.666840
  0
VERTEX
  8
0
  6
CONTINUOUS
 10
2.474560
 20
2.686640
  0
VERTEX
  8
0
  6
CONTINUOUS
 10
2.481160
 20
2.708200
  0
VERTEX
  8
0
  6
CONTINUOUS
 10
2.482920
 20
2.730200
  0
VERTEX
  8
0
  6
CONTINUOUS
 10
2.479400
 20
2.751760
  0
VERTEX
  8
0
  6
CONTINUOUS
 10
2.470600
 20
2.772880
  0
VERTEX
  8
0
  6
CONTINUOUS
 10
2.457400
 20
2.792240
  0
VERTEX
  8
0
  6
CONTINUOUS
 10
2.439360
 20
2.809400
  0
VERTEX
  8
0
  6
CONTINUOUS
 10
2.416480
 20
2.823480
  0
VERTEX
  8
0
  6
CONTINUOUS
 10
2.389200
 20
2.833600
  0
VERTEX
  8
0
  6
CONTINUOUS
 10
2.357520
 20
2.839320
  0
VERTEX
  8
0
  6
CONTINUOUS
 10
2.321440
 20
2.840200
  0
VERTEX
  8
0
  6
CONTINUOUS
 10
2.201320
 20
2.840200
  0
VERTEX
  8
0
  6
CONTINUOUS
 10
2.201320
 20
2.977480
  0
VERTEX
  8
0
  6
CONTINUOUS
 10
2.325400
 20
3.097160
  0
VERTEX
  8
0
  6
CONTINUOUS
 10
3.688080
 20
3.097160
  0
VERTEX
  8
0
  6
CONTINUOUS
 10
3.817440
 20
2.972200
  0
VERTEX
  8
0
  6
CONTINUOUS
 10
3.825360
 20
2.972200
  0
SEQEND
  8
0
  0
TEXT
  8
0
 10
3.670040
 20
2.095280
 40
0.138055
  1
BA  148
 41
1.000000
  7
SN0
 71
     0
 72
     5
 11
4.260171
 21
2.095280
  0
TEXT
  8
0
 10
3.514280
 20
1.903440
 40
0.138055
  1
3/4" x 3-1/2"
 41
1.000000
  7
SN0
 71
     0
 72
     5
 11
4.414857
 21
1.903440
  0
POLYLINE
  8
0
  6
CONTINUOUS
 66
     1
 40
0.014080
 41
0.014080
  0
VERTEX
  8
0
  6
CONTINUOUS
 10
3.853960
 20
4.667960
  0
VERTEX
  8
0
  6
CONTINUOUS
 10
3.983320
 20
4.793360
  0
VERTEX
  8
0
  6
CONTINUOUS
 10
5.346000
 20
4.793360
  0
VERTEX
  8
0
  6
CONTINUOUS
 10
5.472280
 20
4.670600
  0
VERTEX
  8
0
  6
CONTINUOUS
 10
5.472280
 20
4.535960
  0
VERTEX
  8
0
  6
CONTINUOUS
 10
5.606920
 20
4.536400
  0
VERTEX
  8
0
  6
CONTINUOUS
 10
5.624520
 20
4.535520
  0
VERTEX
  8
0
  6
CONTINUOUS
 10
5.656200
 20
4.529360
  0
VERTEX
  8
0
  6
CONTINUOUS
 10
5.670720
 20
4.524960
  0
VERTEX
  8
0
  6
CONTINUOUS
 10
5.695800
 20
4.512640
  0
VERTEX
  8
0
  6
CONTINUOUS
 10
5.716040
 20
4.496800
  0
VERTEX
  8
0
  6
CONTINUOUS
 10
5.731880
 20
4.478760
  0
VERTEX
  8
0
  6
CONTINUOUS
 10
5.742880
 20
4.458520
  0
VERTEX
  8
0
  6
CONTINUOUS
 10
5.748600
 20
4.436960
  0
VERTEX
  8
0
  6
CONTINUOUS
 10
5.749920
 20
4.425960
  0
VERTEX
  8
0
  6
CONTINUOUS
 10
5.748160
 20
4.403960
  0
VERTEX
  8
0
  6
CONTINUOUS
 10
5.741560
 20
4.382840
  0
VERTEX
  8
0
  6
CONTINUOUS
 10
5.729680
 20
4.362600
  0
VERTEX
  8
0
  6
CONTINUOUS
 10
5.712080
 20
4.344560
  0
VERTEX
  8
0
  6
CONTINUOUS
 10
5.689200
 20
4.329600
  0
VERTEX
  8
0
  6
CONTINUOUS
 10
5.661040
 20
4.318160
  0
VERTEX
  8
0
  6
CONTINUOUS
 10
5.644760
 20
4.313760
  0
VERTEX
  8
0
  6
CONTINUOUS
 10
5.607800
 20
4.308480
  0
VERTEX
  8
0
  6
CONTINUOUS
 10
5.472280
 20
4.308040
  0
VERTEX
  8
0
  6
CONTINUOUS
 10
5.472280
 20
4.041400
  0
VERTEX
  8
0
  6
CONTINUOUS
 10
5.469640
 20
4.039640
  0
VERTEX
  8
0
  6
CONTINUOUS
 10
2.229920
 20
4.039640
  0
VERTEX
  8
0
  6
CONTINUOUS
 10
2.229920
 20
4.306720
  0
VERTEX
  8
0
  6
CONTINUOUS
 10
2.236520
 20
4.308040
  0
VERTEX
  8
0
  6
CONTINUOUS
 10
2.369400
 20
4.308480
  0
VERTEX
  8
0
  6
CONTINUOUS
 10
2.406360
 20
4.313760
  0
VERTEX
  8
0
  6
CONTINUOUS
 10
2.437600
 20
4.323440
  0
VERTEX
  8
0
  6
CONTINUOUS
 10
2.463120
 20
4.336640
  0
VERTEX
  8
0
  6
CONTINUOUS
 10
2.482920
 20
4.353360
  0
VERTEX
  8
0
  6
CONTINUOUS
 10
2.497880
 20
4.372280
  0
VERTEX
  8
0
  6
CONTINUOUS
 10
2.507120
 20
4.393400
  0
VERTEX
  8
0
  6
CONTINUOUS
 10
2.511080
 20
4.414960
  0
VERTEX
  8
0
  6
CONTINUOUS
 10
2.510200
 20
4.436960
  0
VERTEX
  8
0
  6
CONTINUOUS
 10
2.504040
 20
4.458520
  0
VERTEX
  8
0
  6
CONTINUOUS
 10
2.493040
 20
4.478760
  0
VERTEX
  8
0
  6
CONTINUOUS
 10
2.477640
 20
4.496800
  0
VERTEX
  8
0
  6
CONTINUOUS
 10
2.456960
 20
4.512640
  0
VERTEX
  8
0
  6
CONTINUOUS
 10
2.431880
 20
4.524960
  0
VERTEX
  8
0
  6
CONTINUOUS
 10
2.402400
 20
4.532880
  0
VERTEX
  8
0
  6
CONTINUOUS
 10
2.386120
 20
4.535520
  0
VERTEX
  8
0
  6
CONTINUOUS
 10
2.350040
 20
4.535960
  0
VERTEX
  8
0
  6
CONTINUOUS
 10
2.229920
 20
4.535960
  0
VERTEX
  8
0
  6
CONTINUOUS
 10
2.229920
 20
4.673240
  0
VERTEX
  8
0
  6
CONTINUOUS
 10
2.354000
 20
4.793360
  0
VERTEX
  8
0
  6
CONTINUOUS
 10
3.716240
 20
4.793360
  0
VERTEX
  8
0
  6
CONTINUOUS
 10
3.845600
 20
4.667960
  0
VERTEX
  8
0
  6
CONTINUOUS
 10
3.853960
 20
4.667960
  0
SEQEND
  8
0
  0
TEXT
  8
0
 10
3.554760
 20
4.352920
 40
0.138055
  1
BA  148
 41
1.000000
  7
SN0
 71
     0
 72
     5
 11
4.144891
 21
4.352920
  0
TEXT
  8
0
 10
3.399000
 20
4.161520
 40
0.138055
  1
3/4" x 3-1/2"
 41
1.000000
  7
SN0
 71
     0
 72
     5
 11
4.299577
 21
4.161520
  0
ENDSEC
  0
EOF
