  0
SECTION
  2
HEADER
  9
$ACADVER
  1
AC1006
  9
$EXTMIN
 10
1.971200
 20
1.020800
  9
$EXTMAX
 10
4.562360
 20
3.564000
  9
$LTSCALE
 40
0.044000
  9
$PDMODE
 70
    35
  9
$PDSIZE
 40
0.035200
  0
ENDSEC
  0
SECTION
  2
TABLES
  0
TABLE
  2
LTYPE
 70
     9
  0
LTYPE
  2
CONTINUOUS
 70
    64
  3
Solid line
 72
    65
 73
     0
 40
0.000000
  0
LTYPE
  2
DASHED
 70
    64
  3
__ __ __ __ __ __ __ __ __ __ __ __ __ __ __
 72
    65
 73
     2
 40
0.000330
 49
0.000220
 49
-0.000110
  0
LTYPE
  2
HIDDEN
 70
    64
  3
 _ _ _ _ _ _ _ _ _ _ _ _ _ _ _ _ _ _ _ _ _ _
 72
    65
 73
     2
 40
0.000165
 49
0.000110
 49
-0.000055
  0
LTYPE
  2
CENTER
 70
    64
  3
____ _ ____ _ ____ _ ____ _ ____ _ ____ _ ____
 72
    65
 73
     4
 40
0.000880
 49
0.000550
 49
-0.000110
 49
0.000110
 49
-0.000110
  0
LTYPE
  2
PHANTOM
 70
    64
  3
_____ _ _ _____ _ _ _____ _ _ _____ _ _ ____
 72
    65
 73
     6
 40
0.001100
 49
0.000550
 49
-0.000110
 49
0.000110
 49
-0.000110
 49
0.000110
 49
-0.000110
  0
LTYPE
  2
DOT
 70
    64
  3
...............................................
 72
    65
 73
     2
 40
0.000110
 49
0.000000
 49
-0.000110
  0
LTYPE
  2
DASHDOT
 70
    64
  3
__ . __ . __ . __ . __ . __ . __ . __ . __ . __
 72
    65
 73
     4
 40
0.000440
 49
0.000220
 49
-0.000110
 49
0.000000
 49
-0.000110
  0
LTYPE
  2
BORDER
 70
    64
  3
__ __ . __ __ . __ __ . __ __ . __ __ . __ __
 72
    65
 73
     6
 40
0.000770
 49
0.000220
 49
-0.000110
 49
0.000220
 49
-0.000110
 49
0.000000
 49
-0.000110
  0
LTYPE
  2
DIVIDE
 70
    64
  3
__ . . __ . . __ . . __ . . __ . . __ . . __
 72
    65
 73
     6
 40
0.000550
 49
0.000220
 49
-0.000110
 49
0.000000
 49
-0.000110
 49
0.000000
 49
-0.000110
  0
LTYPE
  2
DOTDOT
 70
    64
  3
 . .  . .  . .  . .  . .  . . 
 72
    65
 73
     5
 40
0.000242
 49
-0.000110
 49
0.000000
 49
-0.000110
 49
0.000000
 49
-0.000110
  0
ENDTAB
  0
TABLE
  2
STYLE
 70
     2
  0
STYLE
 70
     0
  2
SN0
 40
0.000000
 41
0.000440
 50
0.000000
 71
     0
 42
0.000000
  3
ROMAND
  0
STYLE
 70
    68
  2
SV0
 40
0.000000
 41
0.000440
 50
0.000000
 71
     0
 42
0.000000
  3
ROMAND
  0
ENDTAB
  0
TABLE
  2
LAYER
 70
     3
  0
LAYER
  2
FOREGROUND
 70
    64
 62
     7
  6
CONTINUOUS
  0
LAYER
  2
BACKGROUND
 70
    65
 62
    -7
  6
CONTINUOUS
  0
LAYER
  2
0
 70
    64
 62
     7
  6
CONTINUOUS
  0
ENDTAB
  0
ENDSEC
  0
SECTION
  2
ENTITIES
  0
POLYLINE
  8
FOREGROUND
  6
CONTINUOUS
 66
     1
 40
0.000000
 41
0.000000
  0
VERTEX
  8
FOREGROUND
  6
CONTINUOUS
 10
0.000000
 20
4.584800
  0
VERTEX
  8
FOREGROUND
  6
CONTINUOUS
 10
8.499920
 20
4.584800
  0
VERTEX
  8
FOREGROUND
  6
CONTINUOUS
 10
8.499920
 20
-6.415200
  0
VERTEX
  8
FOREGROUND
  6
CONTINUOUS
 10
0.000000
 20
-6.415200
  0
VERTEX
  8
FOREGROUND
  6
CONTINUOUS
 10
0.000000
 20
4.584800
  0
SEQEND
  8
0
  0
POLYLINE
  8
FOREGROUND
  6
CONTINUOUS
 66
     1
 40
0.000000
 41
0.000000
  0
VERTEX
  8
FOREGROUND
  6
CONTINUOUS
 10
0.000000
 20
4.584800
  0
VERTEX
  8
FOREGROUND
  6
CONTINUOUS
 10
8.499920
 20
4.584800
  0
VERTEX
  8
FOREGROUND
  6
CONTINUOUS
 10
8.499920
 20
-6.415200
  0
VERTEX
  8
FOREGROUND
  6
CONTINUOUS
 10
0.000000
 20
-6.415200
  0
VERTEX
  8
FOREGROUND
  6
CONTINUOUS
 10
0.000000
 20
4.584800
  0
SEQEND
  8
0
  0
POLYLINE
  8
0
  6
CONTINUOUS
 66
     1
 40
0.014080
 41
0.014080
  0
VERTEX
  8
0
  6
CONTINUOUS
 10
4.423320
 20
2.153800
  0
VERTEX
  8
0
  6
CONTINUOUS
 10
4.554880
 20
2.153800
  0
VERTEX
  8
0
  6
CONTINUOUS
 10
4.554880
 20
1.748560
  0
VERTEX
  8
0
  6
CONTINUOUS
 10
3.886960
 20
1.748560
  0
VERTEX
  8
0
  6
CONTINUOUS
 10
3.886960
 20
3.472480
  0
VERTEX
  8
0
  6
CONTINUOUS
 10
4.029960
 20
3.472480
  0
VERTEX
  8
0
  6
CONTINUOUS
 10
4.276360
 20
2.989800
  0
VERTEX
  8
0
  6
CONTINUOUS
 10
4.276360
 20
2.987160
  0
VERTEX
  8
0
  6
CONTINUOUS
 10
4.243800
 20
2.943160
  0
VERTEX
  8
0
  6
CONTINUOUS
 10
4.218720
 20
2.900040
  0
VERTEX
  8
0
  6
CONTINUOUS
 10
4.206400
 20
2.871880
  0
VERTEX
  8
0
  6
CONTINUOUS
 10
4.194960
 20
2.830080
  0
VERTEX
  8
0
  6
CONTINUOUS
 10
4.191880
 20
2.802360
  0
VERTEX
  8
0
  6
CONTINUOUS
 10
4.191880
 20
2.775080
  0
VERTEX
  8
0
  6
CONTINUOUS
 10
4.195400
 20
2.748240
  0
VERTEX
  8
0
  6
CONTINUOUS
 10
4.207720
 20
2.708200
  0
VERTEX
  8
0
  6
CONTINUOUS
 10
4.227520
 20
2.668600
  0
VERTEX
  8
0
  6
CONTINUOUS
 10
4.255680
 20
2.629440
  0
VERTEX
  8
0
  6
CONTINUOUS
 10
4.291320
 20
2.590280
  0
VERTEX
  8
0
  6
CONTINUOUS
 10
4.404400
 20
2.489960
  0
VERTEX
  8
0
  6
CONTINUOUS
 10
4.434760
 20
2.457840
  0
VERTEX
  8
0
  6
CONTINUOUS
 10
4.457200
 20
2.427480
  0
VERTEX
  8
0
  6
CONTINUOUS
 10
4.472160
 20
2.398440
  0
VERTEX
  8
0
  6
CONTINUOUS
 10
4.479640
 20
2.368520
  0
VERTEX
  8
0
  6
CONTINUOUS
 10
4.480520
 20
2.347400
  0
VERTEX
  8
0
  6
CONTINUOUS
 10
4.477000
 20
2.313960
  0
VERTEX
  8
0
  6
CONTINUOUS
 10
4.466880
 20
2.277000
  0
VERTEX
  8
0
  6
CONTINUOUS
 10
4.444440
 20
2.219360
  0
VERTEX
  8
0
  6
CONTINUOUS
 10
4.420240
 20
2.167440
  0
VERTEX
  8
0
  6
CONTINUOUS
 10
4.420240
 20
2.153800
  0
VERTEX
  8
0
  6
CONTINUOUS
 10
4.423320
 20
2.153800
  0
SEQEND
  8
0
  0
SOLID
  8
0
 62
     7
 10
2.389640
 20
2.306480
 11
3.025000
 21
2.668160
 12
2.419560
 22
2.280520
 13
3.054920
 23
2.642200
  0
POLYLINE
  8
0
  6
CONTINUOUS
 66
     1
 40
0.000000
 41
0.000000
  0
VERTEX
  8
0
  6
CONTINUOUS
 10
2.389640
 20
2.306480
  0
VERTEX
  8
0
  6
CONTINUOUS
 10
3.025000
 20
2.668160
  0
VERTEX
  8
0
  6
CONTINUOUS
 10
3.054920
 20
2.642200
  0
VERTEX
  8
0
  6
CONTINUOUS
 10
2.419560
 20
2.280520
  0
VERTEX
  8
0
  6
CONTINUOUS
 10
2.389640
 20
2.306480
  0
SEQEND
  8
0
  0
SOLID
  8
0
 62
    15
 10
2.639560
 20
1.883200
 11
3.274920
 21
2.244880
 12
2.639560
 22
1.477960
 13
3.274920
 23
1.839640
  0
POLYLINE
  8
0
  6
CONTINUOUS
 66
     1
 40
0.000000
 41
0.000000
  0
VERTEX
  8
0
  6
CONTINUOUS
 10
2.639560
 20
1.883200
  0
VERTEX
  8
0
  6
CONTINUOUS
 10
3.274920
 20
2.244880
  0
VERTEX
  8
0
  6
CONTINUOUS
 10
3.274920
 20
1.839640
  0
VERTEX
  8
0
  6
CONTINUOUS
 10
2.639560
 20
1.477960
  0
VERTEX
  8
0
  6
CONTINUOUS
 10
2.639560
 20
1.883200
  0
SEQEND
  8
0
  0
SOLID
  8
0
 62
    15
 10
1.971640
 20
3.201880
 11
2.607000
 21
3.563560
 12
2.114640
 22
3.201880
 13
2.749560
 23
3.563560
  0
POLYLINE
  8
0
  6
CONTINUOUS
 66
     1
 40
0.000000
 41
0.000000
  0
VERTEX
  8
0
  6
CONTINUOUS
 10
1.971640
 20
3.201880
  0
VERTEX
  8
0
  6
CONTINUOUS
 10
2.607000
 20
3.563560
  0
VERTEX
  8
0
  6
CONTINUOUS
 10
2.749560
 20
3.563560
  0
VERTEX
  8
0
  6
CONTINUOUS
 10
2.114640
 20
3.201880
  0
VERTEX
  8
0
  6
CONTINUOUS
 10
1.971640
 20
3.201880
  0
SEQEND
  8
0
  0
SOLID
  8
0
 62
     7
 10
2.114640
 20
3.201880
 11
2.749560
 21
3.563560
 12
2.361040
 22
2.719200
 13
2.996400
 23
3.080880
  0
POLYLINE
  8
0
  6
CONTINUOUS
 66
     1
 40
0.000000
 41
0.000000
  0
VERTEX
  8
0
  6
CONTINUOUS
 10
2.114640
 20
3.201880
  0
VERTEX
  8
0
  6
CONTINUOUS
 10
2.749560
 20
3.563560
  0
VERTEX
  8
0
  6
CONTINUOUS
 10
2.996400
 20
3.080880
  0
VERTEX
  8
0
  6
CONTINUOUS
 10
2.361040
 20
2.719200
  0
VERTEX
  8
0
  6
CONTINUOUS
 10
2.114640
 20
3.201880
  0
SEQEND
  8
0
  0
SOLID
  8
0
 62
    15
 10
2.361040
 20
2.719200
 11
2.996400
 21
3.080880
 12
2.361040
 22
2.716560
 13
2.996400
 23
3.078240
  0
POLYLINE
  8
0
  6
CONTINUOUS
 66
     1
 40
0.000000
 41
0.000000
  0
VERTEX
  8
0
  6
CONTINUOUS
 10
2.361040
 20
2.719200
  0
VERTEX
  8
0
  6
CONTINUOUS
 10
2.996400
 20
3.080880
  0
VERTEX
  8
0
  6
CONTINUOUS
 10
2.996400
 20
3.078240
  0
VERTEX
  8
0
  6
CONTINUOUS
 10
2.361040
 20
2.716560
  0
VERTEX
  8
0
  6
CONTINUOUS
 10
2.361040
 20
2.719200
  0
SEQEND
  8
0
  0
SOLID
  8
0
 62
    15
 10
2.361040
 20
2.716560
 11
2.996400
 21
3.078240
 12
2.338600
 22
2.687080
 13
2.973520
 23
3.048760
  0
POLYLINE
  8
0
  6
CONTINUOUS
 66
     1
 40
0.000000
 41
0.000000
  0
VERTEX
  8
0
  6
CONTINUOUS
 10
2.361040
 20
2.716560
  0
VERTEX
  8
0
  6
CONTINUOUS
 10
2.996400
 20
3.078240
  0
VERTEX
  8
0
  6
CONTINUOUS
 10
2.973520
 20
3.048760
  0
VERTEX
  8
0
  6
CONTINUOUS
 10
2.338600
 20
2.687080
  0
VERTEX
  8
0
  6
CONTINUOUS
 10
2.361040
 20
2.716560
  0
SEQEND
  8
0
  0
SOLID
  8
0
 62
    15
 10
2.338600
 20
2.687080
 11
2.973520
 21
3.048760
 12
2.319240
 22
2.658040
 13
2.954600
 23
3.019720
  0
POLYLINE
  8
0
  6
CONTINUOUS
 66
     1
 40
0.000000
 41
0.000000
  0
VERTEX
  8
0
  6
CONTINUOUS
 10
2.338600
 20
2.687080
  0
VERTEX
  8
0
  6
CONTINUOUS
 10
2.973520
 20
3.048760
  0
VERTEX
  8
0
  6
CONTINUOUS
 10
2.954600
 20
3.019720
  0
VERTEX
  8
0
  6
CONTINUOUS
 10
2.319240
 20
2.658040
  0
VERTEX
  8
0
  6
CONTINUOUS
 10
2.338600
 20
2.687080
  0
SEQEND
  8
0
  0
SOLID
  8
0
 62
    15
 10
2.319240
 20
2.658040
 11
2.954600
 21
3.019720
 12
2.303400
 22
2.629440
 13
2.938760
 23
2.991120
  0
POLYLINE
  8
0
  6
CONTINUOUS
 66
     1
 40
0.000000
 41
0.000000
  0
VERTEX
  8
0
  6
CONTINUOUS
 10
2.319240
 20
2.658040
  0
VERTEX
  8
0
  6
CONTINUOUS
 10
2.954600
 20
3.019720
  0
VERTEX
  8
0
  6
CONTINUOUS
 10
2.938760
 20
2.991120
  0
VERTEX
  8
0
  6
CONTINUOUS
 10
2.303400
 20
2.629440
  0
VERTEX
  8
0
  6
CONTINUOUS
 10
2.319240
 20
2.658040
  0
SEQEND
  8
0
  0
SOLID
  8
0
 62
    15
 10
2.303400
 20
2.629440
 11
2.938760
 21
2.991120
 12
2.291520
 22
2.601280
 13
2.926440
 23
2.962520
  0
POLYLINE
  8
0
  6
CONTINUOUS
 66
     1
 40
0.000000
 41
0.000000
  0
VERTEX
  8
0
  6
CONTINUOUS
 10
2.303400
 20
2.629440
  0
VERTEX
  8
0
  6
CONTINUOUS
 10
2.938760
 20
2.991120
  0
VERTEX
  8
0
  6
CONTINUOUS
 10
2.926440
 20
2.962520
  0
VERTEX
  8
0
  6
CONTINUOUS
 10
2.291520
 20
2.601280
  0
VERTEX
  8
0
  6
CONTINUOUS
 10
2.303400
 20
2.629440
  0
SEQEND
  8
0
  0
SOLID
  8
0
 62
    15
 10
2.291520
 20
2.601280
 11
2.926440
 21
2.962520
 12
2.282720
 22
2.573120
 13
2.918080
 23
2.934800
  0
POLYLINE
  8
0
  6
CONTINUOUS
 66
     1
 40
0.000000
 41
0.000000
  0
VERTEX
  8
0
  6
CONTINUOUS
 10
2.291520
 20
2.601280
  0
VERTEX
  8
0
  6
CONTINUOUS
 10
2.926440
 20
2.962520
  0
VERTEX
  8
0
  6
CONTINUOUS
 10
2.918080
 20
2.934800
  0
VERTEX
  8
0
  6
CONTINUOUS
 10
2.282720
 20
2.573120
  0
VERTEX
  8
0
  6
CONTINUOUS
 10
2.291520
 20
2.601280
  0
SEQEND
  8
0
  0
SOLID
  8
0
 62
    15
 10
2.282720
 20
2.573120
 11
2.918080
 21
2.934800
 12
2.277440
 22
2.545400
 13
2.912800
 23
2.907080
  0
POLYLINE
  8
0
  6
CONTINUOUS
 66
     1
 40
0.000000
 41
0.000000
  0
VERTEX
  8
0
  6
CONTINUOUS
 10
2.282720
 20
2.573120
  0
VERTEX
  8
0
  6
CONTINUOUS
 10
2.918080
 20
2.934800
  0
VERTEX
  8
0
  6
CONTINUOUS
 10
2.912800
 20
2.907080
  0
VERTEX
  8
0
  6
CONTINUOUS
 10
2.277440
 20
2.545400
  0
VERTEX
  8
0
  6
CONTINUOUS
 10
2.282720
 20
2.573120
  0
SEQEND
  8
0
  0
SOLID
  8
0
 62
    15
 10
2.277440
 20
2.545400
 11
2.912800
 21
2.907080
 12
2.276120
 22
2.518120
 13
2.911480
 23
2.879800
  0
POLYLINE
  8
0
  6
CONTINUOUS
 66
     1
 40
0.000000
 41
0.000000
  0
VERTEX
  8
0
  6
CONTINUOUS
 10
2.277440
 20
2.545400
  0
VERTEX
  8
0
  6
CONTINUOUS
 10
2.912800
 20
2.907080
  0
VERTEX
  8
0
  6
CONTINUOUS
 10
2.911480
 20
2.879800
  0
VERTEX
  8
0
  6
CONTINUOUS
 10
2.276120
 20
2.518120
  0
VERTEX
  8
0
  6
CONTINUOUS
 10
2.277440
 20
2.545400
  0
SEQEND
  8
0
  0
SOLID
  8
0
 62
    15
 10
2.276120
 20
2.518120
 11
2.911480
 21
2.879800
 12
2.277880
 22
2.491280
 13
2.913240
 23
2.852520
  0
POLYLINE
  8
0
  6
CONTINUOUS
 66
     1
 40
0.000000
 41
0.000000
  0
VERTEX
  8
0
  6
CONTINUOUS
 10
2.276120
 20
2.518120
  0
VERTEX
  8
0
  6
CONTINUOUS
 10
2.911480
 20
2.879800
  0
VERTEX
  8
0
  6
CONTINUOUS
 10
2.913240
 20
2.852520
  0
VERTEX
  8
0
  6
CONTINUOUS
 10
2.277880
 20
2.491280
  0
VERTEX
  8
0
  6
CONTINUOUS
 10
2.276120
 20
2.518120
  0
SEQEND
  8
0
  0
SOLID
  8
0
 62
    15
 10
2.277880
 20
2.491280
 11
2.913240
 21
2.852520
 12
2.283600
 22
2.464440
 13
2.918520
 23
2.826120
  0
POLYLINE
  8
0
  6
CONTINUOUS
 66
     1
 40
0.000000
 41
0.000000
  0
VERTEX
  8
0
  6
CONTINUOUS
 10
2.277880
 20
2.491280
  0
VERTEX
  8
0
  6
CONTINUOUS
 10
2.913240
 20
2.852520
  0
VERTEX
  8
0
  6
CONTINUOUS
 10
2.918520
 20
2.826120
  0
VERTEX
  8
0
  6
CONTINUOUS
 10
2.283600
 20
2.464440
  0
VERTEX
  8
0
  6
CONTINUOUS
 10
2.277880
 20
2.491280
  0
SEQEND
  8
0
  0
SOLID
  8
0
 62
     7
 10
2.283600
 20
2.464440
 11
2.918520
 21
2.826120
 12
2.292400
 22
2.437600
 13
2.927760
 23
2.799280
  0
POLYLINE
  8
0
  6
CONTINUOUS
 66
     1
 40
0.000000
 41
0.000000
  0
VERTEX
  8
0
  6
CONTINUOUS
 10
2.283600
 20
2.464440
  0
VERTEX
  8
0
  6
CONTINUOUS
 10
2.918520
 20
2.826120
  0
VERTEX
  8
0
  6
CONTINUOUS
 10
2.927760
 20
2.799280
  0
VERTEX
  8
0
  6
CONTINUOUS
 10
2.292400
 20
2.437600
  0
VERTEX
  8
0
  6
CONTINUOUS
 10
2.283600
 20
2.464440
  0
SEQEND
  8
0
  0
SOLID
  8
0
 62
     7
 10
2.292400
 20
2.437600
 11
2.927760
 21
2.799280
 12
2.304720
 22
2.411200
 13
2.940080
 23
2.772880
  0
POLYLINE
  8
0
  6
CONTINUOUS
 66
     1
 40
0.000000
 41
0.000000
  0
VERTEX
  8
0
  6
CONTINUOUS
 10
2.292400
 20
2.437600
  0
VERTEX
  8
0
  6
CONTINUOUS
 10
2.927760
 20
2.799280
  0
VERTEX
  8
0
  6
CONTINUOUS
 10
2.940080
 20
2.772880
  0
VERTEX
  8
0
  6
CONTINUOUS
 10
2.304720
 20
2.411200
  0
VERTEX
  8
0
  6
CONTINUOUS
 10
2.292400
 20
2.437600
  0
SEQEND
  8
0
  0
SOLID
  8
0
 62
     7
 10
2.304720
 20
2.411200
 11
2.940080
 21
2.772880
 12
2.321000
 22
2.384800
 13
2.955920
 23
2.746480
  0
POLYLINE
  8
0
  6
CONTINUOUS
 66
     1
 40
0.000000
 41
0.000000
  0
VERTEX
  8
0
  6
CONTINUOUS
 10
2.304720
 20
2.411200
  0
VERTEX
  8
0
  6
CONTINUOUS
 10
2.940080
 20
2.772880
  0
VERTEX
  8
0
  6
CONTINUOUS
 10
2.955920
 20
2.746480
  0
VERTEX
  8
0
  6
CONTINUOUS
 10
2.321000
 20
2.384800
  0
VERTEX
  8
0
  6
CONTINUOUS
 10
2.304720
 20
2.411200
  0
SEQEND
  8
0
  0
SOLID
  8
0
 62
     7
 10
2.321000
 20
2.384800
 11
2.955920
 21
2.746480
 12
2.340360
 22
2.358840
 13
2.975720
 23
2.720520
  0
POLYLINE
  8
0
  6
CONTINUOUS
 66
     1
 40
0.000000
 41
0.000000
  0
VERTEX
  8
0
  6
CONTINUOUS
 10
2.321000
 20
2.384800
  0
VERTEX
  8
0
  6
CONTINUOUS
 10
2.955920
 20
2.746480
  0
VERTEX
  8
0
  6
CONTINUOUS
 10
2.975720
 20
2.720520
  0
VERTEX
  8
0
  6
CONTINUOUS
 10
2.340360
 20
2.358840
  0
VERTEX
  8
0
  6
CONTINUOUS
 10
2.321000
 20
2.384800
  0
SEQEND
  8
0
  0
SOLID
  8
0
 62
     7
 10
2.340360
 20
2.358840
 11
2.975720
 21
2.720520
 12
2.363240
 22
2.332880
 13
2.998600
 23
2.694120
  0
POLYLINE
  8
0
  6
CONTINUOUS
 66
     1
 40
0.000000
 41
0.000000
  0
VERTEX
  8
0
  6
CONTINUOUS
 10
2.340360
 20
2.358840
  0
VERTEX
  8
0
  6
CONTINUOUS
 10
2.975720
 20
2.720520
  0
VERTEX
  8
0
  6
CONTINUOUS
 10
2.998600
 20
2.694120
  0
VERTEX
  8
0
  6
CONTINUOUS
 10
2.363240
 20
2.332880
  0
VERTEX
  8
0
  6
CONTINUOUS
 10
2.340360
 20
2.358840
  0
SEQEND
  8
0
  0
SOLID
  8
0
 62
     7
 10
2.363240
 20
2.332880
 11
2.998600
 21
2.694120
 12
2.389640
 22
2.306480
 13
3.025000
 23
2.668160
  0
POLYLINE
  8
0
  6
CONTINUOUS
 66
     1
 40
0.000000
 41
0.000000
  0
VERTEX
  8
0
  6
CONTINUOUS
 10
2.363240
 20
2.332880
  0
VERTEX
  8
0
  6
CONTINUOUS
 10
2.998600
 20
2.694120
  0
VERTEX
  8
0
  6
CONTINUOUS
 10
3.025000
 20
2.668160
  0
VERTEX
  8
0
  6
CONTINUOUS
 10
2.389640
 20
2.306480
  0
VERTEX
  8
0
  6
CONTINUOUS
 10
2.363240
 20
2.332880
  0
SEQEND
  8
0
  0
SOLID
  8
0
 62
    15
 10
2.508000
 20
1.883200
 11
3.142920
 21
2.244880
 12
2.639560
 22
1.883200
 13
3.274920
 23
2.244880
  0
POLYLINE
  8
0
  6
CONTINUOUS
 66
     1
 40
0.000000
 41
0.000000
  0
VERTEX
  8
0
  6
CONTINUOUS
 10
2.508000
 20
1.883200
  0
VERTEX
  8
0
  6
CONTINUOUS
 10
3.142920
 20
2.244880
  0
VERTEX
  8
0
  6
CONTINUOUS
 10
3.274920
 20
2.244880
  0
VERTEX
  8
0
  6
CONTINUOUS
 10
2.639560
 20
1.883200
  0
VERTEX
  8
0
  6
CONTINUOUS
 10
2.508000
 20
1.883200
  0
SEQEND
  8
0
  0
SOLID
  8
0
 62
     7
 10
2.419560
 20
2.280520
 11
3.054920
 21
2.642200
 12
2.450360
 22
2.254560
 13
3.085720
 23
2.616240
  0
POLYLINE
  8
0
  6
CONTINUOUS
 66
     1
 40
0.000000
 41
0.000000
  0
VERTEX
  8
0
  6
CONTINUOUS
 10
2.419560
 20
2.280520
  0
VERTEX
  8
0
  6
CONTINUOUS
 10
3.054920
 20
2.642200
  0
VERTEX
  8
0
  6
CONTINUOUS
 10
3.085720
 20
2.616240
  0
VERTEX
  8
0
  6
CONTINUOUS
 10
2.450360
 20
2.254560
  0
VERTEX
  8
0
  6
CONTINUOUS
 10
2.419560
 20
2.280520
  0
SEQEND
  8
0
  0
SOLID
  8
0
 62
     7
 10
2.450360
 20
2.254560
 11
3.085720
 21
2.616240
 12
2.477200
 22
2.230800
 13
3.112560
 23
2.592480
  0
POLYLINE
  8
0
  6
CONTINUOUS
 66
     1
 40
0.000000
 41
0.000000
  0
VERTEX
  8
0
  6
CONTINUOUS
 10
2.450360
 20
2.254560
  0
VERTEX
  8
0
  6
CONTINUOUS
 10
3.085720
 20
2.616240
  0
VERTEX
  8
0
  6
CONTINUOUS
 10
3.112560
 20
2.592480
  0
VERTEX
  8
0
  6
CONTINUOUS
 10
2.477200
 20
2.230800
  0
VERTEX
  8
0
  6
CONTINUOUS
 10
2.450360
 20
2.254560
  0
SEQEND
  8
0
  0
SOLID
  8
0
 62
     7
 10
2.477200
 20
2.230800
 11
3.112560
 21
2.592480
 12
2.500520
 22
2.208360
 13
3.135880
 23
2.570040
  0
POLYLINE
  8
0
  6
CONTINUOUS
 66
     1
 40
0.000000
 41
0.000000
  0
VERTEX
  8
0
  6
CONTINUOUS
 10
2.477200
 20
2.230800
  0
VERTEX
  8
0
  6
CONTINUOUS
 10
3.112560
 20
2.592480
  0
VERTEX
  8
0
  6
CONTINUOUS
 10
3.135880
 20
2.570040
  0
VERTEX
  8
0
  6
CONTINUOUS
 10
2.500520
 20
2.208360
  0
VERTEX
  8
0
  6
CONTINUOUS
 10
2.477200
 20
2.230800
  0
SEQEND
  8
0
  0
SOLID
  8
0
 62
     7
 10
2.500520
 20
2.208360
 11
3.135880
 21
2.570040
 12
2.519880
 22
2.187240
 13
3.154800
 23
2.548920
  0
POLYLINE
  8
0
  6
CONTINUOUS
 66
     1
 40
0.000000
 41
0.000000
  0
VERTEX
  8
0
  6
CONTINUOUS
 10
2.500520
 20
2.208360
  0
VERTEX
  8
0
  6
CONTINUOUS
 10
3.135880
 20
2.570040
  0
VERTEX
  8
0
  6
CONTINUOUS
 10
3.154800
 20
2.548920
  0
VERTEX
  8
0
  6
CONTINUOUS
 10
2.519880
 20
2.187240
  0
VERTEX
  8
0
  6
CONTINUOUS
 10
2.500520
 20
2.208360
  0
SEQEND
  8
0
  0
SOLID
  8
0
 62
     7
 10
2.519880
 20
2.187240
 11
3.154800
 21
2.548920
 12
2.535720
 22
2.167000
 13
3.170640
 23
2.528680
  0
POLYLINE
  8
0
  6
CONTINUOUS
 66
     1
 40
0.000000
 41
0.000000
  0
VERTEX
  8
0
  6
CONTINUOUS
 10
2.519880
 20
2.187240
  0
VERTEX
  8
0
  6
CONTINUOUS
 10
3.154800
 20
2.548920
  0
VERTEX
  8
0
  6
CONTINUOUS
 10
3.170640
 20
2.528680
  0
VERTEX
  8
0
  6
CONTINUOUS
 10
2.535720
 20
2.167000
  0
VERTEX
  8
0
  6
CONTINUOUS
 10
2.519880
 20
2.187240
  0
SEQEND
  8
0
  0
SOLID
  8
0
 62
     7
 10
2.535720
 20
2.167000
 11
3.170640
 21
2.528680
 12
2.548040
 22
2.147200
 13
3.182960
 23
2.508880
  0
POLYLINE
  8
0
  6
CONTINUOUS
 66
     1
 40
0.000000
 41
0.000000
  0
VERTEX
  8
0
  6
CONTINUOUS
 10
2.535720
 20
2.167000
  0
VERTEX
  8
0
  6
CONTINUOUS
 10
3.170640
 20
2.528680
  0
VERTEX
  8
0
  6
CONTINUOUS
 10
3.182960
 20
2.508880
  0
VERTEX
  8
0
  6
CONTINUOUS
 10
2.548040
 20
2.147200
  0
VERTEX
  8
0
  6
CONTINUOUS
 10
2.535720
 20
2.167000
  0
SEQEND
  8
0
  0
SOLID
  8
0
 62
     7
 10
2.548040
 20
2.147200
 11
3.182960
 21
2.508880
 12
2.556840
 22
2.127840
 13
3.192200
 23
2.489080
  0
POLYLINE
  8
0
  6
CONTINUOUS
 66
     1
 40
0.000000
 41
0.000000
  0
VERTEX
  8
0
  6
CONTINUOUS
 10
2.548040
 20
2.147200
  0
VERTEX
  8
0
  6
CONTINUOUS
 10
3.182960
 20
2.508880
  0
VERTEX
  8
0
  6
CONTINUOUS
 10
3.192200
 20
2.489080
  0
VERTEX
  8
0
  6
CONTINUOUS
 10
2.556840
 20
2.127840
  0
VERTEX
  8
0
  6
CONTINUOUS
 10
2.548040
 20
2.147200
  0
SEQEND
  8
0
  0
SOLID
  8
0
 62
    15
 10
2.556840
 20
2.127840
 11
3.192200
 21
2.489080
 12
2.562560
 22
2.108040
 13
3.197920
 23
2.469280
  0
POLYLINE
  8
0
  6
CONTINUOUS
 66
     1
 40
0.000000
 41
0.000000
  0
VERTEX
  8
0
  6
CONTINUOUS
 10
2.556840
 20
2.127840
  0
VERTEX
  8
0
  6
CONTINUOUS
 10
3.192200
 20
2.489080
  0
VERTEX
  8
0
  6
CONTINUOUS
 10
3.197920
 20
2.469280
  0
VERTEX
  8
0
  6
CONTINUOUS
 10
2.562560
 20
2.108040
  0
VERTEX
  8
0
  6
CONTINUOUS
 10
2.556840
 20
2.127840
  0
SEQEND
  8
0
  0
SOLID
  8
0
 62
    15
 10
2.562560
 20
2.108040
 11
3.197920
 21
2.469280
 12
2.565200
 22
2.087360
 13
3.200560
 23
2.449040
  0
POLYLINE
  8
0
  6
CONTINUOUS
 66
     1
 40
0.000000
 41
0.000000
  0
VERTEX
  8
0
  6
CONTINUOUS
 10
2.562560
 20
2.108040
  0
VERTEX
  8
0
  6
CONTINUOUS
 10
3.197920
 20
2.469280
  0
VERTEX
  8
0
  6
CONTINUOUS
 10
3.200560
 20
2.449040
  0
VERTEX
  8
0
  6
CONTINUOUS
 10
2.565200
 20
2.087360
  0
VERTEX
  8
0
  6
CONTINUOUS
 10
2.562560
 20
2.108040
  0
SEQEND
  8
0
  0
SOLID
  8
0
 62
    15
 10
2.565200
 20
2.087360
 11
3.200560
 21
2.449040
 12
2.564760
 22
2.066240
 13
3.200120
 23
2.427480
  0
POLYLINE
  8
0
  6
CONTINUOUS
 66
     1
 40
0.000000
 41
0.000000
  0
VERTEX
  8
0
  6
CONTINUOUS
 10
2.565200
 20
2.087360
  0
VERTEX
  8
0
  6
CONTINUOUS
 10
3.200560
 20
2.449040
  0
VERTEX
  8
0
  6
CONTINUOUS
 10
3.200120
 20
2.427480
  0
VERTEX
  8
0
  6
CONTINUOUS
 10
2.564760
 20
2.066240
  0
VERTEX
  8
0
  6
CONTINUOUS
 10
2.565200
 20
2.087360
  0
SEQEND
  8
0
  0
SOLID
  8
0
 62
    15
 10
2.564760
 20
2.066240
 11
3.200120
 21
2.427480
 12
2.561680
 22
2.043360
 13
3.197040
 23
2.405040
  0
POLYLINE
  8
0
  6
CONTINUOUS
 66
     1
 40
0.000000
 41
0.000000
  0
VERTEX
  8
0
  6
CONTINUOUS
 10
2.564760
 20
2.066240
  0
VERTEX
  8
0
  6
CONTINUOUS
 10
3.200120
 20
2.427480
  0
VERTEX
  8
0
  6
CONTINUOUS
 10
3.197040
 20
2.405040
  0
VERTEX
  8
0
  6
CONTINUOUS
 10
2.561680
 20
2.043360
  0
VERTEX
  8
0
  6
CONTINUOUS
 10
2.564760
 20
2.066240
  0
SEQEND
  8
0
  0
SOLID
  8
0
 62
    15
 10
2.561680
 20
2.043360
 11
3.197040
 21
2.405040
 12
2.555520
 22
2.019160
 13
3.190880
 23
2.380840
  0
POLYLINE
  8
0
  6
CONTINUOUS
 66
     1
 40
0.000000
 41
0.000000
  0
VERTEX
  8
0
  6
CONTINUOUS
 10
2.561680
 20
2.043360
  0
VERTEX
  8
0
  6
CONTINUOUS
 10
3.197040
 20
2.405040
  0
VERTEX
  8
0
  6
CONTINUOUS
 10
3.190880
 20
2.380840
  0
VERTEX
  8
0
  6
CONTINUOUS
 10
2.555520
 20
2.019160
  0
VERTEX
  8
0
  6
CONTINUOUS
 10
2.561680
 20
2.043360
  0
SEQEND
  8
0
  0
SOLID
  8
0
 62
    15
 10
2.555520
 20
2.019160
 11
3.190880
 21
2.380840
 12
2.547160
 22
1.992760
 13
3.182520
 23
2.354440
  0
POLYLINE
  8
0
  6
CONTINUOUS
 66
     1
 40
0.000000
 41
0.000000
  0
VERTEX
  8
0
  6
CONTINUOUS
 10
2.555520
 20
2.019160
  0
VERTEX
  8
0
  6
CONTINUOUS
 10
3.190880
 20
2.380840
  0
VERTEX
  8
0
  6
CONTINUOUS
 10
3.182520
 20
2.354440
  0
VERTEX
  8
0
  6
CONTINUOUS
 10
2.547160
 20
1.992760
  0
VERTEX
  8
0
  6
CONTINUOUS
 10
2.555520
 20
2.019160
  0
SEQEND
  8
0
  0
SOLID
  8
0
 62
    15
 10
2.547160
 20
1.992760
 11
3.182520
 21
2.354440
 12
2.535720
 22
1.964160
 13
3.171080
 23
2.325840
  0
POLYLINE
  8
0
  6
CONTINUOUS
 66
     1
 40
0.000000
 41
0.000000
  0
VERTEX
  8
0
  6
CONTINUOUS
 10
2.547160
 20
1.992760
  0
VERTEX
  8
0
  6
CONTINUOUS
 10
3.182520
 20
2.354440
  0
VERTEX
  8
0
  6
CONTINUOUS
 10
3.171080
 20
2.325840
  0
VERTEX
  8
0
  6
CONTINUOUS
 10
2.535720
 20
1.964160
  0
VERTEX
  8
0
  6
CONTINUOUS
 10
2.547160
 20
1.992760
  0
SEQEND
  8
0
  0
SOLID
  8
0
 62
    15
 10
2.535720
 20
1.964160
 11
3.171080
 21
2.325840
 12
2.522080
 22
1.932480
 13
3.157440
 23
2.294160
  0
POLYLINE
  8
0
  6
CONTINUOUS
 66
     1
 40
0.000000
 41
0.000000
  0
VERTEX
  8
0
  6
CONTINUOUS
 10
2.535720
 20
1.964160
  0
VERTEX
  8
0
  6
CONTINUOUS
 10
3.171080
 20
2.325840
  0
VERTEX
  8
0
  6
CONTINUOUS
 10
3.157440
 20
2.294160
  0
VERTEX
  8
0
  6
CONTINUOUS
 10
2.522080
 20
1.932480
  0
VERTEX
  8
0
  6
CONTINUOUS
 10
2.535720
 20
1.964160
  0
SEQEND
  8
0
  0
SOLID
  8
0
 62
    15
 10
2.522080
 20
1.932480
 11
3.157440
 21
2.294160
 12
2.506240
 22
1.898160
 13
3.141600
 23
2.259400
  0
POLYLINE
  8
0
  6
CONTINUOUS
 66
     1
 40
0.000000
 41
0.000000
  0
VERTEX
  8
0
  6
CONTINUOUS
 10
2.522080
 20
1.932480
  0
VERTEX
  8
0
  6
CONTINUOUS
 10
3.157440
 20
2.294160
  0
VERTEX
  8
0
  6
CONTINUOUS
 10
3.141600
 20
2.259400
  0
VERTEX
  8
0
  6
CONTINUOUS
 10
2.506240
 20
1.898160
  0
VERTEX
  8
0
  6
CONTINUOUS
 10
2.522080
 20
1.932480
  0
SEQEND
  8
0
  0
SOLID
  8
0
 62
    15
 10
2.506240
 20
1.898160
 11
3.141600
 21
2.259400
 12
2.504920
 22
1.896840
 13
3.140280
 23
2.258080
  0
POLYLINE
  8
0
  6
CONTINUOUS
 66
     1
 40
0.000000
 41
0.000000
  0
VERTEX
  8
0
  6
CONTINUOUS
 10
2.506240
 20
1.898160
  0
VERTEX
  8
0
  6
CONTINUOUS
 10
3.141600
 20
2.259400
  0
VERTEX
  8
0
  6
CONTINUOUS
 10
3.140280
 20
2.258080
  0
VERTEX
  8
0
  6
CONTINUOUS
 10
2.504920
 20
1.896840
  0
VERTEX
  8
0
  6
CONTINUOUS
 10
2.506240
 20
1.898160
  0
SEQEND
  8
0
  0
SOLID
  8
0
 62
    15
 10
2.504920
 20
1.896840
 11
3.140280
 21
2.258080
 12
2.504920
 22
1.883200
 13
3.140280
 23
2.244880
  0
POLYLINE
  8
0
  6
CONTINUOUS
 66
     1
 40
0.000000
 41
0.000000
  0
VERTEX
  8
0
  6
CONTINUOUS
 10
2.504920
 20
1.896840
  0
VERTEX
  8
0
  6
CONTINUOUS
 10
3.140280
 20
2.258080
  0
VERTEX
  8
0
  6
CONTINUOUS
 10
3.140280
 20
2.244880
  0
VERTEX
  8
0
  6
CONTINUOUS
 10
2.504920
 20
1.883200
  0
VERTEX
  8
0
  6
CONTINUOUS
 10
2.504920
 20
1.896840
  0
SEQEND
  8
0
  0
SOLID
  8
0
 62
    15
 10
2.504920
 20
1.883200
 11
3.140280
 21
2.244880
 12
2.508000
 22
1.883200
 13
3.142920
 23
2.244880
  0
POLYLINE
  8
0
  6
CONTINUOUS
 66
     1
 40
0.000000
 41
0.000000
  0
VERTEX
  8
0
  6
CONTINUOUS
 10
2.504920
 20
1.883200
  0
VERTEX
  8
0
  6
CONTINUOUS
 10
3.140280
 20
2.244880
  0
VERTEX
  8
0
  6
CONTINUOUS
 10
3.142920
 20
2.244880
  0
VERTEX
  8
0
  6
CONTINUOUS
 10
2.508000
 20
1.883200
  0
VERTEX
  8
0
  6
CONTINUOUS
 10
2.504920
 20
1.883200
  0
SEQEND
  8
0
  0
POLYLINE
  8
0
  6
CONTINUOUS
 66
     1
 40
0.000000
 41
0.000000
  0
VERTEX
  8
0
  6
CONTINUOUS
 10
2.508000
 20
1.883200
  0
VERTEX
  8
0
  6
CONTINUOUS
 10
2.639560
 20
1.883200
  0
VERTEX
  8
0
  6
CONTINUOUS
 10
2.639560
 20
1.477960
  0
VERTEX
  8
0
  6
CONTINUOUS
 10
1.971640
 20
1.477960
  0
VERTEX
  8
0
  6
CONTINUOUS
 10
1.971640
 20
3.201880
  0
VERTEX
  8
0
  6
CONTINUOUS
 10
2.114640
 20
3.201880
  0
VERTEX
  8
0
  6
CONTINUOUS
 10
2.361040
 20
2.719200
  0
VERTEX
  8
0
  6
CONTINUOUS
 10
2.361040
 20
2.716560
  0
VERTEX
  8
0
  6
CONTINUOUS
 10
2.338600
 20
2.687080
  0
VERTEX
  8
0
  6
CONTINUOUS
 10
2.319240
 20
2.658040
  0
VERTEX
  8
0
  6
CONTINUOUS
 10
2.303400
 20
2.629440
  0
VERTEX
  8
0
  6
CONTINUOUS
 10
2.291520
 20
2.601280
  0
VERTEX
  8
0
  6
CONTINUOUS
 10
2.282720
 20
2.573120
  0
VERTEX
  8
0
  6
CONTINUOUS
 10
2.277440
 20
2.545400
  0
VERTEX
  8
0
  6
CONTINUOUS
 10
2.276120
 20
2.518120
  0
VERTEX
  8
0
  6
CONTINUOUS
 10
2.277880
 20
2.491280
  0
VERTEX
  8
0
  6
CONTINUOUS
 10
2.283600
 20
2.464440
  0
VERTEX
  8
0
  6
CONTINUOUS
 10
2.292400
 20
2.437600
  0
VERTEX
  8
0
  6
CONTINUOUS
 10
2.304720
 20
2.411200
  0
VERTEX
  8
0
  6
CONTINUOUS
 10
2.321000
 20
2.384800
  0
VERTEX
  8
0
  6
CONTINUOUS
 10
2.340360
 20
2.358840
  0
VERTEX
  8
0
  6
CONTINUOUS
 10
2.363240
 20
2.332880
  0
VERTEX
  8
0
  6
CONTINUOUS
 10
2.389640
 20
2.306480
  0
VERTEX
  8
0
  6
CONTINUOUS
 10
2.419560
 20
2.280520
  0
VERTEX
  8
0
  6
CONTINUOUS
 10
2.450360
 20
2.254560
  0
VERTEX
  8
0
  6
CONTINUOUS
 10
2.477200
 20
2.230800
  0
VERTEX
  8
0
  6
CONTINUOUS
 10
2.500520
 20
2.208360
  0
VERTEX
  8
0
  6
CONTINUOUS
 10
2.519880
 20
2.187240
  0
VERTEX
  8
0
  6
CONTINUOUS
 10
2.535720
 20
2.167000
  0
VERTEX
  8
0
  6
CONTINUOUS
 10
2.548040
 20
2.147200
  0
VERTEX
  8
0
  6
CONTINUOUS
 10
2.556840
 20
2.127840
  0
VERTEX
  8
0
  6
CONTINUOUS
 10
2.562560
 20
2.108040
  0
VERTEX
  8
0
  6
CONTINUOUS
 10
2.565200
 20
2.087360
  0
VERTEX
  8
0
  6
CONTINUOUS
 10
2.564760
 20
2.066240
  0
VERTEX
  8
0
  6
CONTINUOUS
 10
2.561680
 20
2.043360
  0
VERTEX
  8
0
  6
CONTINUOUS
 10
2.555520
 20
2.019160
  0
VERTEX
  8
0
  6
CONTINUOUS
 10
2.547160
 20
1.992760
  0
VERTEX
  8
0
  6
CONTINUOUS
 10
2.535720
 20
1.964160
  0
VERTEX
  8
0
  6
CONTINUOUS
 10
2.522080
 20
1.932480
  0
VERTEX
  8
0
  6
CONTINUOUS
 10
2.506240
 20
1.898160
  0
VERTEX
  8
0
  6
CONTINUOUS
 10
2.504920
 20
1.896840
  0
VERTEX
  8
0
  6
CONTINUOUS
 10
2.504920
 20
1.883200
  0
VERTEX
  8
0
  6
CONTINUOUS
 10
2.508000
 20
1.883200
  0
SEQEND
  8
0
  0
TEXT
  8
0
 10
2.327160
 20
1.255320
 40
0.138125
  1
BA  146
 41
1.000000
  7
SN0
 71
     0
 72
     5
 11
2.917297
 21
1.255320
  0
TEXT
  8
0
 10
2.171400
 20
1.063480
 40
0.138125
  1
5/8" x 1-3/4"
 41
1.000000
  7
SN0
 71
     0
 72
     5
 11
3.071828
 21
1.063480
  0
ENDSEC
  0
EOF
