  0
SECTION
  2
HEADER
  9
$ACADVER
  1
AC1006
  9
$EXTMIN
 10
5.226760
 20
0.394240
  9
$EXTMAX
 10
8.081480
 20
2.611840
  9
$LTSCALE
 40
0.044000
  9
$PDMODE
 70
    35
  9
$PDSIZE
 40
0.035200
  0
ENDSEC
  0
SECTION
  2
TABLES
  0
TABLE
  2
LTYPE
 70
     9
  0
LTYPE
  2
CONTINUOUS
 70
    64
  3
Solid line
 72
    65
 73
     0
 40
0.000000
  0
LTYPE
  2
DASHED
 70
    64
  3
__ __ __ __ __ __ __ __ __ __ __ __ __ __ __
 72
    65
 73
     2
 40
0.000330
 49
0.000220
 49
-0.000110
  0
LTYPE
  2
HIDDEN
 70
    64
  3
 _ _ _ _ _ _ _ _ _ _ _ _ _ _ _ _ _ _ _ _ _ _
 72
    65
 73
     2
 40
0.000165
 49
0.000110
 49
-0.000055
  0
LTYPE
  2
CENTER
 70
    64
  3
____ _ ____ _ ____ _ ____ _ ____ _ ____ _ ____
 72
    65
 73
     4
 40
0.000880
 49
0.000550
 49
-0.000110
 49
0.000110
 49
-0.000110
  0
LTYPE
  2
PHANTOM
 70
    64
  3
_____ _ _ _____ _ _ _____ _ _ _____ _ _ ____
 72
    65
 73
     6
 40
0.001100
 49
0.000550
 49
-0.000110
 49
0.000110
 49
-0.000110
 49
0.000110
 49
-0.000110
  0
LTYPE
  2
DOT
 70
    64
  3
...............................................
 72
    65
 73
     2
 40
0.000110
 49
0.000000
 49
-0.000110
  0
LTYPE
  2
DASHDOT
 70
    64
  3
__ . __ . __ . __ . __ . __ . __ . __ . __ . __
 72
    65
 73
     4
 40
0.000440
 49
0.000220
 49
-0.000110
 49
0.000000
 49
-0.000110
  0
LTYPE
  2
BORDER
 70
    64
  3
__ __ . __ __ . __ __ . __ __ . __ __ . __ __
 72
    65
 73
     6
 40
0.000770
 49
0.000220
 49
-0.000110
 49
0.000220
 49
-0.000110
 49
0.000000
 49
-0.000110
  0
LTYPE
  2
DIVIDE
 70
    64
  3
__ . . __ . . __ . . __ . . __ . . __ . . __
 72
    65
 73
     6
 40
0.000550
 49
0.000220
 49
-0.000110
 49
0.000000
 49
-0.000110
 49
0.000000
 49
-0.000110
  0
LTYPE
  2
DOTDOT
 70
    64
  3
 . .  . .  . .  . .  . .  . . 
 72
    65
 73
     5
 40
0.000242
 49
-0.000110
 49
0.000000
 49
-0.000110
 49
0.000000
 49
-0.000110
  0
ENDTAB
  0
TABLE
  2
STYLE
 70
     2
  0
STYLE
 70
     0
  2
SN0
 40
0.000000
 41
0.000440
 50
0.000000
 71
     0
 42
0.000000
  3
ROMAND
  0
STYLE
 70
    68
  2
SV0
 40
0.000000
 41
0.000440
 50
0.000000
 71
     0
 42
0.000000
  3
ROMAND
  0
ENDTAB
  0
TABLE
  2
LAYER
 70
     3
  0
LAYER
  2
FOREGROUND
 70
    64
 62
     7
  6
CONTINUOUS
  0
LAYER
  2
BACKGROUND
 70
    65
 62
    -7
  6
CONTINUOUS
  0
LAYER
  2
0
 70
    64
 62
     7
  6
CONTINUOUS
  0
ENDTAB
  0
ENDSEC
  0
SECTION
  2
ENTITIES
  0
POLYLINE
  8
FOREGROUND
  6
CONTINUOUS
 66
     1
 40
0.000000
 41
0.000000
  0
VERTEX
  8
FOREGROUND
  6
CONTINUOUS
 10
0.000000
 20
3.006080
  0
VERTEX
  8
FOREGROUND
  6
CONTINUOUS
 10
8.499920
 20
3.006080
  0
VERTEX
  8
FOREGROUND
  6
CONTINUOUS
 10
8.499920
 20
-7.993920
  0
VERTEX
  8
FOREGROUND
  6
CONTINUOUS
 10
0.000000
 20
-7.993920
  0
VERTEX
  8
FOREGROUND
  6
CONTINUOUS
 10
0.000000
 20
3.006080
  0
SEQEND
  8
0
  0
POLYLINE
  8
FOREGROUND
  6
CONTINUOUS
 66
     1
 40
0.000000
 41
0.000000
  0
VERTEX
  8
FOREGROUND
  6
CONTINUOUS
 10
0.000000
 20
3.006080
  0
VERTEX
  8
FOREGROUND
  6
CONTINUOUS
 10
8.499920
 20
3.006080
  0
VERTEX
  8
FOREGROUND
  6
CONTINUOUS
 10
8.499920
 20
-7.993920
  0
VERTEX
  8
FOREGROUND
  6
CONTINUOUS
 10
0.000000
 20
-7.993920
  0
VERTEX
  8
FOREGROUND
  6
CONTINUOUS
 10
0.000000
 20
3.006080
  0
SEQEND
  8
0
  0
SOLID
  8
0
 62
    15
 10
6.714840
 20
1.111880
 11
7.362960
 21
1.481040
 12
6.735520
 22
1.090320
 13
7.383640
 23
1.459920
  0
POLYLINE
  8
0
  6
CONTINUOUS
 66
     1
 40
0.000000
 41
0.000000
  0
VERTEX
  8
0
  6
CONTINUOUS
 10
6.714840
 20
1.111880
  0
VERTEX
  8
0
  6
CONTINUOUS
 10
7.362960
 20
1.481040
  0
VERTEX
  8
0
  6
CONTINUOUS
 10
7.383640
 20
1.459920
  0
VERTEX
  8
0
  6
CONTINUOUS
 10
6.735520
 20
1.090320
  0
VERTEX
  8
0
  6
CONTINUOUS
 10
6.714840
 20
1.111880
  0
SEQEND
  8
0
  0
SOLID
  8
0
 62
    15
 10
7.118320
 20
1.727880
 11
7.118320
 21
1.555400
 12
6.470200
 22
1.358720
 13
6.470200
 23
1.185800
  0
POLYLINE
  8
0
  6
CONTINUOUS
 66
     1
 40
0.000000
 41
0.000000
  0
VERTEX
  8
0
  6
CONTINUOUS
 10
7.118320
 20
1.727880
  0
VERTEX
  8
0
  6
CONTINUOUS
 10
7.118320
 20
1.555400
  0
VERTEX
  8
0
  6
CONTINUOUS
 10
6.470200
 20
1.185800
  0
VERTEX
  8
0
  6
CONTINUOUS
 10
6.470200
 20
1.358720
  0
VERTEX
  8
0
  6
CONTINUOUS
 10
7.118320
 20
1.727880
  0
SEQEND
  8
0
  0
SOLID
  8
0
 62
    15
 10
5.227200
 20
1.358720
 11
5.875760
 21
1.727880
 12
6.472840
 22
1.358720
 13
7.121400
 23
1.727880
  0
POLYLINE
  8
0
  6
CONTINUOUS
 66
     1
 40
0.000000
 41
0.000000
  0
VERTEX
  8
0
  6
CONTINUOUS
 10
5.227200
 20
1.358720
  0
VERTEX
  8
0
  6
CONTINUOUS
 10
5.875760
 20
1.727880
  0
VERTEX
  8
0
  6
CONTINUOUS
 10
7.121400
 20
1.727880
  0
VERTEX
  8
0
  6
CONTINUOUS
 10
6.472840
 20
1.358720
  0
VERTEX
  8
0
  6
CONTINUOUS
 10
5.227200
 20
1.358720
  0
SEQEND
  8
0
  0
SOLID
  8
0
 62
    15
 10
6.470200
 20
1.185800
 11
7.118320
 21
1.555400
 12
6.472840
 22
1.185800
 13
7.120960
 23
1.555400
  0
POLYLINE
  8
0
  6
CONTINUOUS
 66
     1
 40
0.000000
 41
0.000000
  0
VERTEX
  8
0
  6
CONTINUOUS
 10
6.470200
 20
1.185800
  0
VERTEX
  8
0
  6
CONTINUOUS
 10
7.118320
 20
1.555400
  0
VERTEX
  8
0
  6
CONTINUOUS
 10
7.120960
 20
1.555400
  0
VERTEX
  8
0
  6
CONTINUOUS
 10
6.472840
 20
1.185800
  0
VERTEX
  8
0
  6
CONTINUOUS
 10
6.470200
 20
1.185800
  0
SEQEND
  8
0
  0
SOLID
  8
0
 62
    15
 10
6.472840
 20
1.185800
 11
7.120960
 21
1.555400
 12
6.519040
 22
1.184040
 13
7.167160
 23
1.553640
  0
POLYLINE
  8
0
  6
CONTINUOUS
 66
     1
 40
0.000000
 41
0.000000
  0
VERTEX
  8
0
  6
CONTINUOUS
 10
6.472840
 20
1.185800
  0
VERTEX
  8
0
  6
CONTINUOUS
 10
7.120960
 20
1.555400
  0
VERTEX
  8
0
  6
CONTINUOUS
 10
7.167160
 20
1.553640
  0
VERTEX
  8
0
  6
CONTINUOUS
 10
6.519040
 20
1.184040
  0
VERTEX
  8
0
  6
CONTINUOUS
 10
6.472840
 20
1.185800
  0
SEQEND
  8
0
  0
SOLID
  8
0
 62
    15
 10
6.519040
 20
1.184040
 11
7.167160
 21
1.553640
 12
6.560840
 22
1.179200
 13
7.209400
 23
1.548800
  0
POLYLINE
  8
0
  6
CONTINUOUS
 66
     1
 40
0.000000
 41
0.000000
  0
VERTEX
  8
0
  6
CONTINUOUS
 10
6.519040
 20
1.184040
  0
VERTEX
  8
0
  6
CONTINUOUS
 10
7.167160
 20
1.553640
  0
VERTEX
  8
0
  6
CONTINUOUS
 10
7.209400
 20
1.548800
  0
VERTEX
  8
0
  6
CONTINUOUS
 10
6.560840
 20
1.179200
  0
VERTEX
  8
0
  6
CONTINUOUS
 10
6.519040
 20
1.184040
  0
SEQEND
  8
0
  0
SOLID
  8
0
 62
    15
 10
6.560840
 20
1.179200
 11
7.209400
 21
1.548800
 12
6.598680
 22
1.171280
 13
7.247240
 23
1.540880
  0
POLYLINE
  8
0
  6
CONTINUOUS
 66
     1
 40
0.000000
 41
0.000000
  0
VERTEX
  8
0
  6
CONTINUOUS
 10
6.560840
 20
1.179200
  0
VERTEX
  8
0
  6
CONTINUOUS
 10
7.209400
 20
1.548800
  0
VERTEX
  8
0
  6
CONTINUOUS
 10
7.247240
 20
1.540880
  0
VERTEX
  8
0
  6
CONTINUOUS
 10
6.598680
 20
1.171280
  0
VERTEX
  8
0
  6
CONTINUOUS
 10
6.560840
 20
1.179200
  0
SEQEND
  8
0
  0
SOLID
  8
0
 62
    15
 10
6.598680
 20
1.171280
 11
7.247240
 21
1.540880
 12
6.633000
 22
1.160720
 13
7.281120
 23
1.529880
  0
POLYLINE
  8
0
  6
CONTINUOUS
 66
     1
 40
0.000000
 41
0.000000
  0
VERTEX
  8
0
  6
CONTINUOUS
 10
6.598680
 20
1.171280
  0
VERTEX
  8
0
  6
CONTINUOUS
 10
7.247240
 20
1.540880
  0
VERTEX
  8
0
  6
CONTINUOUS
 10
7.281120
 20
1.529880
  0
VERTEX
  8
0
  6
CONTINUOUS
 10
6.633000
 20
1.160720
  0
VERTEX
  8
0
  6
CONTINUOUS
 10
6.598680
 20
1.171280
  0
SEQEND
  8
0
  0
SOLID
  8
0
 62
    15
 10
6.633000
 20
1.160720
 11
7.281120
 21
1.529880
 12
6.663800
 22
1.147080
 13
7.311920
 23
1.516240
  0
POLYLINE
  8
0
  6
CONTINUOUS
 66
     1
 40
0.000000
 41
0.000000
  0
VERTEX
  8
0
  6
CONTINUOUS
 10
6.633000
 20
1.160720
  0
VERTEX
  8
0
  6
CONTINUOUS
 10
7.281120
 20
1.529880
  0
VERTEX
  8
0
  6
CONTINUOUS
 10
7.311920
 20
1.516240
  0
VERTEX
  8
0
  6
CONTINUOUS
 10
6.663800
 20
1.147080
  0
VERTEX
  8
0
  6
CONTINUOUS
 10
6.633000
 20
1.160720
  0
SEQEND
  8
0
  0
SOLID
  8
0
 62
    15
 10
6.663800
 20
1.147080
 11
7.311920
 21
1.516240
 12
6.690640
 22
1.130800
 13
7.339200
 23
1.499960
  0
POLYLINE
  8
0
  6
CONTINUOUS
 66
     1
 40
0.000000
 41
0.000000
  0
VERTEX
  8
0
  6
CONTINUOUS
 10
6.663800
 20
1.147080
  0
VERTEX
  8
0
  6
CONTINUOUS
 10
7.311920
 20
1.516240
  0
VERTEX
  8
0
  6
CONTINUOUS
 10
7.339200
 20
1.499960
  0
VERTEX
  8
0
  6
CONTINUOUS
 10
6.690640
 20
1.130800
  0
VERTEX
  8
0
  6
CONTINUOUS
 10
6.663800
 20
1.147080
  0
SEQEND
  8
0
  0
SOLID
  8
0
 62
    15
 10
6.690640
 20
1.130800
 11
7.339200
 21
1.499960
 12
6.714840
 22
1.111880
 13
7.362960
 23
1.481040
  0
POLYLINE
  8
0
  6
CONTINUOUS
 66
     1
 40
0.000000
 41
0.000000
  0
VERTEX
  8
0
  6
CONTINUOUS
 10
6.690640
 20
1.130800
  0
VERTEX
  8
0
  6
CONTINUOUS
 10
7.339200
 20
1.499960
  0
VERTEX
  8
0
  6
CONTINUOUS
 10
7.362960
 20
1.481040
  0
VERTEX
  8
0
  6
CONTINUOUS
 10
6.714840
 20
1.111880
  0
VERTEX
  8
0
  6
CONTINUOUS
 10
6.690640
 20
1.130800
  0
SEQEND
  8
0
  0
POLYLINE
  8
0
  6
CONTINUOUS
 66
     1
 40
0.000000
 41
0.000000
  0
VERTEX
  8
0
  6
CONTINUOUS
 10
6.470200
 20
1.365760
  0
VERTEX
  8
0
  6
CONTINUOUS
 10
7.118320
 20
1.735360
  0
VERTEX
  8
0
  6
CONTINUOUS
 10
6.470200
 20
1.365760
  0
SEQEND
  8
0
  0
SOLID
  8
0
 62
    15
 10
6.735520
 20
1.090320
 11
7.383640
 21
1.459920
 12
6.753560
 22
1.067000
 13
7.401680
 23
1.436160
  0
POLYLINE
  8
0
  6
CONTINUOUS
 66
     1
 40
0.000000
 41
0.000000
  0
VERTEX
  8
0
  6
CONTINUOUS
 10
6.735520
 20
1.090320
  0
VERTEX
  8
0
  6
CONTINUOUS
 10
7.383640
 20
1.459920
  0
VERTEX
  8
0
  6
CONTINUOUS
 10
7.401680
 20
1.436160
  0
VERTEX
  8
0
  6
CONTINUOUS
 10
6.753560
 20
1.067000
  0
VERTEX
  8
0
  6
CONTINUOUS
 10
6.735520
 20
1.090320
  0
SEQEND
  8
0
  0
SOLID
  8
0
 62
    15
 10
6.753560
 20
1.067000
 11
7.401680
 21
1.436160
 12
6.768960
 22
1.041040
 13
7.417080
 23
1.410640
  0
POLYLINE
  8
0
  6
CONTINUOUS
 66
     1
 40
0.000000
 41
0.000000
  0
VERTEX
  8
0
  6
CONTINUOUS
 10
6.753560
 20
1.067000
  0
VERTEX
  8
0
  6
CONTINUOUS
 10
7.401680
 20
1.436160
  0
VERTEX
  8
0
  6
CONTINUOUS
 10
7.417080
 20
1.410640
  0
VERTEX
  8
0
  6
CONTINUOUS
 10
6.768960
 20
1.041040
  0
VERTEX
  8
0
  6
CONTINUOUS
 10
6.753560
 20
1.067000
  0
SEQEND
  8
0
  0
SOLID
  8
0
 62
    15
 10
6.768960
 20
1.041040
 11
7.417080
 21
1.410640
 12
6.781720
 22
1.012880
 13
7.429840
 23
1.382480
  0
POLYLINE
  8
0
  6
CONTINUOUS
 66
     1
 40
0.000000
 41
0.000000
  0
VERTEX
  8
0
  6
CONTINUOUS
 10
6.768960
 20
1.041040
  0
VERTEX
  8
0
  6
CONTINUOUS
 10
7.417080
 20
1.410640
  0
VERTEX
  8
0
  6
CONTINUOUS
 10
7.429840
 20
1.382480
  0
VERTEX
  8
0
  6
CONTINUOUS
 10
6.781720
 20
1.012880
  0
VERTEX
  8
0
  6
CONTINUOUS
 10
6.768960
 20
1.041040
  0
SEQEND
  8
0
  0
SOLID
  8
0
 62
    15
 10
6.781720
 20
1.012880
 11
7.429840
 21
1.382480
 12
6.791840
 22
0.983400
 13
7.440400
 23
1.352560
  0
POLYLINE
  8
0
  6
CONTINUOUS
 66
     1
 40
0.000000
 41
0.000000
  0
VERTEX
  8
0
  6
CONTINUOUS
 10
6.781720
 20
1.012880
  0
VERTEX
  8
0
  6
CONTINUOUS
 10
7.429840
 20
1.382480
  0
VERTEX
  8
0
  6
CONTINUOUS
 10
7.440400
 20
1.352560
  0
VERTEX
  8
0
  6
CONTINUOUS
 10
6.791840
 20
0.983400
  0
VERTEX
  8
0
  6
CONTINUOUS
 10
6.781720
 20
1.012880
  0
SEQEND
  8
0
  0
SOLID
  8
0
 62
    15
 10
6.791840
 20
0.983400
 11
7.440400
 21
1.352560
 12
6.800200
 22
0.951720
 13
7.448760
 23
1.320880
  0
POLYLINE
  8
0
  6
CONTINUOUS
 66
     1
 40
0.000000
 41
0.000000
  0
VERTEX
  8
0
  6
CONTINUOUS
 10
6.791840
 20
0.983400
  0
VERTEX
  8
0
  6
CONTINUOUS
 10
7.440400
 20
1.352560
  0
VERTEX
  8
0
  6
CONTINUOUS
 10
7.448760
 20
1.320880
  0
VERTEX
  8
0
  6
CONTINUOUS
 10
6.800200
 20
0.951720
  0
VERTEX
  8
0
  6
CONTINUOUS
 10
6.791840
 20
0.983400
  0
SEQEND
  8
0
  0
SOLID
  8
0
 62
    15
 10
6.800200
 20
0.951720
 11
7.448760
 21
1.320880
 12
6.806800
 22
0.918280
 13
7.454920
 23
1.287880
  0
POLYLINE
  8
0
  6
CONTINUOUS
 66
     1
 40
0.000000
 41
0.000000
  0
VERTEX
  8
0
  6
CONTINUOUS
 10
6.800200
 20
0.951720
  0
VERTEX
  8
0
  6
CONTINUOUS
 10
7.448760
 20
1.320880
  0
VERTEX
  8
0
  6
CONTINUOUS
 10
7.454920
 20
1.287880
  0
VERTEX
  8
0
  6
CONTINUOUS
 10
6.806800
 20
0.918280
  0
VERTEX
  8
0
  6
CONTINUOUS
 10
6.800200
 20
0.951720
  0
SEQEND
  8
0
  0
SOLID
  8
0
 62
    15
 10
6.806800
 20
0.918280
 11
7.454920
 21
1.287880
 12
6.814280
 22
0.847000
 13
7.462400
 23
1.216600
  0
POLYLINE
  8
0
  6
CONTINUOUS
 66
     1
 40
0.000000
 41
0.000000
  0
VERTEX
  8
0
  6
CONTINUOUS
 10
6.806800
 20
0.918280
  0
VERTEX
  8
0
  6
CONTINUOUS
 10
7.454920
 20
1.287880
  0
VERTEX
  8
0
  6
CONTINUOUS
 10
7.462400
 20
1.216600
  0
VERTEX
  8
0
  6
CONTINUOUS
 10
6.814280
 20
0.847000
  0
VERTEX
  8
0
  6
CONTINUOUS
 10
6.806800
 20
0.918280
  0
SEQEND
  8
0
  0
SOLID
  8
0
 62
    15
 10
6.814280
 20
0.847000
 11
7.462400
 21
1.216600
 12
6.814280
 22
0.840400
 13
7.462400
 23
1.210000
  0
POLYLINE
  8
0
  6
CONTINUOUS
 66
     1
 40
0.000000
 41
0.000000
  0
VERTEX
  8
0
  6
CONTINUOUS
 10
6.814280
 20
0.847000
  0
VERTEX
  8
0
  6
CONTINUOUS
 10
7.462400
 20
1.216600
  0
VERTEX
  8
0
  6
CONTINUOUS
 10
7.462400
 20
1.210000
  0
VERTEX
  8
0
  6
CONTINUOUS
 10
6.814280
 20
0.840400
  0
VERTEX
  8
0
  6
CONTINUOUS
 10
6.814280
 20
0.847000
  0
SEQEND
  8
0
  0
SOLID
  8
0
 62
    15
 10
6.470200
 20
1.365760
 11
7.118320
 21
1.735360
 12
6.470200
 22
1.358720
 13
7.118320
 23
1.727880
  0
POLYLINE
  8
0
  6
CONTINUOUS
 66
     1
 40
0.000000
 41
0.000000
  0
VERTEX
  8
0
  6
CONTINUOUS
 10
6.470200
 20
1.365760
  0
VERTEX
  8
0
  6
CONTINUOUS
 10
7.118320
 20
1.735360
  0
VERTEX
  8
0
  6
CONTINUOUS
 10
7.118320
 20
1.727880
  0
VERTEX
  8
0
  6
CONTINUOUS
 10
6.470200
 20
1.358720
  0
VERTEX
  8
0
  6
CONTINUOUS
 10
6.470200
 20
1.365760
  0
SEQEND
  8
0
  0
POLYLINE
  8
0
  6
CONTINUOUS
 66
     1
 40
0.000000
 41
0.000000
  0
VERTEX
  8
0
  6
CONTINUOUS
 10
6.470200
 20
1.365760
  0
VERTEX
  8
0
  6
CONTINUOUS
 10
6.470200
 20
1.185800
  0
VERTEX
  8
0
  6
CONTINUOUS
 10
6.472840
 20
1.185800
  0
VERTEX
  8
0
  6
CONTINUOUS
 10
6.519040
 20
1.184040
  0
VERTEX
  8
0
  6
CONTINUOUS
 10
6.560840
 20
1.179200
  0
VERTEX
  8
0
  6
CONTINUOUS
 10
6.598680
 20
1.171280
  0
VERTEX
  8
0
  6
CONTINUOUS
 10
6.633000
 20
1.160720
  0
VERTEX
  8
0
  6
CONTINUOUS
 10
6.663800
 20
1.147080
  0
VERTEX
  8
0
  6
CONTINUOUS
 10
6.690640
 20
1.130800
  0
VERTEX
  8
0
  6
CONTINUOUS
 10
6.714840
 20
1.111880
  0
VERTEX
  8
0
  6
CONTINUOUS
 10
6.735520
 20
1.090320
  0
VERTEX
  8
0
  6
CONTINUOUS
 10
6.753560
 20
1.067000
  0
VERTEX
  8
0
  6
CONTINUOUS
 10
6.768960
 20
1.041040
  0
VERTEX
  8
0
  6
CONTINUOUS
 10
6.781720
 20
1.012880
  0
VERTEX
  8
0
  6
CONTINUOUS
 10
6.791840
 20
0.983400
  0
VERTEX
  8
0
  6
CONTINUOUS
 10
6.800200
 20
0.951720
  0
VERTEX
  8
0
  6
CONTINUOUS
 10
6.806800
 20
0.918280
  0
VERTEX
  8
0
  6
CONTINUOUS
 10
6.814280
 20
0.847000
  0
VERTEX
  8
0
  6
CONTINUOUS
 10
6.814280
 20
0.840400
  0
VERTEX
  8
0
  6
CONTINUOUS
 10
6.808120
 20
0.839960
  0
VERTEX
  8
0
  6
CONTINUOUS
 10
5.227200
 20
0.839960
  0
VERTEX
  8
0
  6
CONTINUOUS
 10
5.227200
 20
1.358720
  0
VERTEX
  8
0
  6
CONTINUOUS
 10
6.472840
 20
1.358720
  0
VERTEX
  8
0
  6
CONTINUOUS
 10
6.470200
 20
1.365760
  0
SEQEND
  8
0
  0
TEXT
  8
0
 10
6.049120
 20
0.629200
 40
0.138173
  1
BA  145
 41
1.000000
  7
SN0
 71
     0
 72
     5
 11
6.638620
 21
0.629200
  0
TEXT
  8
0
 10
5.847160
 20
0.437360
 40
0.138173
  1
1/2" x 1-9/16"
 41
1.000000
  7
SN0
 71
     0
 72
     5
 11
6.838319
 21
0.437360
  0
POLYLINE
  8
0
  6
CONTINUOUS
 66
     1
 40
0.014080
 41
0.014080
  0
VERTEX
  8
0
  6
CONTINUOUS
 10
6.791400
 20
2.548040
  0
VERTEX
  8
0
  6
CONTINUOUS
 10
5.545760
 20
2.548040
  0
VERTEX
  8
0
  6
CONTINUOUS
 10
5.545760
 20
2.029720
  0
VERTEX
  8
0
  6
CONTINUOUS
 10
7.126680
 20
2.029720
  0
VERTEX
  8
0
  6
CONTINUOUS
 10
7.132840
 20
2.029720
  0
VERTEX
  8
0
  6
CONTINUOUS
 10
7.132840
 20
2.036760
  0
VERTEX
  8
0
  6
CONTINUOUS
 10
7.129760
 20
2.072840
  0
VERTEX
  8
0
  6
CONTINUOUS
 10
7.125360
 20
2.108040
  0
VERTEX
  8
0
  6
CONTINUOUS
 10
7.118760
 20
2.141040
  0
VERTEX
  8
0
  6
CONTINUOUS
 10
7.114800
 20
2.157320
  0
VERTEX
  8
0
  6
CONTINUOUS
 10
7.110400
 20
2.172720
  0
VERTEX
  8
0
  6
CONTINUOUS
 10
7.105560
 20
2.188120
  0
VERTEX
  8
0
  6
CONTINUOUS
 10
7.099840
 20
2.202640
  0
VERTEX
  8
0
  6
CONTINUOUS
 10
7.094120
 20
2.216720
  0
VERTEX
  8
0
  6
CONTINUOUS
 10
7.087080
 20
2.230360
  0
VERTEX
  8
0
  6
CONTINUOUS
 10
7.080040
 20
2.243560
  0
VERTEX
  8
0
  6
CONTINUOUS
 10
7.072120
 20
2.256320
  0
VERTEX
  8
0
  6
CONTINUOUS
 10
7.063320
 20
2.268200
  0
VERTEX
  8
0
  6
CONTINUOUS
 10
7.054080
 20
2.279640
  0
VERTEX
  8
0
  6
CONTINUOUS
 10
7.043960
 20
2.290640
  0
VERTEX
  8
0
  6
CONTINUOUS
 10
7.033400
 20
2.301200
  0
VERTEX
  8
0
  6
CONTINUOUS
 10
7.021520
 20
2.310880
  0
VERTEX
  8
0
  6
CONTINUOUS
 10
7.009200
 20
2.320120
  0
VERTEX
  8
0
  6
CONTINUOUS
 10
6.996000
 20
2.328480
  0
VERTEX
  8
0
  6
CONTINUOUS
 10
6.982360
 20
2.336400
  0
VERTEX
  8
0
  6
CONTINUOUS
 10
6.967400
 20
2.343440
  0
VERTEX
  8
0
  6
CONTINUOUS
 10
6.951560
 20
2.350040
  0
VERTEX
  8
0
  6
CONTINUOUS
 10
6.934840
 20
2.355760
  0
VERTEX
  8
0
  6
CONTINUOUS
 10
6.917240
 20
2.360600
  0
VERTEX
  8
0
  6
CONTINUOUS
 10
6.898760
 20
2.365000
  0
VERTEX
  8
0
  6
CONTINUOUS
 10
6.879400
 20
2.368520
  0
VERTEX
  8
0
  6
CONTINUOUS
 10
6.859160
 20
2.371600
  0
VERTEX
  8
0
  6
CONTINUOUS
 10
6.837600
 20
2.373360
  0
VERTEX
  8
0
  6
CONTINUOUS
 10
6.815160
 20
2.374680
  0
VERTEX
  8
0
  6
CONTINUOUS
 10
6.791400
 20
2.375120
  0
VERTEX
  8
0
  6
CONTINUOUS
 10
6.788760
 20
2.375120
  0
VERTEX
  8
0
  6
CONTINUOUS
 10
6.788760
 20
2.555080
  0
VERTEX
  8
0
  6
CONTINUOUS
 10
6.791400
 20
2.548040
  0
SEQEND
  8
0
  0
TEXT
  8
0
 10
7.564040
 20
2.460920
 40
0.138173
  1
1/4 rnd
 41
1.000000
  7
SN0
 71
     0
 72
     5
 11
8.079317
 21
2.460920
  0
TEXT
  8
0
 10
7.564040
 20
2.269080
 40
0.138173
  1
145
 41
1.000000
  7
SN0
 71
     0
 72
     5
 11
7.840662
 21
2.269080
  0
ENDSEC
  0
EOF
