  0
SECTION
  2
HEADER
  9
$ACADVER
  1
AC1006
  9
$EXTMIN
 10
1.813240
 20
1.685640
  9
$EXTMAX
 10
4.112240
 20
3.014440
  9
$LTSCALE
 40
0.044000
  9
$PDMODE
 70
    35
  9
$PDSIZE
 40
0.035200
  0
ENDSEC
  0
SECTION
  2
TABLES
  0
TABLE
  2
LTYPE
 70
     9
  0
LTYPE
  2
CONTINUOUS
 70
    64
  3
Solid line
 72
    65
 73
     0
 40
0.000000
  0
LTYPE
  2
DASHED
 70
    64
  3
__ __ __ __ __ __ __ __ __ __ __ __ __ __ __
 72
    65
 73
     2
 40
0.000330
 49
0.000220
 49
-0.000110
  0
LTYPE
  2
HIDDEN
 70
    64
  3
 _ _ _ _ _ _ _ _ _ _ _ _ _ _ _ _ _ _ _ _ _ _
 72
    65
 73
     2
 40
0.000165
 49
0.000110
 49
-0.000055
  0
LTYPE
  2
CENTER
 70
    64
  3
____ _ ____ _ ____ _ ____ _ ____ _ ____ _ ____
 72
    65
 73
     4
 40
0.000880
 49
0.000550
 49
-0.000110
 49
0.000110
 49
-0.000110
  0
LTYPE
  2
PHANTOM
 70
    64
  3
_____ _ _ _____ _ _ _____ _ _ _____ _ _ ____
 72
    65
 73
     6
 40
0.001100
 49
0.000550
 49
-0.000110
 49
0.000110
 49
-0.000110
 49
0.000110
 49
-0.000110
  0
LTYPE
  2
DOT
 70
    64
  3
...............................................
 72
    65
 73
     2
 40
0.000110
 49
0.000000
 49
-0.000110
  0
LTYPE
  2
DASHDOT
 70
    64
  3
__ . __ . __ . __ . __ . __ . __ . __ . __ . __
 72
    65
 73
     4
 40
0.000440
 49
0.000220
 49
-0.000110
 49
0.000000
 49
-0.000110
  0
LTYPE
  2
BORDER
 70
    64
  3
__ __ . __ __ . __ __ . __ __ . __ __ . __ __
 72
    65
 73
     6
 40
0.000770
 49
0.000220
 49
-0.000110
 49
0.000220
 49
-0.000110
 49
0.000000
 49
-0.000110
  0
LTYPE
  2
DIVIDE
 70
    64
  3
__ . . __ . . __ . . __ . . __ . . __ . . __
 72
    65
 73
     6
 40
0.000550
 49
0.000220
 49
-0.000110
 49
0.000000
 49
-0.000110
 49
0.000000
 49
-0.000110
  0
LTYPE
  2
DOTDOT
 70
    64
  3
 . .  . .  . .  . .  . .  . . 
 72
    65
 73
     5
 40
0.000242
 49
-0.000110
 49
0.000000
 49
-0.000110
 49
0.000000
 49
-0.000110
  0
ENDTAB
  0
TABLE
  2
STYLE
 70
     2
  0
STYLE
 70
     0
  2
SN0
 40
0.000000
 41
0.000440
 50
0.000000
 71
     0
 42
0.000000
  3
ROMAND
  0
STYLE
 70
    68
  2
SV0
 40
0.000000
 41
0.000440
 50
0.000000
 71
     0
 42
0.000000
  3
ROMAND
  0
ENDTAB
  0
TABLE
  2
LAYER
 70
     3
  0
LAYER
  2
FOREGROUND
 70
    64
 62
     7
  6
CONTINUOUS
  0
LAYER
  2
BACKGROUND
 70
    65
 62
    -7
  6
CONTINUOUS
  0
LAYER
  2
0
 70
    64
 62
     7
  6
CONTINUOUS
  0
ENDTAB
  0
ENDSEC
  0
SECTION
  2
ENTITIES
  0
POLYLINE
  8
FOREGROUND
  6
CONTINUOUS
 66
     1
 40
0.000000
 41
0.000000
  0
VERTEX
  8
FOREGROUND
  6
CONTINUOUS
 10
0.000000
 20
4.700080
  0
VERTEX
  8
FOREGROUND
  6
CONTINUOUS
 10
8.499920
 20
4.700080
  0
VERTEX
  8
FOREGROUND
  6
CONTINUOUS
 10
8.499920
 20
-6.299920
  0
VERTEX
  8
FOREGROUND
  6
CONTINUOUS
 10
0.000000
 20
-6.299920
  0
VERTEX
  8
FOREGROUND
  6
CONTINUOUS
 10
0.000000
 20
4.700080
  0
SEQEND
  8
0
  0
POLYLINE
  8
FOREGROUND
  6
CONTINUOUS
 66
     1
 40
0.000000
 41
0.000000
  0
VERTEX
  8
FOREGROUND
  6
CONTINUOUS
 10
0.000000
 20
4.700080
  0
VERTEX
  8
FOREGROUND
  6
CONTINUOUS
 10
8.499920
 20
4.700080
  0
VERTEX
  8
FOREGROUND
  6
CONTINUOUS
 10
8.499920
 20
-6.299920
  0
VERTEX
  8
FOREGROUND
  6
CONTINUOUS
 10
0.000000
 20
-6.299920
  0
VERTEX
  8
FOREGROUND
  6
CONTINUOUS
 10
0.000000
 20
4.700080
  0
SEQEND
  8
0
  0
TEXT
  8
0
 10
2.106280
 20
1.921480
 40
0.138146
  1
BA  144
 41
1.000000
  7
SN0
 71
     0
 72
     5
 11
2.696318
 21
1.921480
  0
TEXT
  8
0
 10
2.024000
 20
1.730080
 40
0.138146
  1
1/2" x 1/2"
 41
1.000000
  7
SN0
 71
     0
 72
     5
 11
2.776923
 21
1.730080
  0
SOLID
  8
0
 62
    15
 10
2.057880
 20
2.364120
 11
2.702920
 21
2.732400
 12
2.041600
 22
2.337280
 13
2.686200
 23
2.705120
  0
POLYLINE
  8
0
  6
CONTINUOUS
 66
     1
 40
0.000000
 41
0.000000
  0
VERTEX
  8
0
  6
CONTINUOUS
 10
2.057880
 20
2.364120
  0
VERTEX
  8
0
  6
CONTINUOUS
 10
2.702920
 20
2.732400
  0
VERTEX
  8
0
  6
CONTINUOUS
 10
2.686200
 20
2.705120
  0
VERTEX
  8
0
  6
CONTINUOUS
 10
2.041600
 20
2.337280
  0
VERTEX
  8
0
  6
CONTINUOUS
 10
2.057880
 20
2.364120
  0
SEQEND
  8
0
  0
SOLID
  8
0
 62
    15
 10
2.341680
 20
2.627680
 11
2.986280
 21
2.995960
 12
2.345640
 22
2.627240
 13
2.990680
 23
2.995080
  0
POLYLINE
  8
0
  6
CONTINUOUS
 66
     1
 40
0.000000
 41
0.000000
  0
VERTEX
  8
0
  6
CONTINUOUS
 10
2.341680
 20
2.627680
  0
VERTEX
  8
0
  6
CONTINUOUS
 10
2.986280
 20
2.995960
  0
VERTEX
  8
0
  6
CONTINUOUS
 10
2.990680
 20
2.995080
  0
VERTEX
  8
0
  6
CONTINUOUS
 10
2.345640
 20
2.627240
  0
VERTEX
  8
0
  6
CONTINUOUS
 10
2.341680
 20
2.627680
  0
SEQEND
  8
0
  0
SOLID
  8
0
 62
    15
 10
2.041600
 20
2.337280
 11
2.686200
 21
2.705120
 12
2.027960
 22
2.306480
 13
2.673000
 23
2.674760
  0
POLYLINE
  8
0
  6
CONTINUOUS
 66
     1
 40
0.000000
 41
0.000000
  0
VERTEX
  8
0
  6
CONTINUOUS
 10
2.041600
 20
2.337280
  0
VERTEX
  8
0
  6
CONTINUOUS
 10
2.686200
 20
2.705120
  0
VERTEX
  8
0
  6
CONTINUOUS
 10
2.673000
 20
2.674760
  0
VERTEX
  8
0
  6
CONTINUOUS
 10
2.027960
 20
2.306480
  0
VERTEX
  8
0
  6
CONTINUOUS
 10
2.041600
 20
2.337280
  0
SEQEND
  8
0
  0
SOLID
  8
0
 62
    15
 10
2.147640
 20
2.442440
 11
2.792240
 21
2.810280
 12
2.121680
 22
2.427040
 13
2.766720
 23
2.794880
  0
POLYLINE
  8
0
  6
CONTINUOUS
 66
     1
 40
0.000000
 41
0.000000
  0
VERTEX
  8
0
  6
CONTINUOUS
 10
2.147640
 20
2.442440
  0
VERTEX
  8
0
  6
CONTINUOUS
 10
2.792240
 20
2.810280
  0
VERTEX
  8
0
  6
CONTINUOUS
 10
2.766720
 20
2.794880
  0
VERTEX
  8
0
  6
CONTINUOUS
 10
2.121680
 20
2.427040
  0
VERTEX
  8
0
  6
CONTINUOUS
 10
2.147640
 20
2.442440
  0
SEQEND
  8
0
  0
SOLID
  8
0
 62
    15
 10
2.121680
 20
2.427040
 11
2.766720
 21
2.794880
 12
2.098360
 22
2.409000
 13
2.742960
 23
2.776840
  0
POLYLINE
  8
0
  6
CONTINUOUS
 66
     1
 40
0.000000
 41
0.000000
  0
VERTEX
  8
0
  6
CONTINUOUS
 10
2.121680
 20
2.427040
  0
VERTEX
  8
0
  6
CONTINUOUS
 10
2.766720
 20
2.794880
  0
VERTEX
  8
0
  6
CONTINUOUS
 10
2.742960
 20
2.776840
  0
VERTEX
  8
0
  6
CONTINUOUS
 10
2.098360
 20
2.409000
  0
VERTEX
  8
0
  6
CONTINUOUS
 10
2.121680
 20
2.427040
  0
SEQEND
  8
0
  0
SOLID
  8
0
 62
    15
 10
2.098360
 20
2.409000
 11
2.742960
 21
2.776840
 12
2.076800
 22
2.388320
 13
2.721840
 23
2.756160
  0
POLYLINE
  8
0
  6
CONTINUOUS
 66
     1
 40
0.000000
 41
0.000000
  0
VERTEX
  8
0
  6
CONTINUOUS
 10
2.098360
 20
2.409000
  0
VERTEX
  8
0
  6
CONTINUOUS
 10
2.742960
 20
2.776840
  0
VERTEX
  8
0
  6
CONTINUOUS
 10
2.721840
 20
2.756160
  0
VERTEX
  8
0
  6
CONTINUOUS
 10
2.076800
 20
2.388320
  0
VERTEX
  8
0
  6
CONTINUOUS
 10
2.098360
 20
2.409000
  0
SEQEND
  8
0
  0
SOLID
  8
0
 62
    15
 10
2.076800
 20
2.388320
 11
2.721840
 21
2.756160
 12
2.057880
 22
2.364120
 13
2.702920
 23
2.732400
  0
POLYLINE
  8
0
  6
CONTINUOUS
 66
     1
 40
0.000000
 41
0.000000
  0
VERTEX
  8
0
  6
CONTINUOUS
 10
2.076800
 20
2.388320
  0
VERTEX
  8
0
  6
CONTINUOUS
 10
2.721840
 20
2.756160
  0
VERTEX
  8
0
  6
CONTINUOUS
 10
2.702920
 20
2.732400
  0
VERTEX
  8
0
  6
CONTINUOUS
 10
2.057880
 20
2.364120
  0
VERTEX
  8
0
  6
CONTINUOUS
 10
2.076800
 20
2.388320
  0
SEQEND
  8
0
  0
SOLID
  8
0
 62
    15
 10
2.340360
 20
2.493040
 11
2.984960
 21
2.860880
 12
2.341680
 22
2.487760
 13
2.986280
 23
2.855600
  0
POLYLINE
  8
0
  6
CONTINUOUS
 66
     1
 40
0.000000
 41
0.000000
  0
VERTEX
  8
0
  6
CONTINUOUS
 10
2.340360
 20
2.493040
  0
VERTEX
  8
0
  6
CONTINUOUS
 10
2.984960
 20
2.860880
  0
VERTEX
  8
0
  6
CONTINUOUS
 10
2.986280
 20
2.855600
  0
VERTEX
  8
0
  6
CONTINUOUS
 10
2.341680
 20
2.487760
  0
VERTEX
  8
0
  6
CONTINUOUS
 10
2.340360
 20
2.493040
  0
SEQEND
  8
0
  0
SOLID
  8
0
 62
    15
 10
1.815000
 20
2.627680
 11
2.459600
 21
2.995960
 12
2.341680
 22
2.627680
 13
2.986280
 23
2.995960
  0
POLYLINE
  8
0
  6
CONTINUOUS
 66
     1
 40
0.000000
 41
0.000000
  0
VERTEX
  8
0
  6
CONTINUOUS
 10
1.815000
 20
2.627680
  0
VERTEX
  8
0
  6
CONTINUOUS
 10
2.459600
 20
2.995960
  0
VERTEX
  8
0
  6
CONTINUOUS
 10
2.986280
 20
2.995960
  0
VERTEX
  8
0
  6
CONTINUOUS
 10
2.341680
 20
2.627680
  0
VERTEX
  8
0
  6
CONTINUOUS
 10
1.815000
 20
2.627680
  0
SEQEND
  8
0
  0
SOLID
  8
0
 62
    15
 10
2.345640
 20
2.627240
 11
2.990680
 21
2.995080
 12
2.345640
 22
2.490840
 13
2.990680
 23
2.858680
  0
POLYLINE
  8
0
  6
CONTINUOUS
 66
     1
 40
0.000000
 41
0.000000
  0
VERTEX
  8
0
  6
CONTINUOUS
 10
2.345640
 20
2.627240
  0
VERTEX
  8
0
  6
CONTINUOUS
 10
2.990680
 20
2.995080
  0
VERTEX
  8
0
  6
CONTINUOUS
 10
2.990680
 20
2.858680
  0
VERTEX
  8
0
  6
CONTINUOUS
 10
2.345640
 20
2.490840
  0
VERTEX
  8
0
  6
CONTINUOUS
 10
2.345640
 20
2.627240
  0
SEQEND
  8
0
  0
SOLID
  8
0
 62
    15
 10
2.027960
 20
2.306480
 11
2.673000
 21
2.674760
 12
2.016960
 22
2.272600
 13
2.662000
 23
2.640440
  0
POLYLINE
  8
0
  6
CONTINUOUS
 66
     1
 40
0.000000
 41
0.000000
  0
VERTEX
  8
0
  6
CONTINUOUS
 10
2.027960
 20
2.306480
  0
VERTEX
  8
0
  6
CONTINUOUS
 10
2.673000
 20
2.674760
  0
VERTEX
  8
0
  6
CONTINUOUS
 10
2.662000
 20
2.640440
  0
VERTEX
  8
0
  6
CONTINUOUS
 10
2.016960
 20
2.272600
  0
VERTEX
  8
0
  6
CONTINUOUS
 10
2.027960
 20
2.306480
  0
SEQEND
  8
0
  0
SOLID
  8
0
 62
    15
 10
1.822920
 20
2.143680
 11
2.467520
 21
2.511520
 12
1.845360
 22
2.143680
 13
2.489960
 23
2.511960
  0
POLYLINE
  8
0
  6
CONTINUOUS
 66
     1
 40
0.000000
 41
0.000000
  0
VERTEX
  8
0
  6
CONTINUOUS
 10
1.822920
 20
2.143680
  0
VERTEX
  8
0
  6
CONTINUOUS
 10
2.467520
 20
2.511520
  0
VERTEX
  8
0
  6
CONTINUOUS
 10
2.489960
 20
2.511960
  0
VERTEX
  8
0
  6
CONTINUOUS
 10
1.845360
 20
2.143680
  0
VERTEX
  8
0
  6
CONTINUOUS
 10
1.822920
 20
2.143680
  0
SEQEND
  8
0
  0
SOLID
  8
0
 62
    15
 10
2.009480
 20
2.234320
 11
2.654080
 21
2.602600
 12
2.004640
 22
2.192520
 13
2.649240
 23
2.560360
  0
POLYLINE
  8
0
  6
CONTINUOUS
 66
     1
 40
0.000000
 41
0.000000
  0
VERTEX
  8
0
  6
CONTINUOUS
 10
2.009480
 20
2.234320
  0
VERTEX
  8
0
  6
CONTINUOUS
 10
2.654080
 20
2.602600
  0
VERTEX
  8
0
  6
CONTINUOUS
 10
2.649240
 20
2.560360
  0
VERTEX
  8
0
  6
CONTINUOUS
 10
2.004640
 20
2.192520
  0
VERTEX
  8
0
  6
CONTINUOUS
 10
2.009480
 20
2.234320
  0
SEQEND
  8
0
  0
SOLID
  8
0
 62
    15
 10
2.004640
 20
2.192520
 11
2.649240
 21
2.560360
 12
2.002880
 22
2.146320
 13
2.647480
 23
2.514600
  0
POLYLINE
  8
0
  6
CONTINUOUS
 66
     1
 40
0.000000
 41
0.000000
  0
VERTEX
  8
0
  6
CONTINUOUS
 10
2.004640
 20
2.192520
  0
VERTEX
  8
0
  6
CONTINUOUS
 10
2.649240
 20
2.560360
  0
VERTEX
  8
0
  6
CONTINUOUS
 10
2.647480
 20
2.514600
  0
VERTEX
  8
0
  6
CONTINUOUS
 10
2.002880
 20
2.146320
  0
VERTEX
  8
0
  6
CONTINUOUS
 10
2.004640
 20
2.192520
  0
SEQEND
  8
0
  0
SOLID
  8
0
 62
    15
 10
2.002880
 20
2.146320
 11
2.647480
 21
2.514600
 12
2.002880
 22
2.143680
 13
2.647480
 23
2.511520
  0
POLYLINE
  8
0
  6
CONTINUOUS
 66
     1
 40
0.000000
 41
0.000000
  0
VERTEX
  8
0
  6
CONTINUOUS
 10
2.002880
 20
2.146320
  0
VERTEX
  8
0
  6
CONTINUOUS
 10
2.647480
 20
2.514600
  0
VERTEX
  8
0
  6
CONTINUOUS
 10
2.647480
 20
2.511520
  0
VERTEX
  8
0
  6
CONTINUOUS
 10
2.002880
 20
2.143680
  0
VERTEX
  8
0
  6
CONTINUOUS
 10
2.002880
 20
2.146320
  0
SEQEND
  8
0
  0
SOLID
  8
0
 62
    15
 10
2.016960
 20
2.272600
 11
2.662000
 21
2.640440
 12
2.009480
 22
2.234320
 13
2.654080
 23
2.602600
  0
POLYLINE
  8
0
  6
CONTINUOUS
 66
     1
 40
0.000000
 41
0.000000
  0
VERTEX
  8
0
  6
CONTINUOUS
 10
2.016960
 20
2.272600
  0
VERTEX
  8
0
  6
CONTINUOUS
 10
2.662000
 20
2.640440
  0
VERTEX
  8
0
  6
CONTINUOUS
 10
2.654080
 20
2.602600
  0
VERTEX
  8
0
  6
CONTINUOUS
 10
2.009480
 20
2.234320
  0
VERTEX
  8
0
  6
CONTINUOUS
 10
2.016960
 20
2.272600
  0
SEQEND
  8
0
  0
POLYLINE
  8
0
  6
CONTINUOUS
 66
     1
 40
0.000000
 41
0.000000
  0
VERTEX
  8
0
  6
CONTINUOUS
 10
1.845360
 20
2.143680
  0
VERTEX
  8
0
  6
CONTINUOUS
 10
1.814120
 20
2.143680
  0
VERTEX
  8
0
  6
CONTINUOUS
 10
1.814120
 20
2.627240
  0
VERTEX
  8
0
  6
CONTINUOUS
 10
1.815000
 20
2.627680
  0
VERTEX
  8
0
  6
CONTINUOUS
 10
2.341680
 20
2.627680
  0
VERTEX
  8
0
  6
CONTINUOUS
 10
2.345640
 20
2.627240
  0
VERTEX
  8
0
  6
CONTINUOUS
 10
2.345640
 20
2.490840
  0
VERTEX
  8
0
  6
CONTINUOUS
 10
2.340360
 20
2.493040
  0
VERTEX
  8
0
  6
CONTINUOUS
 10
2.341680
 20
2.487760
  0
VERTEX
  8
0
  6
CONTINUOUS
 10
2.270400
 20
2.480280
  0
VERTEX
  8
0
  6
CONTINUOUS
 10
2.236960
 20
2.473680
  0
VERTEX
  8
0
  6
CONTINUOUS
 10
2.205280
 20
2.465320
  0
VERTEX
  8
0
  6
CONTINUOUS
 10
2.175360
 20
2.455200
  0
VERTEX
  8
0
  6
CONTINUOUS
 10
2.147640
 20
2.442440
  0
VERTEX
  8
0
  6
CONTINUOUS
 10
2.121680
 20
2.427040
  0
VERTEX
  8
0
  6
CONTINUOUS
 10
2.098360
 20
2.409000
  0
VERTEX
  8
0
  6
CONTINUOUS
 10
2.076800
 20
2.388320
  0
VERTEX
  8
0
  6
CONTINUOUS
 10
2.057880
 20
2.364120
  0
VERTEX
  8
0
  6
CONTINUOUS
 10
2.041600
 20
2.337280
  0
VERTEX
  8
0
  6
CONTINUOUS
 10
2.027960
 20
2.306480
  0
VERTEX
  8
0
  6
CONTINUOUS
 10
2.016960
 20
2.272600
  0
VERTEX
  8
0
  6
CONTINUOUS
 10
2.009480
 20
2.234320
  0
VERTEX
  8
0
  6
CONTINUOUS
 10
2.004640
 20
2.192520
  0
VERTEX
  8
0
  6
CONTINUOUS
 10
2.002880
 20
2.146320
  0
VERTEX
  8
0
  6
CONTINUOUS
 10
2.002880
 20
2.143680
  0
VERTEX
  8
0
  6
CONTINUOUS
 10
1.822920
 20
2.143680
  0
VERTEX
  8
0
  6
CONTINUOUS
 10
1.845360
 20
2.143680
  0
SEQEND
  8
0
  0
POLYLINE
  8
0
  6
CONTINUOUS
 66
     1
 40
0.014080
 41
0.014080
  0
VERTEX
  8
0
  6
CONTINUOUS
 10
3.915560
 20
2.483800
  0
VERTEX
  8
0
  6
CONTINUOUS
 10
3.915560
 20
2.663760
  0
VERTEX
  8
0
  6
CONTINUOUS
 10
3.912920
 20
2.663760
  0
VERTEX
  8
0
  6
CONTINUOUS
 10
3.889160
 20
2.664200
  0
VERTEX
  8
0
  6
CONTINUOUS
 10
3.866720
 20
2.665520
  0
VERTEX
  8
0
  6
CONTINUOUS
 10
3.845160
 20
2.667280
  0
VERTEX
  8
0
  6
CONTINUOUS
 10
3.824920
 20
2.670360
  0
VERTEX
  8
0
  6
CONTINUOUS
 10
3.805560
 20
2.673880
  0
VERTEX
  8
0
  6
CONTINUOUS
 10
3.787080
 20
2.678280
  0
VERTEX
  8
0
  6
CONTINUOUS
 10
3.769480
 20
2.683120
  0
VERTEX
  8
0
  6
CONTINUOUS
 10
3.752760
 20
2.688840
  0
VERTEX
  8
0
  6
CONTINUOUS
 10
3.736920
 20
2.695440
  0
VERTEX
  8
0
  6
CONTINUOUS
 10
3.721960
 20
2.702480
  0
VERTEX
  8
0
  6
CONTINUOUS
 10
3.708320
 20
2.710400
  0
VERTEX
  8
0
  6
CONTINUOUS
 10
3.695120
 20
2.718760
  0
VERTEX
  8
0
  6
CONTINUOUS
 10
3.682800
 20
2.728000
  0
VERTEX
  8
0
  6
CONTINUOUS
 10
3.670920
 20
2.737680
  0
VERTEX
  8
0
  6
CONTINUOUS
 10
3.660360
 20
2.748240
  0
VERTEX
  8
0
  6
CONTINUOUS
 10
3.650240
 20
2.759240
  0
VERTEX
  8
0
  6
CONTINUOUS
 10
3.641000
 20
2.770680
  0
VERTEX
  8
0
  6
CONTINUOUS
 10
3.632200
 20
2.782560
  0
VERTEX
  8
0
  6
CONTINUOUS
 10
3.624280
 20
2.795320
  0
VERTEX
  8
0
  6
CONTINUOUS
 10
3.617240
 20
2.808520
  0
VERTEX
  8
0
  6
CONTINUOUS
 10
3.610200
 20
2.822160
  0
VERTEX
  8
0
  6
CONTINUOUS
 10
3.604480
 20
2.836240
  0
VERTEX
  8
0
  6
CONTINUOUS
 10
3.598760
 20
2.851200
  0
VERTEX
  8
0
  6
CONTINUOUS
 10
3.593920
 20
2.866160
  0
VERTEX
  8
0
  6
CONTINUOUS
 10
3.589520
 20
2.882000
  0
VERTEX
  8
0
  6
CONTINUOUS
 10
3.585560
 20
2.897840
  0
VERTEX
  8
0
  6
CONTINUOUS
 10
3.578960
 20
2.931280
  0
VERTEX
  8
0
  6
CONTINUOUS
 10
3.574560
 20
2.966040
  0
VERTEX
  8
0
  6
CONTINUOUS
 10
3.571480
 20
3.002560
  0
VERTEX
  8
0
  6
CONTINUOUS
 10
3.566200
 20
3.001240
  0
VERTEX
  8
0
  6
CONTINUOUS
 10
3.568400
 20
3.006520
  0
VERTEX
  8
0
  6
CONTINUOUS
 10
3.432000
 20
3.006520
  0
VERTEX
  8
0
  6
CONTINUOUS
 10
3.431560
 20
3.002560
  0
VERTEX
  8
0
  6
CONTINUOUS
 10
3.431560
 20
2.475880
  0
VERTEX
  8
0
  6
CONTINUOUS
 10
3.432000
 20
2.475000
  0
VERTEX
  8
0
  6
CONTINUOUS
 10
3.915560
 20
2.475000
  0
VERTEX
  8
0
  6
CONTINUOUS
 10
3.915560
 20
2.506240
  0
VERTEX
  8
0
  6
CONTINUOUS
 10
3.915560
 20
2.483800
  0
SEQEND
  8
0
  0
TEXT
  8
0
 10
3.346200
 20
2.288440
 40
0.138146
  1
BA  144
 41
1.000000
  7
SN0
 71
     0
 72
     5
 11
3.936238
 21
2.288440
  0
TEXT
  8
0
 10
3.264360
 20
2.096600
 40
0.138146
  1
1/2" x 1/2"
 41
1.000000
  7
SN0
 71
     0
 72
     5
 11
4.017282
 21
2.096600
  0
ENDSEC
  0
EOF
