  0
SECTION
  2
HEADER
  9
$ACADVER
  1
AC1006
  9
$EXTMIN
 10
0.741840
 20
1.120680
  9
$EXTMAX
 10
4.972440
 20
4.228400
  9
$LTSCALE
 40
0.044000
  9
$PDMODE
 70
    35
  9
$PDSIZE
 40
0.035200
  0
ENDSEC
  0
SECTION
  2
TABLES
  0
TABLE
  2
LTYPE
 70
     9
  0
LTYPE
  2
CONTINUOUS
 70
    64
  3
Solid line
 72
    65
 73
     0
 40
0.000000
  0
LTYPE
  2
DASHED
 70
    64
  3
__ __ __ __ __ __ __ __ __ __ __ __ __ __ __
 72
    65
 73
     2
 40
0.000330
 49
0.000220
 49
-0.000110
  0
LTYPE
  2
HIDDEN
 70
    64
  3
 _ _ _ _ _ _ _ _ _ _ _ _ _ _ _ _ _ _ _ _ _ _
 72
    65
 73
     2
 40
0.000165
 49
0.000110
 49
-0.000055
  0
LTYPE
  2
CENTER
 70
    64
  3
____ _ ____ _ ____ _ ____ _ ____ _ ____ _ ____
 72
    65
 73
     4
 40
0.000880
 49
0.000550
 49
-0.000110
 49
0.000110
 49
-0.000110
  0
LTYPE
  2
PHANTOM
 70
    64
  3
_____ _ _ _____ _ _ _____ _ _ _____ _ _ ____
 72
    65
 73
     6
 40
0.001100
 49
0.000550
 49
-0.000110
 49
0.000110
 49
-0.000110
 49
0.000110
 49
-0.000110
  0
LTYPE
  2
DOT
 70
    64
  3
...............................................
 72
    65
 73
     2
 40
0.000110
 49
0.000000
 49
-0.000110
  0
LTYPE
  2
DASHDOT
 70
    64
  3
__ . __ . __ . __ . __ . __ . __ . __ . __ . __
 72
    65
 73
     4
 40
0.000440
 49
0.000220
 49
-0.000110
 49
0.000000
 49
-0.000110
  0
LTYPE
  2
BORDER
 70
    64
  3
__ __ . __ __ . __ __ . __ __ . __ __ . __ __
 72
    65
 73
     6
 40
0.000770
 49
0.000220
 49
-0.000110
 49
0.000220
 49
-0.000110
 49
0.000000
 49
-0.000110
  0
LTYPE
  2
DIVIDE
 70
    64
  3
__ . . __ . . __ . . __ . . __ . . __ . . __
 72
    65
 73
     6
 40
0.000550
 49
0.000220
 49
-0.000110
 49
0.000000
 49
-0.000110
 49
0.000000
 49
-0.000110
  0
LTYPE
  2
DOTDOT
 70
    64
  3
 . .  . .  . .  . .  . .  . . 
 72
    65
 73
     5
 40
0.000242
 49
-0.000110
 49
0.000000
 49
-0.000110
 49
0.000000
 49
-0.000110
  0
ENDTAB
  0
TABLE
  2
STYLE
 70
     2
  0
STYLE
 70
     0
  2
SN0
 40
0.000000
 41
0.000440
 50
0.000000
 71
     0
 42
0.000000
  3
ROMAND
  0
STYLE
 70
    68
  2
SV0
 40
0.000000
 41
0.000440
 50
0.000000
 71
     0
 42
0.000000
  3
ROMAND
  0
ENDTAB
  0
TABLE
  2
LAYER
 70
     3
  0
LAYER
  2
FOREGROUND
 70
    64
 62
     7
  6
CONTINUOUS
  0
LAYER
  2
BACKGROUND
 70
    65
 62
    -7
  6
CONTINUOUS
  0
LAYER
  2
0
 70
    64
 62
     7
  6
CONTINUOUS
  0
ENDTAB
  0
ENDSEC
  0
SECTION
  2
ENTITIES
  0
POLYLINE
  8
FOREGROUND
  6
CONTINUOUS
 66
     1
 40
0.000000
 41
0.000000
  0
VERTEX
  8
FOREGROUND
  6
CONTINUOUS
 10
0.000000
 20
5.349080
  0
VERTEX
  8
FOREGROUND
  6
CONTINUOUS
 10
8.499920
 20
5.349080
  0
VERTEX
  8
FOREGROUND
  6
CONTINUOUS
 10
8.499920
 20
-5.650920
  0
VERTEX
  8
FOREGROUND
  6
CONTINUOUS
 10
0.000000
 20
-5.650920
  0
VERTEX
  8
FOREGROUND
  6
CONTINUOUS
 10
0.000000
 20
5.349080
  0
SEQEND
  8
0
  0
POLYLINE
  8
FOREGROUND
  6
CONTINUOUS
 66
     1
 40
0.000000
 41
0.000000
  0
VERTEX
  8
FOREGROUND
  6
CONTINUOUS
 10
0.000000
 20
5.349080
  0
VERTEX
  8
FOREGROUND
  6
CONTINUOUS
 10
8.499920
 20
5.349080
  0
VERTEX
  8
FOREGROUND
  6
CONTINUOUS
 10
8.499920
 20
-5.650920
  0
VERTEX
  8
FOREGROUND
  6
CONTINUOUS
 10
0.000000
 20
-5.650920
  0
VERTEX
  8
FOREGROUND
  6
CONTINUOUS
 10
0.000000
 20
5.349080
  0
SEQEND
  8
0
  0
POLYLINE
  8
0
  6
CONTINUOUS
 66
     1
 40
0.014080
 41
0.014080
  0
VERTEX
  8
0
  6
CONTINUOUS
 10
4.218280
 20
1.933800
  0
VERTEX
  8
0
  6
CONTINUOUS
 10
4.230600
 20
1.933800
  0
VERTEX
  8
0
  6
CONTINUOUS
 10
4.230600
 20
2.320560
  0
VERTEX
  8
0
  6
CONTINUOUS
 10
4.229280
 20
2.321880
  0
VERTEX
  8
0
  6
CONTINUOUS
 10
4.096400
 20
2.350480
  0
VERTEX
  8
0
  6
CONTINUOUS
 10
4.048880
 20
2.361920
  0
VERTEX
  8
0
  6
CONTINUOUS
 10
3.976280
 20
2.383040
  0
VERTEX
  8
0
  6
CONTINUOUS
 10
3.928320
 20
2.400200
  0
VERTEX
  8
0
  6
CONTINUOUS
 10
3.882120
 20
2.420440
  0
VERTEX
  8
0
  6
CONTINUOUS
 10
3.837680
 20
2.445080
  0
VERTEX
  8
0
  6
CONTINUOUS
 10
3.816120
 20
2.458720
  0
VERTEX
  8
0
  6
CONTINUOUS
 10
3.776520
 20
2.489520
  0
VERTEX
  8
0
  6
CONTINUOUS
 10
3.740440
 20
2.526040
  0
VERTEX
  8
0
  6
CONTINUOUS
 10
3.724160
 20
2.546280
  0
VERTEX
  8
0
  6
CONTINUOUS
 10
3.709200
 20
2.567840
  0
VERTEX
  8
0
  6
CONTINUOUS
 10
3.695560
 20
2.591160
  0
VERTEX
  8
0
  6
CONTINUOUS
 10
3.683240
 20
2.616240
  0
VERTEX
  8
0
  6
CONTINUOUS
 10
3.672680
 20
2.643080
  0
VERTEX
  8
0
  6
CONTINUOUS
 10
3.659920
 20
2.686200
  0
VERTEX
  8
0
  6
CONTINUOUS
 10
3.651120
 20
2.734160
  0
VERTEX
  8
0
  6
CONTINUOUS
 10
3.646720
 20
2.786080
  0
VERTEX
  8
0
  6
CONTINUOUS
 10
3.646280
 20
2.804560
  0
VERTEX
  8
0
  6
CONTINUOUS
 10
3.649360
 20
2.840200
  0
VERTEX
  8
0
  6
CONTINUOUS
 10
3.656400
 20
2.875840
  0
VERTEX
  8
0
  6
CONTINUOUS
 10
3.667400
 20
2.910600
  0
VERTEX
  8
0
  6
CONTINUOUS
 10
3.682800
 20
2.944920
  0
VERTEX
  8
0
  6
CONTINUOUS
 10
3.702160
 20
2.978800
  0
VERTEX
  8
0
  6
CONTINUOUS
 10
3.725920
 20
3.011800
  0
VERTEX
  8
0
  6
CONTINUOUS
 10
3.754080
 20
3.043920
  0
VERTEX
  8
0
  6
CONTINUOUS
 10
3.786640
 20
3.075160
  0
VERTEX
  8
0
  6
CONTINUOUS
 10
3.824480
 20
3.105960
  0
VERTEX
  8
0
  6
CONTINUOUS
 10
3.866720
 20
3.135440
  0
VERTEX
  8
0
  6
CONTINUOUS
 10
3.939320
 20
3.177680
  0
VERTEX
  8
0
  6
CONTINUOUS
 10
3.994320
 20
3.204520
  0
VERTEX
  8
0
  6
CONTINUOUS
 10
4.086720
 20
3.242360
  0
VERTEX
  8
0
  6
CONTINUOUS
 10
4.155360
 20
3.266120
  0
VERTEX
  8
0
  6
CONTINUOUS
 10
4.229280
 20
3.288560
  0
VERTEX
  8
0
  6
CONTINUOUS
 10
4.295280
 20
3.315840
  0
VERTEX
  8
0
  6
CONTINUOUS
 10
4.525840
 20
3.398120
  0
VERTEX
  8
0
  6
CONTINUOUS
 10
4.588320
 20
3.423640
  0
VERTEX
  8
0
  6
CONTINUOUS
 10
4.648600
 20
3.453120
  0
VERTEX
  8
0
  6
CONTINUOUS
 10
4.705360
 20
3.487440
  0
VERTEX
  8
0
  6
CONTINUOUS
 10
4.732200
 20
3.506800
  0
VERTEX
  8
0
  6
CONTINUOUS
 10
4.758160
 20
3.528360
  0
VERTEX
  8
0
  6
CONTINUOUS
 10
4.795120
 20
3.564440
  0
VERTEX
  8
0
  6
CONTINUOUS
 10
4.829000
 20
3.604920
  0
VERTEX
  8
0
  6
CONTINUOUS
 10
4.859800
 20
3.651560
  0
VERTEX
  8
0
  6
CONTINUOUS
 10
4.887080
 20
3.704360
  0
VERTEX
  8
0
  6
CONTINUOUS
 10
4.910840
 20
3.764200
  0
VERTEX
  8
0
  6
CONTINUOUS
 10
4.930640
 20
3.831520
  0
VERTEX
  8
0
  6
CONTINUOUS
 10
4.946480
 20
3.906760
  0
VERTEX
  8
0
  6
CONTINUOUS
 10
4.957480
 20
3.990800
  0
VERTEX
  8
0
  6
CONTINUOUS
 10
4.962320
 20
4.051960
  0
VERTEX
  8
0
  6
CONTINUOUS
 10
4.964960
 20
4.151840
  0
VERTEX
  8
0
  6
CONTINUOUS
 10
4.964960
 20
4.187480
  0
VERTEX
  8
0
  6
CONTINUOUS
 10
3.361160
 20
4.187480
  0
VERTEX
  8
0
  6
CONTINUOUS
 10
3.361160
 20
1.933800
  0
VERTEX
  8
0
  6
CONTINUOUS
 10
4.227960
 20
1.933800
  0
VERTEX
  8
0
  6
CONTINUOUS
 10
4.218280
 20
1.933800
  0
SEQEND
  8
0
  0
SOLID
  8
0
 62
    15
 10
1.347720
 20
3.231800
 11
1.998920
 21
2.861320
 12
1.468280
 22
3.282840
 13
2.119480
 23
2.912800
  0
POLYLINE
  8
0
  6
CONTINUOUS
 66
     1
 40
0.000000
 41
0.000000
  0
VERTEX
  8
0
  6
CONTINUOUS
 10
1.347720
 20
3.231800
  0
VERTEX
  8
0
  6
CONTINUOUS
 10
1.998920
 20
2.861320
  0
VERTEX
  8
0
  6
CONTINUOUS
 10
2.119480
 20
2.912800
  0
VERTEX
  8
0
  6
CONTINUOUS
 10
1.468280
 20
3.282840
  0
VERTEX
  8
0
  6
CONTINUOUS
 10
1.347720
 20
3.231800
  0
SEQEND
  8
0
  0
SOLID
  8
0
 62
    15
 10
1.240800
 20
2.472800
 11
1.891560
 21
2.102760
 12
1.157640
 22
2.530440
 13
1.808840
 23
2.159960
  0
POLYLINE
  8
0
  6
CONTINUOUS
 66
     1
 40
0.000000
 41
0.000000
  0
VERTEX
  8
0
  6
CONTINUOUS
 10
1.240800
 20
2.472800
  0
VERTEX
  8
0
  6
CONTINUOUS
 10
1.891560
 20
2.102760
  0
VERTEX
  8
0
  6
CONTINUOUS
 10
1.808840
 20
2.159960
  0
VERTEX
  8
0
  6
CONTINUOUS
 10
1.157640
 20
2.530440
  0
VERTEX
  8
0
  6
CONTINUOUS
 10
1.240800
 20
2.472800
  0
SEQEND
  8
0
  0
SOLID
  8
0
 62
    15
 10
1.064800
 20
2.656720
 11
1.716000
 21
2.286680
 12
1.045440
 22
2.712160
 13
1.696200
 23
2.341680
  0
POLYLINE
  8
0
  6
CONTINUOUS
 66
     1
 40
0.000000
 41
0.000000
  0
VERTEX
  8
0
  6
CONTINUOUS
 10
1.064800
 20
2.656720
  0
VERTEX
  8
0
  6
CONTINUOUS
 10
1.716000
 20
2.286680
  0
VERTEX
  8
0
  6
CONTINUOUS
 10
1.696200
 20
2.341680
  0
VERTEX
  8
0
  6
CONTINUOUS
 10
1.045440
 20
2.712160
  0
VERTEX
  8
0
  6
CONTINUOUS
 10
1.064800
 20
2.656720
  0
SEQEND
  8
0
  0
SOLID
  8
0
 62
    15
 10
1.157640
 20
2.530440
 11
1.808840
 21
2.159960
 12
1.090760
 22
2.608760
 13
1.741520
 23
2.238280
  0
POLYLINE
  8
0
  6
CONTINUOUS
 66
     1
 40
0.000000
 41
0.000000
  0
VERTEX
  8
0
  6
CONTINUOUS
 10
1.157640
 20
2.530440
  0
VERTEX
  8
0
  6
CONTINUOUS
 10
1.808840
 20
2.159960
  0
VERTEX
  8
0
  6
CONTINUOUS
 10
1.741520
 20
2.238280
  0
VERTEX
  8
0
  6
CONTINUOUS
 10
1.090760
 20
2.608760
  0
VERTEX
  8
0
  6
CONTINUOUS
 10
1.157640
 20
2.530440
  0
SEQEND
  8
0
  0
SOLID
  8
0
 62
    15
 10
1.090760
 20
2.608760
 11
1.741520
 21
2.238280
 12
1.064800
 22
2.656720
 13
1.716000
 23
2.286680
  0
POLYLINE
  8
0
  6
CONTINUOUS
 66
     1
 40
0.000000
 41
0.000000
  0
VERTEX
  8
0
  6
CONTINUOUS
 10
1.090760
 20
2.608760
  0
VERTEX
  8
0
  6
CONTINUOUS
 10
1.741520
 20
2.238280
  0
VERTEX
  8
0
  6
CONTINUOUS
 10
1.716000
 20
2.286680
  0
VERTEX
  8
0
  6
CONTINUOUS
 10
1.064800
 20
2.656720
  0
VERTEX
  8
0
  6
CONTINUOUS
 10
1.090760
 20
2.608760
  0
SEQEND
  8
0
  0
SOLID
  8
0
 62
    15
 10
1.611720
 20
1.974720
 11
2.262920
 21
1.604240
 12
1.611720
 22
2.361040
 13
2.262920
 23
1.991000
  0
POLYLINE
  8
0
  6
CONTINUOUS
 66
     1
 40
0.000000
 41
0.000000
  0
VERTEX
  8
0
  6
CONTINUOUS
 10
1.611720
 20
1.974720
  0
VERTEX
  8
0
  6
CONTINUOUS
 10
2.262920
 20
1.604240
  0
VERTEX
  8
0
  6
CONTINUOUS
 10
2.262920
 20
1.991000
  0
VERTEX
  8
0
  6
CONTINUOUS
 10
1.611720
 20
2.361040
  0
VERTEX
  8
0
  6
CONTINUOUS
 10
1.611720
 20
1.974720
  0
SEQEND
  8
0
  0
SOLID
  8
0
 62
    15
 10
1.611720
 20
2.361040
 11
2.262920
 21
1.991000
 12
1.610840
 22
2.362800
 13
2.261600
 23
1.992320
  0
POLYLINE
  8
0
  6
CONTINUOUS
 66
     1
 40
0.000000
 41
0.000000
  0
VERTEX
  8
0
  6
CONTINUOUS
 10
1.611720
 20
2.361040
  0
VERTEX
  8
0
  6
CONTINUOUS
 10
2.262920
 20
1.991000
  0
VERTEX
  8
0
  6
CONTINUOUS
 10
2.261600
 20
1.992320
  0
VERTEX
  8
0
  6
CONTINUOUS
 10
1.610840
 20
2.362800
  0
VERTEX
  8
0
  6
CONTINUOUS
 10
1.611720
 20
2.361040
  0
SEQEND
  8
0
  0
SOLID
  8
0
 62
    15
 10
1.045440
 20
2.712160
 11
1.696200
 21
2.341680
 12
1.032680
 22
2.774640
 13
1.683880
 23
2.404600
  0
POLYLINE
  8
0
  6
CONTINUOUS
 66
     1
 40
0.000000
 41
0.000000
  0
VERTEX
  8
0
  6
CONTINUOUS
 10
1.045440
 20
2.712160
  0
VERTEX
  8
0
  6
CONTINUOUS
 10
1.696200
 20
2.341680
  0
VERTEX
  8
0
  6
CONTINUOUS
 10
1.683880
 20
2.404600
  0
VERTEX
  8
0
  6
CONTINUOUS
 10
1.032680
 20
2.774640
  0
VERTEX
  8
0
  6
CONTINUOUS
 10
1.045440
 20
2.712160
  0
SEQEND
  8
0
  0
SOLID
  8
0
 62
    15
 10
1.032680
 20
2.774640
 11
1.683880
 21
2.404600
 12
1.027840
 22
2.845480
 13
1.679040
 23
2.475000
  0
POLYLINE
  8
0
  6
CONTINUOUS
 66
     1
 40
0.000000
 41
0.000000
  0
VERTEX
  8
0
  6
CONTINUOUS
 10
1.032680
 20
2.774640
  0
VERTEX
  8
0
  6
CONTINUOUS
 10
1.683880
 20
2.404600
  0
VERTEX
  8
0
  6
CONTINUOUS
 10
1.679040
 20
2.475000
  0
VERTEX
  8
0
  6
CONTINUOUS
 10
1.027840
 20
2.845480
  0
VERTEX
  8
0
  6
CONTINUOUS
 10
1.032680
 20
2.774640
  0
SEQEND
  8
0
  0
SOLID
  8
0
 62
    15
 10
1.027840
 20
2.845480
 11
1.679040
 21
2.475000
 12
1.037960
 22
2.916320
 13
1.689160
 23
2.546280
  0
POLYLINE
  8
0
  6
CONTINUOUS
 66
     1
 40
0.000000
 41
0.000000
  0
VERTEX
  8
0
  6
CONTINUOUS
 10
1.027840
 20
2.845480
  0
VERTEX
  8
0
  6
CONTINUOUS
 10
1.679040
 20
2.475000
  0
VERTEX
  8
0
  6
CONTINUOUS
 10
1.689160
 20
2.546280
  0
VERTEX
  8
0
  6
CONTINUOUS
 10
1.037960
 20
2.916320
  0
VERTEX
  8
0
  6
CONTINUOUS
 10
1.027840
 20
2.845480
  0
SEQEND
  8
0
  0
SOLID
  8
0
 62
     7
 10
1.037960
 20
2.916320
 11
1.689160
 21
2.546280
 12
1.064360
 22
2.985400
 13
1.715120
 23
2.615360
  0
POLYLINE
  8
0
  6
CONTINUOUS
 66
     1
 40
0.000000
 41
0.000000
  0
VERTEX
  8
0
  6
CONTINUOUS
 10
1.037960
 20
2.916320
  0
VERTEX
  8
0
  6
CONTINUOUS
 10
1.689160
 20
2.546280
  0
VERTEX
  8
0
  6
CONTINUOUS
 10
1.715120
 20
2.615360
  0
VERTEX
  8
0
  6
CONTINUOUS
 10
1.064360
 20
2.985400
  0
VERTEX
  8
0
  6
CONTINUOUS
 10
1.037960
 20
2.916320
  0
SEQEND
  8
0
  0
SOLID
  8
0
 62
     7
 10
1.064360
 20
2.985400
 11
1.715120
 21
2.615360
 12
1.107480
 22
3.052280
 13
1.758240
 23
2.681800
  0
POLYLINE
  8
0
  6
CONTINUOUS
 66
     1
 40
0.000000
 41
0.000000
  0
VERTEX
  8
0
  6
CONTINUOUS
 10
1.064360
 20
2.985400
  0
VERTEX
  8
0
  6
CONTINUOUS
 10
1.715120
 20
2.615360
  0
VERTEX
  8
0
  6
CONTINUOUS
 10
1.758240
 20
2.681800
  0
VERTEX
  8
0
  6
CONTINUOUS
 10
1.107480
 20
3.052280
  0
VERTEX
  8
0
  6
CONTINUOUS
 10
1.064360
 20
2.985400
  0
SEQEND
  8
0
  0
SOLID
  8
0
 62
    15
 10
1.107480
 20
3.052280
 11
1.758240
 21
2.681800
 12
1.168200
 22
3.115640
 13
1.819400
 23
2.745600
  0
POLYLINE
  8
0
  6
CONTINUOUS
 66
     1
 40
0.000000
 41
0.000000
  0
VERTEX
  8
0
  6
CONTINUOUS
 10
1.107480
 20
3.052280
  0
VERTEX
  8
0
  6
CONTINUOUS
 10
1.758240
 20
2.681800
  0
VERTEX
  8
0
  6
CONTINUOUS
 10
1.819400
 20
2.745600
  0
VERTEX
  8
0
  6
CONTINUOUS
 10
1.168200
 20
3.115640
  0
VERTEX
  8
0
  6
CONTINUOUS
 10
1.107480
 20
3.052280
  0
SEQEND
  8
0
  0
SOLID
  8
0
 62
    15
 10
1.168200
 20
3.115640
 11
1.819400
 21
2.745600
 12
1.248280
 22
3.175920
 13
1.899040
 23
2.805440
  0
POLYLINE
  8
0
  6
CONTINUOUS
 66
     1
 40
0.000000
 41
0.000000
  0
VERTEX
  8
0
  6
CONTINUOUS
 10
1.168200
 20
3.115640
  0
VERTEX
  8
0
  6
CONTINUOUS
 10
1.819400
 20
2.745600
  0
VERTEX
  8
0
  6
CONTINUOUS
 10
1.899040
 20
2.805440
  0
VERTEX
  8
0
  6
CONTINUOUS
 10
1.248280
 20
3.175920
  0
VERTEX
  8
0
  6
CONTINUOUS
 10
1.168200
 20
3.115640
  0
SEQEND
  8
0
  0
SOLID
  8
0
 62
    15
 10
1.248280
 20
3.175920
 11
1.899040
 21
2.805440
 12
1.347720
 22
3.231800
 13
1.998920
 23
2.861320
  0
POLYLINE
  8
0
  6
CONTINUOUS
 66
     1
 40
0.000000
 41
0.000000
  0
VERTEX
  8
0
  6
CONTINUOUS
 10
1.248280
 20
3.175920
  0
VERTEX
  8
0
  6
CONTINUOUS
 10
1.899040
 20
2.805440
  0
VERTEX
  8
0
  6
CONTINUOUS
 10
1.998920
 20
2.861320
  0
VERTEX
  8
0
  6
CONTINUOUS
 10
1.347720
 20
3.231800
  0
VERTEX
  8
0
  6
CONTINUOUS
 10
1.248280
 20
3.175920
  0
SEQEND
  8
0
  0
SOLID
  8
0
 62
    15
 10
1.599840
 20
1.974720
 11
2.251040
 21
1.604240
 12
1.611720
 22
1.974720
 13
2.262920
 23
1.604240
  0
POLYLINE
  8
0
  6
CONTINUOUS
 66
     1
 40
0.000000
 41
0.000000
  0
VERTEX
  8
0
  6
CONTINUOUS
 10
1.599840
 20
1.974720
  0
VERTEX
  8
0
  6
CONTINUOUS
 10
2.251040
 20
1.604240
  0
VERTEX
  8
0
  6
CONTINUOUS
 10
2.262920
 20
1.604240
  0
VERTEX
  8
0
  6
CONTINUOUS
 10
1.611720
 20
1.974720
  0
VERTEX
  8
0
  6
CONTINUOUS
 10
1.599840
 20
1.974720
  0
SEQEND
  8
0
  0
SOLID
  8
0
 62
    15
 10
1.468280
 20
3.282840
 11
2.119480
 21
2.912800
 12
1.610840
 22
3.329040
 13
2.261600
 23
2.959000
  0
POLYLINE
  8
0
  6
CONTINUOUS
 66
     1
 40
0.000000
 41
0.000000
  0
VERTEX
  8
0
  6
CONTINUOUS
 10
1.468280
 20
3.282840
  0
VERTEX
  8
0
  6
CONTINUOUS
 10
2.119480
 20
2.912800
  0
VERTEX
  8
0
  6
CONTINUOUS
 10
2.261600
 20
2.959000
  0
VERTEX
  8
0
  6
CONTINUOUS
 10
1.610840
 20
3.329040
  0
VERTEX
  8
0
  6
CONTINUOUS
 10
1.468280
 20
3.282840
  0
SEQEND
  8
0
  0
SOLID
  8
0
 62
    15
 10
1.610840
 20
3.329040
 11
2.261600
 21
2.959000
 12
1.743280
 22
3.380520
 13
2.394480
 23
3.010480
  0
POLYLINE
  8
0
  6
CONTINUOUS
 66
     1
 40
0.000000
 41
0.000000
  0
VERTEX
  8
0
  6
CONTINUOUS
 10
1.610840
 20
3.329040
  0
VERTEX
  8
0
  6
CONTINUOUS
 10
2.261600
 20
2.959000
  0
VERTEX
  8
0
  6
CONTINUOUS
 10
2.394480
 20
3.010480
  0
VERTEX
  8
0
  6
CONTINUOUS
 10
1.743280
 20
3.380520
  0
VERTEX
  8
0
  6
CONTINUOUS
 10
1.610840
 20
3.329040
  0
SEQEND
  8
0
  0
SOLID
  8
0
 62
    15
 10
1.743280
 20
3.380520
 11
2.394480
 21
3.010480
 12
1.809720
 22
3.403400
 13
2.460480
 23
3.033360
  0
POLYLINE
  8
0
  6
CONTINUOUS
 66
     1
 40
0.000000
 41
0.000000
  0
VERTEX
  8
0
  6
CONTINUOUS
 10
1.743280
 20
3.380520
  0
VERTEX
  8
0
  6
CONTINUOUS
 10
2.394480
 20
3.010480
  0
VERTEX
  8
0
  6
CONTINUOUS
 10
2.460480
 20
3.033360
  0
VERTEX
  8
0
  6
CONTINUOUS
 10
1.809720
 20
3.403400
  0
VERTEX
  8
0
  6
CONTINUOUS
 10
1.743280
 20
3.380520
  0
SEQEND
  8
0
  0
SOLID
  8
0
 62
    15
 10
1.809720
 20
3.403400
 11
2.460480
 21
3.033360
 12
1.874840
 22
3.426720
 13
2.526040
 23
3.056240
  0
POLYLINE
  8
0
  6
CONTINUOUS
 66
     1
 40
0.000000
 41
0.000000
  0
VERTEX
  8
0
  6
CONTINUOUS
 10
1.809720
 20
3.403400
  0
VERTEX
  8
0
  6
CONTINUOUS
 10
2.460480
 20
3.033360
  0
VERTEX
  8
0
  6
CONTINUOUS
 10
2.526040
 20
3.056240
  0
VERTEX
  8
0
  6
CONTINUOUS
 10
1.874840
 20
3.426720
  0
VERTEX
  8
0
  6
CONTINUOUS
 10
1.809720
 20
3.403400
  0
SEQEND
  8
0
  0
SOLID
  8
0
 62
    15
 10
1.874840
 20
3.426720
 11
2.526040
 21
3.056240
 12
2.000240
 22
3.478200
 13
2.651000
 23
3.108160
  0
POLYLINE
  8
0
  6
CONTINUOUS
 66
     1
 40
0.000000
 41
0.000000
  0
VERTEX
  8
0
  6
CONTINUOUS
 10
1.874840
 20
3.426720
  0
VERTEX
  8
0
  6
CONTINUOUS
 10
2.526040
 20
3.056240
  0
VERTEX
  8
0
  6
CONTINUOUS
 10
2.651000
 20
3.108160
  0
VERTEX
  8
0
  6
CONTINUOUS
 10
2.000240
 20
3.478200
  0
VERTEX
  8
0
  6
CONTINUOUS
 10
1.874840
 20
3.426720
  0
SEQEND
  8
0
  0
SOLID
  8
0
 62
    15
 10
2.000240
 20
3.478200
 11
2.651000
 21
3.108160
 12
2.113760
 22
3.547720
 13
2.764520
 23
3.177240
  0
POLYLINE
  8
0
  6
CONTINUOUS
 66
     1
 40
0.000000
 41
0.000000
  0
VERTEX
  8
0
  6
CONTINUOUS
 10
2.000240
 20
3.478200
  0
VERTEX
  8
0
  6
CONTINUOUS
 10
2.651000
 20
3.108160
  0
VERTEX
  8
0
  6
CONTINUOUS
 10
2.764520
 20
3.177240
  0
VERTEX
  8
0
  6
CONTINUOUS
 10
2.113760
 20
3.547720
  0
VERTEX
  8
0
  6
CONTINUOUS
 10
2.000240
 20
3.478200
  0
SEQEND
  8
0
  0
SOLID
  8
0
 62
    15
 10
2.113760
 20
3.547720
 11
2.764520
 21
3.177240
 12
2.164360
 22
3.592160
 13
2.815560
 23
3.222120
  0
POLYLINE
  8
0
  6
CONTINUOUS
 66
     1
 40
0.000000
 41
0.000000
  0
VERTEX
  8
0
  6
CONTINUOUS
 10
2.113760
 20
3.547720
  0
VERTEX
  8
0
  6
CONTINUOUS
 10
2.764520
 20
3.177240
  0
VERTEX
  8
0
  6
CONTINUOUS
 10
2.815560
 20
3.222120
  0
VERTEX
  8
0
  6
CONTINUOUS
 10
2.164360
 20
3.592160
  0
VERTEX
  8
0
  6
CONTINUOUS
 10
2.113760
 20
3.547720
  0
SEQEND
  8
0
  0
SOLID
  8
0
 62
    15
 10
2.164360
 20
3.592160
 11
2.815560
 21
3.222120
 12
2.210120
 22
3.645840
 13
2.861320
 23
3.275360
  0
POLYLINE
  8
0
  6
CONTINUOUS
 66
     1
 40
0.000000
 41
0.000000
  0
VERTEX
  8
0
  6
CONTINUOUS
 10
2.164360
 20
3.592160
  0
VERTEX
  8
0
  6
CONTINUOUS
 10
2.815560
 20
3.222120
  0
VERTEX
  8
0
  6
CONTINUOUS
 10
2.861320
 20
3.275360
  0
VERTEX
  8
0
  6
CONTINUOUS
 10
2.210120
 20
3.645840
  0
VERTEX
  8
0
  6
CONTINUOUS
 10
2.164360
 20
3.592160
  0
SEQEND
  8
0
  0
SOLID
  8
0
 62
    15
 10
2.210120
 20
3.645840
 11
2.861320
 21
3.275360
 12
2.250600
 22
3.709200
 13
2.901800
 23
3.338720
  0
POLYLINE
  8
0
  6
CONTINUOUS
 66
     1
 40
0.000000
 41
0.000000
  0
VERTEX
  8
0
  6
CONTINUOUS
 10
2.210120
 20
3.645840
  0
VERTEX
  8
0
  6
CONTINUOUS
 10
2.861320
 20
3.275360
  0
VERTEX
  8
0
  6
CONTINUOUS
 10
2.901800
 20
3.338720
  0
VERTEX
  8
0
  6
CONTINUOUS
 10
2.250600
 20
3.709200
  0
VERTEX
  8
0
  6
CONTINUOUS
 10
2.210120
 20
3.645840
  0
SEQEND
  8
0
  0
SOLID
  8
0
 62
    15
 10
2.250600
 20
3.709200
 11
2.901800
 21
3.338720
 12
2.284920
 22
3.784000
 13
2.935680
 23
3.413960
  0
POLYLINE
  8
0
  6
CONTINUOUS
 66
     1
 40
0.000000
 41
0.000000
  0
VERTEX
  8
0
  6
CONTINUOUS
 10
2.250600
 20
3.709200
  0
VERTEX
  8
0
  6
CONTINUOUS
 10
2.901800
 20
3.338720
  0
VERTEX
  8
0
  6
CONTINUOUS
 10
2.935680
 20
3.413960
  0
VERTEX
  8
0
  6
CONTINUOUS
 10
2.284920
 20
3.784000
  0
VERTEX
  8
0
  6
CONTINUOUS
 10
2.250600
 20
3.709200
  0
SEQEND
  8
0
  0
SOLID
  8
0
 62
    15
 10
2.284920
 20
3.784000
 11
2.935680
 21
3.413960
 12
2.312200
 22
3.872000
 13
2.963400
 23
3.501960
  0
POLYLINE
  8
0
  6
CONTINUOUS
 66
     1
 40
0.000000
 41
0.000000
  0
VERTEX
  8
0
  6
CONTINUOUS
 10
2.284920
 20
3.784000
  0
VERTEX
  8
0
  6
CONTINUOUS
 10
2.935680
 20
3.413960
  0
VERTEX
  8
0
  6
CONTINUOUS
 10
2.963400
 20
3.501960
  0
VERTEX
  8
0
  6
CONTINUOUS
 10
2.312200
 20
3.872000
  0
VERTEX
  8
0
  6
CONTINUOUS
 10
2.284920
 20
3.784000
  0
SEQEND
  8
0
  0
SOLID
  8
0
 62
    15
 10
2.312200
 20
3.872000
 11
2.963400
 21
3.501960
 12
2.332000
 22
3.974520
 13
2.983200
 23
3.604040
  0
POLYLINE
  8
0
  6
CONTINUOUS
 66
     1
 40
0.000000
 41
0.000000
  0
VERTEX
  8
0
  6
CONTINUOUS
 10
2.312200
 20
3.872000
  0
VERTEX
  8
0
  6
CONTINUOUS
 10
2.963400
 20
3.501960
  0
VERTEX
  8
0
  6
CONTINUOUS
 10
2.983200
 20
3.604040
  0
VERTEX
  8
0
  6
CONTINUOUS
 10
2.332000
 20
3.974520
  0
VERTEX
  8
0
  6
CONTINUOUS
 10
2.312200
 20
3.872000
  0
SEQEND
  8
0
  0
SOLID
  8
0
 62
    15
 10
2.332000
 20
3.974520
 11
2.983200
 21
3.604040
 12
2.343880
 22
4.092440
 13
2.994640
 23
3.722400
  0
POLYLINE
  8
0
  6
CONTINUOUS
 66
     1
 40
0.000000
 41
0.000000
  0
VERTEX
  8
0
  6
CONTINUOUS
 10
2.332000
 20
3.974520
  0
VERTEX
  8
0
  6
CONTINUOUS
 10
2.983200
 20
3.604040
  0
VERTEX
  8
0
  6
CONTINUOUS
 10
2.994640
 20
3.722400
  0
VERTEX
  8
0
  6
CONTINUOUS
 10
2.343880
 20
4.092440
  0
VERTEX
  8
0
  6
CONTINUOUS
 10
2.332000
 20
3.974520
  0
SEQEND
  8
0
  0
SOLID
  8
0
 62
    15
 10
2.343880
 20
4.092440
 11
2.994640
 21
3.722400
 12
2.346520
 22
4.227960
 13
2.997720
 23
3.857480
  0
POLYLINE
  8
0
  6
CONTINUOUS
 66
     1
 40
0.000000
 41
0.000000
  0
VERTEX
  8
0
  6
CONTINUOUS
 10
2.343880
 20
4.092440
  0
VERTEX
  8
0
  6
CONTINUOUS
 10
2.994640
 20
3.722400
  0
VERTEX
  8
0
  6
CONTINUOUS
 10
2.997720
 20
3.857480
  0
VERTEX
  8
0
  6
CONTINUOUS
 10
2.346520
 20
4.227960
  0
VERTEX
  8
0
  6
CONTINUOUS
 10
2.343880
 20
4.092440
  0
SEQEND
  8
0
  0
SOLID
  8
0
 62
    15
 10
0.742720
 20
1.974720
 11
1.393480
 21
1.604240
 12
1.609080
 22
1.974720
 13
2.260280
 23
1.604240
  0
POLYLINE
  8
0
  6
CONTINUOUS
 66
     1
 40
0.000000
 41
0.000000
  0
VERTEX
  8
0
  6
CONTINUOUS
 10
0.742720
 20
1.974720
  0
VERTEX
  8
0
  6
CONTINUOUS
 10
1.393480
 20
1.604240
  0
VERTEX
  8
0
  6
CONTINUOUS
 10
2.260280
 20
1.604240
  0
VERTEX
  8
0
  6
CONTINUOUS
 10
1.609080
 20
1.974720
  0
VERTEX
  8
0
  6
CONTINUOUS
 10
0.742720
 20
1.974720
  0
SEQEND
  8
0
  0
POLYLINE
  8
0
  6
CONTINUOUS
 66
     1
 40
0.000000
 41
0.000000
  0
VERTEX
  8
0
  6
CONTINUOUS
 10
1.599840
 20
1.974720
  0
VERTEX
  8
0
  6
CONTINUOUS
 10
1.611720
 20
1.974720
  0
VERTEX
  8
0
  6
CONTINUOUS
 10
1.611720
 20
2.361040
  0
VERTEX
  8
0
  6
CONTINUOUS
 10
1.610840
 20
2.362800
  0
VERTEX
  8
0
  6
CONTINUOUS
 10
1.569040
 20
2.371600
  0
VERTEX
  8
0
  6
CONTINUOUS
 10
1.524600
 20
2.381280
  0
VERTEX
  8
0
  6
CONTINUOUS
 10
1.430000
 20
2.402840
  0
VERTEX
  8
0
  6
CONTINUOUS
 10
1.333640
 20
2.431880
  0
VERTEX
  8
0
  6
CONTINUOUS
 10
1.240800
 20
2.472800
  0
VERTEX
  8
0
  6
CONTINUOUS
 10
1.157640
 20
2.530440
  0
VERTEX
  8
0
  6
CONTINUOUS
 10
1.090760
 20
2.608760
  0
VERTEX
  8
0
  6
CONTINUOUS
 10
1.064800
 20
2.656720
  0
VERTEX
  8
0
  6
CONTINUOUS
 10
1.045440
 20
2.712160
  0
VERTEX
  8
0
  6
CONTINUOUS
 10
1.032680
 20
2.774640
  0
VERTEX
  8
0
  6
CONTINUOUS
 10
1.027840
 20
2.845480
  0
VERTEX
  8
0
  6
CONTINUOUS
 10
1.037960
 20
2.916320
  0
VERTEX
  8
0
  6
CONTINUOUS
 10
1.064360
 20
2.985400
  0
VERTEX
  8
0
  6
CONTINUOUS
 10
1.107480
 20
3.052280
  0
VERTEX
  8
0
  6
CONTINUOUS
 10
1.168200
 20
3.115640
  0
VERTEX
  8
0
  6
CONTINUOUS
 10
1.248280
 20
3.175920
  0
VERTEX
  8
0
  6
CONTINUOUS
 10
1.347720
 20
3.231800
  0
VERTEX
  8
0
  6
CONTINUOUS
 10
1.468280
 20
3.282840
  0
VERTEX
  8
0
  6
CONTINUOUS
 10
1.610840
 20
3.329040
  0
VERTEX
  8
0
  6
CONTINUOUS
 10
1.743280
 20
3.380520
  0
VERTEX
  8
0
  6
CONTINUOUS
 10
1.809720
 20
3.403400
  0
VERTEX
  8
0
  6
CONTINUOUS
 10
1.874840
 20
3.426720
  0
VERTEX
  8
0
  6
CONTINUOUS
 10
2.000240
 20
3.478200
  0
VERTEX
  8
0
  6
CONTINUOUS
 10
2.113760
 20
3.547720
  0
VERTEX
  8
0
  6
CONTINUOUS
 10
2.164360
 20
3.592160
  0
VERTEX
  8
0
  6
CONTINUOUS
 10
2.210120
 20
3.645840
  0
VERTEX
  8
0
  6
CONTINUOUS
 10
2.250600
 20
3.709200
  0
VERTEX
  8
0
  6
CONTINUOUS
 10
2.284920
 20
3.784000
  0
VERTEX
  8
0
  6
CONTINUOUS
 10
2.312200
 20
3.872000
  0
VERTEX
  8
0
  6
CONTINUOUS
 10
2.332000
 20
3.974520
  0
VERTEX
  8
0
  6
CONTINUOUS
 10
2.343880
 20
4.092440
  0
VERTEX
  8
0
  6
CONTINUOUS
 10
2.346520
 20
4.227960
  0
VERTEX
  8
0
  6
CONTINUOUS
 10
0.742720
 20
4.227960
  0
VERTEX
  8
0
  6
CONTINUOUS
 10
0.742720
 20
1.974720
  0
VERTEX
  8
0
  6
CONTINUOUS
 10
1.609080
 20
1.974720
  0
VERTEX
  8
0
  6
CONTINUOUS
 10
1.599840
 20
1.974720
  0
SEQEND
  8
0
  0
TEXT
  8
0
 10
1.574760
 20
1.356080
 40
0.138064
  1
BA  141
 41
1.000000
  7
SN0
 71
     0
 72
     5
 11
2.164929
 21
1.356080
  0
TEXT
  8
0
 10
1.345080
 20
1.164240
 40
0.138064
  1
1-5/8" x 2-1/4"
 41
1.000000
  7
SN0
 71
     0
 72
     5
 11
2.392577
 21
1.164240
  0
ENDSEC
  0
EOF
