  0
SECTION
  2
HEADER
  9
$ACADVER
  1
AC1006
  9
$EXTMIN
 10
3.769920
 20
0.629640
  9
$EXTMAX
 10
7.932320
 20
3.176800
  9
$LTSCALE
 40
0.044000
  9
$PDMODE
 70
    35
  9
$PDSIZE
 40
0.035200
  0
ENDSEC
  0
SECTION
  2
TABLES
  0
TABLE
  2
LTYPE
 70
     9
  0
LTYPE
  2
CONTINUOUS
 70
    64
  3
Solid line
 72
    65
 73
     0
 40
0.000000
  0
LTYPE
  2
DASHED
 70
    64
  3
__ __ __ __ __ __ __ __ __ __ __ __ __ __ __
 72
    65
 73
     2
 40
0.000330
 49
0.000220
 49
-0.000110
  0
LTYPE
  2
HIDDEN
 70
    64
  3
 _ _ _ _ _ _ _ _ _ _ _ _ _ _ _ _ _ _ _ _ _ _
 72
    65
 73
     2
 40
0.000165
 49
0.000110
 49
-0.000055
  0
LTYPE
  2
CENTER
 70
    64
  3
____ _ ____ _ ____ _ ____ _ ____ _ ____ _ ____
 72
    65
 73
     4
 40
0.000880
 49
0.000550
 49
-0.000110
 49
0.000110
 49
-0.000110
  0
LTYPE
  2
PHANTOM
 70
    64
  3
_____ _ _ _____ _ _ _____ _ _ _____ _ _ ____
 72
    65
 73
     6
 40
0.001100
 49
0.000550
 49
-0.000110
 49
0.000110
 49
-0.000110
 49
0.000110
 49
-0.000110
  0
LTYPE
  2
DOT
 70
    64
  3
...............................................
 72
    65
 73
     2
 40
0.000110
 49
0.000000
 49
-0.000110
  0
LTYPE
  2
DASHDOT
 70
    64
  3
__ . __ . __ . __ . __ . __ . __ . __ . __ . __
 72
    65
 73
     4
 40
0.000440
 49
0.000220
 49
-0.000110
 49
0.000000
 49
-0.000110
  0
LTYPE
  2
BORDER
 70
    64
  3
__ __ . __ __ . __ __ . __ __ . __ __ . __ __
 72
    65
 73
     6
 40
0.000770
 49
0.000220
 49
-0.000110
 49
0.000220
 49
-0.000110
 49
0.000000
 49
-0.000110
  0
LTYPE
  2
DIVIDE
 70
    64
  3
__ . . __ . . __ . . __ . . __ . . __ . . __
 72
    65
 73
     6
 40
0.000550
 49
0.000220
 49
-0.000110
 49
0.000000
 49
-0.000110
 49
0.000000
 49
-0.000110
  0
LTYPE
  2
DOTDOT
 70
    64
  3
 . .  . .  . .  . .  . .  . . 
 72
    65
 73
     5
 40
0.000242
 49
-0.000110
 49
0.000000
 49
-0.000110
 49
0.000000
 49
-0.000110
  0
ENDTAB
  0
TABLE
  2
STYLE
 70
     2
  0
STYLE
 70
     0
  2
SN0
 40
0.000000
 41
0.000440
 50
0.000000
 71
     0
 42
0.000000
  3
ROMAND
  0
STYLE
 70
    68
  2
SV0
 40
0.000000
 41
0.000440
 50
0.000000
 71
     0
 42
0.000000
  3
ROMAND
  0
ENDTAB
  0
TABLE
  2
LAYER
 70
     3
  0
LAYER
  2
FOREGROUND
 70
    64
 62
     7
  6
CONTINUOUS
  0
LAYER
  2
BACKGROUND
 70
    65
 62
    -7
  6
CONTINUOUS
  0
LAYER
  2
0
 70
    64
 62
     7
  6
CONTINUOUS
  0
ENDTAB
  0
ENDSEC
  0
SECTION
  2
ENTITIES
  0
POLYLINE
  8
FOREGROUND
  6
CONTINUOUS
 66
     1
 40
0.000000
 41
0.000000
  0
VERTEX
  8
FOREGROUND
  6
CONTINUOUS
 10
0.000000
 20
3.806440
  0
VERTEX
  8
FOREGROUND
  6
CONTINUOUS
 10
8.499920
 20
3.806440
  0
VERTEX
  8
FOREGROUND
  6
CONTINUOUS
 10
8.499920
 20
-7.193560
  0
VERTEX
  8
FOREGROUND
  6
CONTINUOUS
 10
0.000000
 20
-7.193560
  0
VERTEX
  8
FOREGROUND
  6
CONTINUOUS
 10
0.000000
 20
3.806440
  0
SEQEND
  8
0
  0
POLYLINE
  8
FOREGROUND
  6
CONTINUOUS
 66
     1
 40
0.000000
 41
0.000000
  0
VERTEX
  8
FOREGROUND
  6
CONTINUOUS
 10
0.000000
 20
3.806440
  0
VERTEX
  8
FOREGROUND
  6
CONTINUOUS
 10
8.499920
 20
3.806440
  0
VERTEX
  8
FOREGROUND
  6
CONTINUOUS
 10
8.499920
 20
-7.193560
  0
VERTEX
  8
FOREGROUND
  6
CONTINUOUS
 10
0.000000
 20
-7.193560
  0
VERTEX
  8
FOREGROUND
  6
CONTINUOUS
 10
0.000000
 20
3.806440
  0
SEQEND
  8
0
  0
TEXT
  8
0
 10
4.371840
 20
0.864160
 40
0.138127
  1
BA  140
 41
1.000000
  7
SN0
 71
     0
 72
     5
 11
4.961860
 21
0.864160
  0
TEXT
  8
0
 10
4.238960
 20
0.672760
 40
0.138127
  1
1" x 2-1/16"
 41
1.000000
  7
SN0
 71
     0
 72
     5
 11
5.092876
 21
0.672760
  0
SOLID
  8
0
 62
    15
 10
4.209920
 20
2.162160
 11
4.958800
 21
2.163920
 12
4.170760
 22
2.144120
 13
4.920080
 23
2.145880
  0
POLYLINE
  8
0
  6
CONTINUOUS
 66
     1
 40
0.000000
 41
0.000000
  0
VERTEX
  8
0
  6
CONTINUOUS
 10
4.209920
 20
2.162160
  0
VERTEX
  8
0
  6
CONTINUOUS
 10
4.958800
 20
2.163920
  0
VERTEX
  8
0
  6
CONTINUOUS
 10
4.920080
 20
2.145880
  0
VERTEX
  8
0
  6
CONTINUOUS
 10
4.170760
 20
2.144120
  0
VERTEX
  8
0
  6
CONTINUOUS
 10
4.209920
 20
2.162160
  0
SEQEND
  8
0
  0
SOLID
  8
0
 62
    15
 10
4.214320
 20
1.312080
 11
4.963640
 21
1.313400
 12
4.167240
 22
1.294920
 13
4.916560
 23
1.296240
  0
POLYLINE
  8
0
  6
CONTINUOUS
 66
     1
 40
0.000000
 41
0.000000
  0
VERTEX
  8
0
  6
CONTINUOUS
 10
4.214320
 20
1.312080
  0
VERTEX
  8
0
  6
CONTINUOUS
 10
4.963640
 20
1.313400
  0
VERTEX
  8
0
  6
CONTINUOUS
 10
4.916560
 20
1.296240
  0
VERTEX
  8
0
  6
CONTINUOUS
 10
4.167240
 20
1.294920
  0
VERTEX
  8
0
  6
CONTINUOUS
 10
4.214320
 20
1.312080
  0
SEQEND
  8
0
  0
SOLID
  8
0
 62
    15
 10
4.167240
 20
1.294920
 11
4.916560
 21
1.296240
 12
4.129400
 22
1.277320
 13
4.878720
 23
1.278640
  0
POLYLINE
  8
0
  6
CONTINUOUS
 66
     1
 40
0.000000
 41
0.000000
  0
VERTEX
  8
0
  6
CONTINUOUS
 10
4.167240
 20
1.294920
  0
VERTEX
  8
0
  6
CONTINUOUS
 10
4.916560
 20
1.296240
  0
VERTEX
  8
0
  6
CONTINUOUS
 10
4.878720
 20
1.278640
  0
VERTEX
  8
0
  6
CONTINUOUS
 10
4.129400
 20
1.277320
  0
VERTEX
  8
0
  6
CONTINUOUS
 10
4.167240
 20
1.294920
  0
SEQEND
  8
0
  0
SOLID
  8
0
 62
    15
 10
4.129400
 20
1.277320
 11
4.878720
 21
1.278640
 12
4.100360
 22
1.257960
 13
4.849680
 23
1.259720
  0
POLYLINE
  8
0
  6
CONTINUOUS
 66
     1
 40
0.000000
 41
0.000000
  0
VERTEX
  8
0
  6
CONTINUOUS
 10
4.129400
 20
1.277320
  0
VERTEX
  8
0
  6
CONTINUOUS
 10
4.878720
 20
1.278640
  0
VERTEX
  8
0
  6
CONTINUOUS
 10
4.849680
 20
1.259720
  0
VERTEX
  8
0
  6
CONTINUOUS
 10
4.100360
 20
1.257960
  0
VERTEX
  8
0
  6
CONTINUOUS
 10
4.129400
 20
1.277320
  0
SEQEND
  8
0
  0
SOLID
  8
0
 62
    15
 10
4.100360
 20
1.257960
 11
4.849680
 21
1.259720
 12
4.077920
 22
1.236400
 13
4.827240
 23
1.238160
  0
POLYLINE
  8
0
  6
CONTINUOUS
 66
     1
 40
0.000000
 41
0.000000
  0
VERTEX
  8
0
  6
CONTINUOUS
 10
4.100360
 20
1.257960
  0
VERTEX
  8
0
  6
CONTINUOUS
 10
4.849680
 20
1.259720
  0
VERTEX
  8
0
  6
CONTINUOUS
 10
4.827240
 20
1.238160
  0
VERTEX
  8
0
  6
CONTINUOUS
 10
4.077920
 20
1.236400
  0
VERTEX
  8
0
  6
CONTINUOUS
 10
4.100360
 20
1.257960
  0
SEQEND
  8
0
  0
SOLID
  8
0
 62
    15
 10
4.077920
 20
1.236400
 11
4.827240
 21
1.238160
 12
4.061640
 22
1.211320
 13
4.810960
 23
1.213080
  0
POLYLINE
  8
0
  6
CONTINUOUS
 66
     1
 40
0.000000
 41
0.000000
  0
VERTEX
  8
0
  6
CONTINUOUS
 10
4.077920
 20
1.236400
  0
VERTEX
  8
0
  6
CONTINUOUS
 10
4.827240
 20
1.238160
  0
VERTEX
  8
0
  6
CONTINUOUS
 10
4.810960
 20
1.213080
  0
VERTEX
  8
0
  6
CONTINUOUS
 10
4.061640
 20
1.211320
  0
VERTEX
  8
0
  6
CONTINUOUS
 10
4.077920
 20
1.236400
  0
SEQEND
  8
0
  0
SOLID
  8
0
 62
    15
 10
4.061640
 20
1.211320
 11
4.810960
 21
1.213080
 12
4.050200
 22
1.181840
 13
4.799520
 23
1.183160
  0
POLYLINE
  8
0
  6
CONTINUOUS
 66
     1
 40
0.000000
 41
0.000000
  0
VERTEX
  8
0
  6
CONTINUOUS
 10
4.061640
 20
1.211320
  0
VERTEX
  8
0
  6
CONTINUOUS
 10
4.810960
 20
1.213080
  0
VERTEX
  8
0
  6
CONTINUOUS
 10
4.799520
 20
1.183160
  0
VERTEX
  8
0
  6
CONTINUOUS
 10
4.050200
 20
1.181840
  0
VERTEX
  8
0
  6
CONTINUOUS
 10
4.061640
 20
1.211320
  0
SEQEND
  8
0
  0
SOLID
  8
0
 62
    15
 10
4.050200
 20
1.181840
 11
4.799520
 21
1.183160
 12
4.041840
 22
1.146200
 13
4.791160
 23
1.147520
  0
POLYLINE
  8
0
  6
CONTINUOUS
 66
     1
 40
0.000000
 41
0.000000
  0
VERTEX
  8
0
  6
CONTINUOUS
 10
4.050200
 20
1.181840
  0
VERTEX
  8
0
  6
CONTINUOUS
 10
4.799520
 20
1.183160
  0
VERTEX
  8
0
  6
CONTINUOUS
 10
4.791160
 20
1.147520
  0
VERTEX
  8
0
  6
CONTINUOUS
 10
4.041840
 20
1.146200
  0
VERTEX
  8
0
  6
CONTINUOUS
 10
4.050200
 20
1.181840
  0
SEQEND
  8
0
  0
SOLID
  8
0
 62
    15
 10
4.041840
 20
1.146200
 11
4.791160
 21
1.147520
 12
4.035680
 22
1.103960
 13
4.785000
 23
1.105280
  0
POLYLINE
  8
0
  6
CONTINUOUS
 66
     1
 40
0.000000
 41
0.000000
  0
VERTEX
  8
0
  6
CONTINUOUS
 10
4.041840
 20
1.146200
  0
VERTEX
  8
0
  6
CONTINUOUS
 10
4.791160
 20
1.147520
  0
VERTEX
  8
0
  6
CONTINUOUS
 10
4.785000
 20
1.105280
  0
VERTEX
  8
0
  6
CONTINUOUS
 10
4.035680
 20
1.103960
  0
VERTEX
  8
0
  6
CONTINUOUS
 10
4.041840
 20
1.146200
  0
SEQEND
  8
0
  0
SOLID
  8
0
 62
    15
 10
3.770360
 20
3.174600
 11
4.519680
 21
3.176360
 12
4.409240
 22
3.174600
 13
5.158560
 23
3.175920
  0
POLYLINE
  8
0
  6
CONTINUOUS
 66
     1
 40
0.000000
 41
0.000000
  0
VERTEX
  8
0
  6
CONTINUOUS
 10
3.770360
 20
3.174600
  0
VERTEX
  8
0
  6
CONTINUOUS
 10
4.519680
 20
3.176360
  0
VERTEX
  8
0
  6
CONTINUOUS
 10
5.158560
 20
3.175920
  0
VERTEX
  8
0
  6
CONTINUOUS
 10
4.409240
 20
3.174600
  0
VERTEX
  8
0
  6
CONTINUOUS
 10
3.770360
 20
3.174600
  0
SEQEND
  8
0
  0
SOLID
  8
0
 62
    15
 10
4.409240
 20
3.174600
 11
5.158560
 21
3.175920
 12
4.491520
 22
3.166680
 13
5.240840
 23
3.168000
  0
POLYLINE
  8
0
  6
CONTINUOUS
 66
     1
 40
0.000000
 41
0.000000
  0
VERTEX
  8
0
  6
CONTINUOUS
 10
4.409240
 20
3.174600
  0
VERTEX
  8
0
  6
CONTINUOUS
 10
5.158560
 20
3.175920
  0
VERTEX
  8
0
  6
CONTINUOUS
 10
5.240840
 20
3.168000
  0
VERTEX
  8
0
  6
CONTINUOUS
 10
4.491520
 20
3.166680
  0
VERTEX
  8
0
  6
CONTINUOUS
 10
4.409240
 20
3.174600
  0
SEQEND
  8
0
  0
SOLID
  8
0
 62
    15
 10
4.491520
 20
3.166680
 11
5.240840
 21
3.168000
 12
4.568520
 22
3.142920
 13
5.317400
 23
3.144240
  0
POLYLINE
  8
0
  6
CONTINUOUS
 66
     1
 40
0.000000
 41
0.000000
  0
VERTEX
  8
0
  6
CONTINUOUS
 10
4.491520
 20
3.166680
  0
VERTEX
  8
0
  6
CONTINUOUS
 10
5.240840
 20
3.168000
  0
VERTEX
  8
0
  6
CONTINUOUS
 10
5.317400
 20
3.144240
  0
VERTEX
  8
0
  6
CONTINUOUS
 10
4.568520
 20
3.142920
  0
VERTEX
  8
0
  6
CONTINUOUS
 10
4.491520
 20
3.166680
  0
SEQEND
  8
0
  0
SOLID
  8
0
 62
    15
 10
4.568520
 20
3.142920
 11
5.317400
 21
3.144240
 12
4.637600
 22
3.105520
 13
5.386480
 23
3.106840
  0
POLYLINE
  8
0
  6
CONTINUOUS
 66
     1
 40
0.000000
 41
0.000000
  0
VERTEX
  8
0
  6
CONTINUOUS
 10
4.568520
 20
3.142920
  0
VERTEX
  8
0
  6
CONTINUOUS
 10
5.317400
 20
3.144240
  0
VERTEX
  8
0
  6
CONTINUOUS
 10
5.386480
 20
3.106840
  0
VERTEX
  8
0
  6
CONTINUOUS
 10
4.637600
 20
3.105520
  0
VERTEX
  8
0
  6
CONTINUOUS
 10
4.568520
 20
3.142920
  0
SEQEND
  8
0
  0
SOLID
  8
0
 62
    15
 10
4.637600
 20
3.105520
 11
5.386480
 21
3.106840
 12
4.697440
 22
3.055800
 13
5.446760
 23
3.057120
  0
POLYLINE
  8
0
  6
CONTINUOUS
 66
     1
 40
0.000000
 41
0.000000
  0
VERTEX
  8
0
  6
CONTINUOUS
 10
4.637600
 20
3.105520
  0
VERTEX
  8
0
  6
CONTINUOUS
 10
5.386480
 20
3.106840
  0
VERTEX
  8
0
  6
CONTINUOUS
 10
5.446760
 20
3.057120
  0
VERTEX
  8
0
  6
CONTINUOUS
 10
4.697440
 20
3.055800
  0
VERTEX
  8
0
  6
CONTINUOUS
 10
4.637600
 20
3.105520
  0
SEQEND
  8
0
  0
SOLID
  8
0
 62
    15
 10
4.697440
 20
3.055800
 11
5.446760
 21
3.057120
 12
4.746720
 22
2.995520
 13
5.496040
 23
2.996840
  0
POLYLINE
  8
0
  6
CONTINUOUS
 66
     1
 40
0.000000
 41
0.000000
  0
VERTEX
  8
0
  6
CONTINUOUS
 10
4.697440
 20
3.055800
  0
VERTEX
  8
0
  6
CONTINUOUS
 10
5.446760
 20
3.057120
  0
VERTEX
  8
0
  6
CONTINUOUS
 10
5.496040
 20
2.996840
  0
VERTEX
  8
0
  6
CONTINUOUS
 10
4.746720
 20
2.995520
  0
VERTEX
  8
0
  6
CONTINUOUS
 10
4.697440
 20
3.055800
  0
SEQEND
  8
0
  0
SOLID
  8
0
 62
    15
 10
4.746720
 20
2.995520
 11
5.496040
 21
2.996840
 12
4.784120
 22
2.926000
 13
5.533440
 23
2.927320
  0
POLYLINE
  8
0
  6
CONTINUOUS
 66
     1
 40
0.000000
 41
0.000000
  0
VERTEX
  8
0
  6
CONTINUOUS
 10
4.746720
 20
2.995520
  0
VERTEX
  8
0
  6
CONTINUOUS
 10
5.496040
 20
2.996840
  0
VERTEX
  8
0
  6
CONTINUOUS
 10
5.533440
 20
2.927320
  0
VERTEX
  8
0
  6
CONTINUOUS
 10
4.784120
 20
2.926000
  0
VERTEX
  8
0
  6
CONTINUOUS
 10
4.746720
 20
2.995520
  0
SEQEND
  8
0
  0
SOLID
  8
0
 62
    15
 10
4.784120
 20
2.926000
 11
5.533440
 21
2.927320
 12
4.807440
 22
2.849440
 13
5.556760
 23
2.850760
  0
POLYLINE
  8
0
  6
CONTINUOUS
 66
     1
 40
0.000000
 41
0.000000
  0
VERTEX
  8
0
  6
CONTINUOUS
 10
4.784120
 20
2.926000
  0
VERTEX
  8
0
  6
CONTINUOUS
 10
5.533440
 20
2.927320
  0
VERTEX
  8
0
  6
CONTINUOUS
 10
5.556760
 20
2.850760
  0
VERTEX
  8
0
  6
CONTINUOUS
 10
4.807440
 20
2.849440
  0
VERTEX
  8
0
  6
CONTINUOUS
 10
4.784120
 20
2.926000
  0
SEQEND
  8
0
  0
SOLID
  8
0
 62
    15
 10
4.807440
 20
2.849440
 11
5.556760
 21
2.850760
 12
4.815800
 22
2.766720
 13
5.565120
 23
2.768040
  0
POLYLINE
  8
0
  6
CONTINUOUS
 66
     1
 40
0.000000
 41
0.000000
  0
VERTEX
  8
0
  6
CONTINUOUS
 10
4.807440
 20
2.849440
  0
VERTEX
  8
0
  6
CONTINUOUS
 10
5.556760
 20
2.850760
  0
VERTEX
  8
0
  6
CONTINUOUS
 10
5.565120
 20
2.768040
  0
VERTEX
  8
0
  6
CONTINUOUS
 10
4.815800
 20
2.766720
  0
VERTEX
  8
0
  6
CONTINUOUS
 10
4.807440
 20
2.849440
  0
SEQEND
  8
0
  0
SOLID
  8
0
 62
    15
 10
4.815800
 20
2.766720
 11
5.565120
 21
2.768040
 12
4.809200
 22
2.693240
 13
5.558520
 23
2.695000
  0
POLYLINE
  8
0
  6
CONTINUOUS
 66
     1
 40
0.000000
 41
0.000000
  0
VERTEX
  8
0
  6
CONTINUOUS
 10
4.815800
 20
2.766720
  0
VERTEX
  8
0
  6
CONTINUOUS
 10
5.565120
 20
2.768040
  0
VERTEX
  8
0
  6
CONTINUOUS
 10
5.558520
 20
2.695000
  0
VERTEX
  8
0
  6
CONTINUOUS
 10
4.809200
 20
2.693240
  0
VERTEX
  8
0
  6
CONTINUOUS
 10
4.815800
 20
2.766720
  0
SEQEND
  8
0
  0
SOLID
  8
0
 62
    15
 10
4.809200
 20
2.693240
 11
5.558520
 21
2.695000
 12
4.790720
 22
2.624160
 13
5.539600
 23
2.625480
  0
POLYLINE
  8
0
  6
CONTINUOUS
 66
     1
 40
0.000000
 41
0.000000
  0
VERTEX
  8
0
  6
CONTINUOUS
 10
4.809200
 20
2.693240
  0
VERTEX
  8
0
  6
CONTINUOUS
 10
5.558520
 20
2.695000
  0
VERTEX
  8
0
  6
CONTINUOUS
 10
5.539600
 20
2.625480
  0
VERTEX
  8
0
  6
CONTINUOUS
 10
4.790720
 20
2.624160
  0
VERTEX
  8
0
  6
CONTINUOUS
 10
4.809200
 20
2.693240
  0
SEQEND
  8
0
  0
SOLID
  8
0
 62
    15
 10
4.790720
 20
2.624160
 11
5.539600
 21
2.625480
 12
4.760800
 22
2.560360
 13
5.510120
 23
2.561680
  0
POLYLINE
  8
0
  6
CONTINUOUS
 66
     1
 40
0.000000
 41
0.000000
  0
VERTEX
  8
0
  6
CONTINUOUS
 10
4.790720
 20
2.624160
  0
VERTEX
  8
0
  6
CONTINUOUS
 10
5.539600
 20
2.625480
  0
VERTEX
  8
0
  6
CONTINUOUS
 10
5.510120
 20
2.561680
  0
VERTEX
  8
0
  6
CONTINUOUS
 10
4.760800
 20
2.560360
  0
VERTEX
  8
0
  6
CONTINUOUS
 10
4.790720
 20
2.624160
  0
SEQEND
  8
0
  0
SOLID
  8
0
 62
    15
 10
4.760800
 20
2.560360
 11
5.510120
 21
2.561680
 12
4.721200
 22
2.502720
 13
5.470080
 23
2.504480
  0
POLYLINE
  8
0
  6
CONTINUOUS
 66
     1
 40
0.000000
 41
0.000000
  0
VERTEX
  8
0
  6
CONTINUOUS
 10
4.760800
 20
2.560360
  0
VERTEX
  8
0
  6
CONTINUOUS
 10
5.510120
 20
2.561680
  0
VERTEX
  8
0
  6
CONTINUOUS
 10
5.470080
 20
2.504480
  0
VERTEX
  8
0
  6
CONTINUOUS
 10
4.721200
 20
2.502720
  0
VERTEX
  8
0
  6
CONTINUOUS
 10
4.760800
 20
2.560360
  0
SEQEND
  8
0
  0
SOLID
  8
0
 62
    15
 10
4.721200
 20
2.502720
 11
5.470080
 21
2.504480
 12
4.672360
 22
2.453000
 13
5.421680
 23
2.454320
  0
POLYLINE
  8
0
  6
CONTINUOUS
 66
     1
 40
0.000000
 41
0.000000
  0
VERTEX
  8
0
  6
CONTINUOUS
 10
4.721200
 20
2.502720
  0
VERTEX
  8
0
  6
CONTINUOUS
 10
5.470080
 20
2.504480
  0
VERTEX
  8
0
  6
CONTINUOUS
 10
5.421680
 20
2.454320
  0
VERTEX
  8
0
  6
CONTINUOUS
 10
4.672360
 20
2.453000
  0
VERTEX
  8
0
  6
CONTINUOUS
 10
4.721200
 20
2.502720
  0
SEQEND
  8
0
  0
SOLID
  8
0
 62
    15
 10
4.672360
 20
2.453000
 11
5.421680
 21
2.454320
 12
4.616040
 22
2.411640
 13
5.365360
 23
2.413400
  0
POLYLINE
  8
0
  6
CONTINUOUS
 66
     1
 40
0.000000
 41
0.000000
  0
VERTEX
  8
0
  6
CONTINUOUS
 10
4.672360
 20
2.453000
  0
VERTEX
  8
0
  6
CONTINUOUS
 10
5.421680
 20
2.454320
  0
VERTEX
  8
0
  6
CONTINUOUS
 10
5.365360
 20
2.413400
  0
VERTEX
  8
0
  6
CONTINUOUS
 10
4.616040
 20
2.411640
  0
VERTEX
  8
0
  6
CONTINUOUS
 10
4.672360
 20
2.453000
  0
SEQEND
  8
0
  0
SOLID
  8
0
 62
    15
 10
4.616040
 20
2.411640
 11
5.365360
 21
2.413400
 12
4.553560
 22
2.380400
 13
5.302440
 23
2.381720
  0
POLYLINE
  8
0
  6
CONTINUOUS
 66
     1
 40
0.000000
 41
0.000000
  0
VERTEX
  8
0
  6
CONTINUOUS
 10
4.616040
 20
2.411640
  0
VERTEX
  8
0
  6
CONTINUOUS
 10
5.365360
 20
2.413400
  0
VERTEX
  8
0
  6
CONTINUOUS
 10
5.302440
 20
2.381720
  0
VERTEX
  8
0
  6
CONTINUOUS
 10
4.553560
 20
2.380400
  0
VERTEX
  8
0
  6
CONTINUOUS
 10
4.616040
 20
2.411640
  0
SEQEND
  8
0
  0
SOLID
  8
0
 62
    15
 10
4.553560
 20
2.380400
 11
5.302440
 21
2.381720
 12
4.485360
 22
2.360160
 13
5.234240
 23
2.361480
  0
POLYLINE
  8
0
  6
CONTINUOUS
 66
     1
 40
0.000000
 41
0.000000
  0
VERTEX
  8
0
  6
CONTINUOUS
 10
4.553560
 20
2.380400
  0
VERTEX
  8
0
  6
CONTINUOUS
 10
5.302440
 20
2.381720
  0
VERTEX
  8
0
  6
CONTINUOUS
 10
5.234240
 20
2.361480
  0
VERTEX
  8
0
  6
CONTINUOUS
 10
4.485360
 20
2.360160
  0
VERTEX
  8
0
  6
CONTINUOUS
 10
4.553560
 20
2.380400
  0
SEQEND
  8
0
  0
SOLID
  8
0
 62
    15
 10
4.485360
 20
2.360160
 11
5.234240
 21
2.361480
 12
4.483600
 22
2.358840
 13
5.232920
 23
2.360160
  0
POLYLINE
  8
0
  6
CONTINUOUS
 66
     1
 40
0.000000
 41
0.000000
  0
VERTEX
  8
0
  6
CONTINUOUS
 10
4.485360
 20
2.360160
  0
VERTEX
  8
0
  6
CONTINUOUS
 10
5.234240
 20
2.361480
  0
VERTEX
  8
0
  6
CONTINUOUS
 10
5.232920
 20
2.360160
  0
VERTEX
  8
0
  6
CONTINUOUS
 10
4.483600
 20
2.358840
  0
VERTEX
  8
0
  6
CONTINUOUS
 10
4.485360
 20
2.360160
  0
SEQEND
  8
0
  0
SOLID
  8
0
 62
    15
 10
4.483600
 20
2.358840
 11
5.232920
 21
2.360160
 12
4.483600
 22
2.242680
 13
5.232920
 23
2.244000
  0
POLYLINE
  8
0
  6
CONTINUOUS
 66
     1
 40
0.000000
 41
0.000000
  0
VERTEX
  8
0
  6
CONTINUOUS
 10
4.483600
 20
2.358840
  0
VERTEX
  8
0
  6
CONTINUOUS
 10
5.232920
 20
2.360160
  0
VERTEX
  8
0
  6
CONTINUOUS
 10
5.232920
 20
2.244000
  0
VERTEX
  8
0
  6
CONTINUOUS
 10
4.483600
 20
2.242680
  0
VERTEX
  8
0
  6
CONTINUOUS
 10
4.483600
 20
2.358840
  0
SEQEND
  8
0
  0
SOLID
  8
0
 62
    15
 10
4.483600
 20
2.242680
 11
5.232920
 21
2.244000
 12
4.418040
 22
2.228160
 13
5.166920
 23
2.229480
  0
POLYLINE
  8
0
  6
CONTINUOUS
 66
     1
 40
0.000000
 41
0.000000
  0
VERTEX
  8
0
  6
CONTINUOUS
 10
4.483600
 20
2.242680
  0
VERTEX
  8
0
  6
CONTINUOUS
 10
5.232920
 20
2.244000
  0
VERTEX
  8
0
  6
CONTINUOUS
 10
5.166920
 20
2.229480
  0
VERTEX
  8
0
  6
CONTINUOUS
 10
4.418040
 20
2.228160
  0
VERTEX
  8
0
  6
CONTINUOUS
 10
4.483600
 20
2.242680
  0
SEQEND
  8
0
  0
SOLID
  8
0
 62
    15
 10
4.418040
 20
2.228160
 11
5.166920
 21
2.229480
 12
4.357760
 22
2.212760
 13
5.107080
 23
2.214520
  0
POLYLINE
  8
0
  6
CONTINUOUS
 66
     1
 40
0.000000
 41
0.000000
  0
VERTEX
  8
0
  6
CONTINUOUS
 10
4.418040
 20
2.228160
  0
VERTEX
  8
0
  6
CONTINUOUS
 10
5.166920
 20
2.229480
  0
VERTEX
  8
0
  6
CONTINUOUS
 10
5.107080
 20
2.214520
  0
VERTEX
  8
0
  6
CONTINUOUS
 10
4.357760
 20
2.212760
  0
VERTEX
  8
0
  6
CONTINUOUS
 10
4.418040
 20
2.228160
  0
SEQEND
  8
0
  0
SOLID
  8
0
 62
    15
 10
4.357760
 20
2.212760
 11
5.107080
 21
2.214520
 12
4.303200
 22
2.196920
 13
5.052080
 23
2.198240
  0
POLYLINE
  8
0
  6
CONTINUOUS
 66
     1
 40
0.000000
 41
0.000000
  0
VERTEX
  8
0
  6
CONTINUOUS
 10
4.357760
 20
2.212760
  0
VERTEX
  8
0
  6
CONTINUOUS
 10
5.107080
 20
2.214520
  0
VERTEX
  8
0
  6
CONTINUOUS
 10
5.052080
 20
2.198240
  0
VERTEX
  8
0
  6
CONTINUOUS
 10
4.303200
 20
2.196920
  0
VERTEX
  8
0
  6
CONTINUOUS
 10
4.357760
 20
2.212760
  0
SEQEND
  8
0
  0
SOLID
  8
0
 62
    15
 10
4.303200
 20
2.196920
 11
5.052080
 21
2.198240
 12
4.253920
 22
2.179760
 13
5.003240
 23
2.181080
  0
POLYLINE
  8
0
  6
CONTINUOUS
 66
     1
 40
0.000000
 41
0.000000
  0
VERTEX
  8
0
  6
CONTINUOUS
 10
4.303200
 20
2.196920
  0
VERTEX
  8
0
  6
CONTINUOUS
 10
5.052080
 20
2.198240
  0
VERTEX
  8
0
  6
CONTINUOUS
 10
5.003240
 20
2.181080
  0
VERTEX
  8
0
  6
CONTINUOUS
 10
4.253920
 20
2.179760
  0
VERTEX
  8
0
  6
CONTINUOUS
 10
4.303200
 20
2.196920
  0
SEQEND
  8
0
  0
SOLID
  8
0
 62
    15
 10
4.253920
 20
2.179760
 11
5.003240
 21
2.181080
 12
4.209920
 22
2.162160
 13
4.958800
 23
2.163920
  0
POLYLINE
  8
0
  6
CONTINUOUS
 66
     1
 40
0.000000
 41
0.000000
  0
VERTEX
  8
0
  6
CONTINUOUS
 10
4.253920
 20
2.179760
  0
VERTEX
  8
0
  6
CONTINUOUS
 10
5.003240
 20
2.181080
  0
VERTEX
  8
0
  6
CONTINUOUS
 10
4.958800
 20
2.163920
  0
VERTEX
  8
0
  6
CONTINUOUS
 10
4.209920
 20
2.162160
  0
VERTEX
  8
0
  6
CONTINUOUS
 10
4.253920
 20
2.179760
  0
SEQEND
  8
0
  0
SOLID
  8
0
 62
    15
 10
4.215640
 20
1.367960
 11
4.964960
 21
1.369280
 12
4.215640
 22
1.312080
 13
4.964960
 23
1.313400
  0
POLYLINE
  8
0
  6
CONTINUOUS
 66
     1
 40
0.000000
 41
0.000000
  0
VERTEX
  8
0
  6
CONTINUOUS
 10
4.215640
 20
1.367960
  0
VERTEX
  8
0
  6
CONTINUOUS
 10
4.964960
 20
1.369280
  0
VERTEX
  8
0
  6
CONTINUOUS
 10
4.964960
 20
1.313400
  0
VERTEX
  8
0
  6
CONTINUOUS
 10
4.215640
 20
1.312080
  0
VERTEX
  8
0
  6
CONTINUOUS
 10
4.215640
 20
1.367960
  0
SEQEND
  8
0
  0
SOLID
  8
0
 62
    15
 10
4.170760
 20
2.144120
 11
4.920080
 21
2.145880
 12
4.106520
 22
2.106720
 13
4.855840
 23
2.108040
  0
POLYLINE
  8
0
  6
CONTINUOUS
 66
     1
 40
0.000000
 41
0.000000
  0
VERTEX
  8
0
  6
CONTINUOUS
 10
4.170760
 20
2.144120
  0
VERTEX
  8
0
  6
CONTINUOUS
 10
4.920080
 20
2.145880
  0
VERTEX
  8
0
  6
CONTINUOUS
 10
4.855840
 20
2.108040
  0
VERTEX
  8
0
  6
CONTINUOUS
 10
4.106520
 20
2.106720
  0
VERTEX
  8
0
  6
CONTINUOUS
 10
4.170760
 20
2.144120
  0
SEQEND
  8
0
  0
SOLID
  8
0
 62
    15
 10
4.106520
 20
2.106720
 11
4.855840
 21
2.108040
 12
4.059880
 22
2.068000
 13
4.809200
 23
2.069320
  0
POLYLINE
  8
0
  6
CONTINUOUS
 66
     1
 40
0.000000
 41
0.000000
  0
VERTEX
  8
0
  6
CONTINUOUS
 10
4.106520
 20
2.106720
  0
VERTEX
  8
0
  6
CONTINUOUS
 10
4.855840
 20
2.108040
  0
VERTEX
  8
0
  6
CONTINUOUS
 10
4.809200
 20
2.069320
  0
VERTEX
  8
0
  6
CONTINUOUS
 10
4.059880
 20
2.068000
  0
VERTEX
  8
0
  6
CONTINUOUS
 10
4.106520
 20
2.106720
  0
SEQEND
  8
0
  0
SOLID
  8
0
 62
    15
 10
4.059880
 20
2.068000
 11
4.809200
 21
2.069320
 12
4.029080
 22
2.028400
 13
4.778400
 23
2.030160
  0
POLYLINE
  8
0
  6
CONTINUOUS
 66
     1
 40
0.000000
 41
0.000000
  0
VERTEX
  8
0
  6
CONTINUOUS
 10
4.059880
 20
2.068000
  0
VERTEX
  8
0
  6
CONTINUOUS
 10
4.809200
 20
2.069320
  0
VERTEX
  8
0
  6
CONTINUOUS
 10
4.778400
 20
2.030160
  0
VERTEX
  8
0
  6
CONTINUOUS
 10
4.029080
 20
2.028400
  0
VERTEX
  8
0
  6
CONTINUOUS
 10
4.059880
 20
2.068000
  0
SEQEND
  8
0
  0
SOLID
  8
0
 62
    15
 10
4.029080
 20
2.028400
 11
4.778400
 21
2.030160
 12
4.012800
 22
1.989240
 13
4.762120
 23
1.990560
  0
POLYLINE
  8
0
  6
CONTINUOUS
 66
     1
 40
0.000000
 41
0.000000
  0
VERTEX
  8
0
  6
CONTINUOUS
 10
4.029080
 20
2.028400
  0
VERTEX
  8
0
  6
CONTINUOUS
 10
4.778400
 20
2.030160
  0
VERTEX
  8
0
  6
CONTINUOUS
 10
4.762120
 20
1.990560
  0
VERTEX
  8
0
  6
CONTINUOUS
 10
4.012800
 20
1.989240
  0
VERTEX
  8
0
  6
CONTINUOUS
 10
4.029080
 20
2.028400
  0
SEQEND
  8
0
  0
SOLID
  8
0
 62
    15
 10
4.012800
 20
1.989240
 11
4.762120
 21
1.990560
 12
4.008840
 22
1.950520
 13
4.758160
 23
1.951840
  0
POLYLINE
  8
0
  6
CONTINUOUS
 66
     1
 40
0.000000
 41
0.000000
  0
VERTEX
  8
0
  6
CONTINUOUS
 10
4.012800
 20
1.989240
  0
VERTEX
  8
0
  6
CONTINUOUS
 10
4.762120
 20
1.990560
  0
VERTEX
  8
0
  6
CONTINUOUS
 10
4.758160
 20
1.951840
  0
VERTEX
  8
0
  6
CONTINUOUS
 10
4.008840
 20
1.950520
  0
VERTEX
  8
0
  6
CONTINUOUS
 10
4.012800
 20
1.989240
  0
SEQEND
  8
0
  0
SOLID
  8
0
 62
     7
 10
4.008840
 20
1.950520
 11
4.758160
 21
1.951840
 12
4.016320
 22
1.912680
 13
4.765640
 23
1.914440
  0
POLYLINE
  8
0
  6
CONTINUOUS
 66
     1
 40
0.000000
 41
0.000000
  0
VERTEX
  8
0
  6
CONTINUOUS
 10
4.008840
 20
1.950520
  0
VERTEX
  8
0
  6
CONTINUOUS
 10
4.758160
 20
1.951840
  0
VERTEX
  8
0
  6
CONTINUOUS
 10
4.765640
 20
1.914440
  0
VERTEX
  8
0
  6
CONTINUOUS
 10
4.016320
 20
1.912680
  0
VERTEX
  8
0
  6
CONTINUOUS
 10
4.008840
 20
1.950520
  0
SEQEND
  8
0
  0
SOLID
  8
0
 62
     7
 10
4.016320
 20
1.912680
 11
4.765640
 21
1.914440
 12
4.033040
 22
1.877480
 13
4.782360
 23
1.878800
  0
POLYLINE
  8
0
  6
CONTINUOUS
 66
     1
 40
0.000000
 41
0.000000
  0
VERTEX
  8
0
  6
CONTINUOUS
 10
4.016320
 20
1.912680
  0
VERTEX
  8
0
  6
CONTINUOUS
 10
4.765640
 20
1.914440
  0
VERTEX
  8
0
  6
CONTINUOUS
 10
4.782360
 20
1.878800
  0
VERTEX
  8
0
  6
CONTINUOUS
 10
4.033040
 20
1.877480
  0
VERTEX
  8
0
  6
CONTINUOUS
 10
4.016320
 20
1.912680
  0
SEQEND
  8
0
  0
SOLID
  8
0
 62
     7
 10
4.033040
 20
1.877480
 11
4.782360
 21
1.878800
 12
4.058120
 22
1.844480
 13
4.807000
 23
1.845800
  0
POLYLINE
  8
0
  6
CONTINUOUS
 66
     1
 40
0.000000
 41
0.000000
  0
VERTEX
  8
0
  6
CONTINUOUS
 10
4.033040
 20
1.877480
  0
VERTEX
  8
0
  6
CONTINUOUS
 10
4.782360
 20
1.878800
  0
VERTEX
  8
0
  6
CONTINUOUS
 10
4.807000
 20
1.845800
  0
VERTEX
  8
0
  6
CONTINUOUS
 10
4.058120
 20
1.844480
  0
VERTEX
  8
0
  6
CONTINUOUS
 10
4.033040
 20
1.877480
  0
SEQEND
  8
0
  0
SOLID
  8
0
 62
    15
 10
4.058120
 20
1.844480
 11
4.807000
 21
1.845800
 12
4.088920
 22
1.814560
 13
4.838240
 23
1.815880
  0
POLYLINE
  8
0
  6
CONTINUOUS
 66
     1
 40
0.000000
 41
0.000000
  0
VERTEX
  8
0
  6
CONTINUOUS
 10
4.058120
 20
1.844480
  0
VERTEX
  8
0
  6
CONTINUOUS
 10
4.807000
 20
1.845800
  0
VERTEX
  8
0
  6
CONTINUOUS
 10
4.838240
 20
1.815880
  0
VERTEX
  8
0
  6
CONTINUOUS
 10
4.088920
 20
1.814560
  0
VERTEX
  8
0
  6
CONTINUOUS
 10
4.058120
 20
1.844480
  0
SEQEND
  8
0
  0
SOLID
  8
0
 62
    15
 10
4.088920
 20
1.814560
 11
4.838240
 21
1.815880
 12
4.125000
 22
1.788600
 13
4.874320
 23
1.789920
  0
POLYLINE
  8
0
  6
CONTINUOUS
 66
     1
 40
0.000000
 41
0.000000
  0
VERTEX
  8
0
  6
CONTINUOUS
 10
4.088920
 20
1.814560
  0
VERTEX
  8
0
  6
CONTINUOUS
 10
4.838240
 20
1.815880
  0
VERTEX
  8
0
  6
CONTINUOUS
 10
4.874320
 20
1.789920
  0
VERTEX
  8
0
  6
CONTINUOUS
 10
4.125000
 20
1.788600
  0
VERTEX
  8
0
  6
CONTINUOUS
 10
4.088920
 20
1.814560
  0
SEQEND
  8
0
  0
SOLID
  8
0
 62
    15
 10
4.125000
 20
1.788600
 11
4.874320
 21
1.789920
 12
4.164160
 22
1.767040
 13
4.913040
 23
1.768360
  0
POLYLINE
  8
0
  6
CONTINUOUS
 66
     1
 40
0.000000
 41
0.000000
  0
VERTEX
  8
0
  6
CONTINUOUS
 10
4.125000
 20
1.788600
  0
VERTEX
  8
0
  6
CONTINUOUS
 10
4.874320
 20
1.789920
  0
VERTEX
  8
0
  6
CONTINUOUS
 10
4.913040
 20
1.768360
  0
VERTEX
  8
0
  6
CONTINUOUS
 10
4.164160
 20
1.767040
  0
VERTEX
  8
0
  6
CONTINUOUS
 10
4.125000
 20
1.788600
  0
SEQEND
  8
0
  0
SOLID
  8
0
 62
    15
 10
4.164160
 20
1.767040
 11
4.913040
 21
1.768360
 12
4.204640
 22
1.750760
 13
4.953960
 23
1.752080
  0
POLYLINE
  8
0
  6
CONTINUOUS
 66
     1
 40
0.000000
 41
0.000000
  0
VERTEX
  8
0
  6
CONTINUOUS
 10
4.164160
 20
1.767040
  0
VERTEX
  8
0
  6
CONTINUOUS
 10
4.913040
 20
1.768360
  0
VERTEX
  8
0
  6
CONTINUOUS
 10
4.953960
 20
1.752080
  0
VERTEX
  8
0
  6
CONTINUOUS
 10
4.204640
 20
1.750760
  0
VERTEX
  8
0
  6
CONTINUOUS
 10
4.164160
 20
1.767040
  0
SEQEND
  8
0
  0
SOLID
  8
0
 62
    15
 10
4.204640
 20
1.750760
 11
4.953960
 21
1.752080
 12
4.245120
 22
1.740200
 13
4.994440
 23
1.741520
  0
POLYLINE
  8
0
  6
CONTINUOUS
 66
     1
 40
0.000000
 41
0.000000
  0
VERTEX
  8
0
  6
CONTINUOUS
 10
4.204640
 20
1.750760
  0
VERTEX
  8
0
  6
CONTINUOUS
 10
4.953960
 20
1.752080
  0
VERTEX
  8
0
  6
CONTINUOUS
 10
4.994440
 20
1.741520
  0
VERTEX
  8
0
  6
CONTINUOUS
 10
4.245120
 20
1.740200
  0
VERTEX
  8
0
  6
CONTINUOUS
 10
4.204640
 20
1.750760
  0
SEQEND
  8
0
  0
SOLID
  8
0
 62
    15
 10
4.245120
 20
1.740200
 11
4.994440
 21
1.741520
 12
4.245120
 22
1.679920
 13
4.994440
 23
1.681680
  0
POLYLINE
  8
0
  6
CONTINUOUS
 66
     1
 40
0.000000
 41
0.000000
  0
VERTEX
  8
0
  6
CONTINUOUS
 10
4.245120
 20
1.740200
  0
VERTEX
  8
0
  6
CONTINUOUS
 10
4.994440
 20
1.741520
  0
VERTEX
  8
0
  6
CONTINUOUS
 10
4.994440
 20
1.681680
  0
VERTEX
  8
0
  6
CONTINUOUS
 10
4.245120
 20
1.679920
  0
VERTEX
  8
0
  6
CONTINUOUS
 10
4.245120
 20
1.740200
  0
SEQEND
  8
0
  0
SOLID
  8
0
 62
    15
 10
4.245120
 20
1.679920
 11
4.994440
 21
1.681680
 12
4.295720
 22
1.664960
 13
5.044600
 23
1.666280
  0
POLYLINE
  8
0
  6
CONTINUOUS
 66
     1
 40
0.000000
 41
0.000000
  0
VERTEX
  8
0
  6
CONTINUOUS
 10
4.245120
 20
1.679920
  0
VERTEX
  8
0
  6
CONTINUOUS
 10
4.994440
 20
1.681680
  0
VERTEX
  8
0
  6
CONTINUOUS
 10
5.044600
 20
1.666280
  0
VERTEX
  8
0
  6
CONTINUOUS
 10
4.295720
 20
1.664960
  0
VERTEX
  8
0
  6
CONTINUOUS
 10
4.245120
 20
1.679920
  0
SEQEND
  8
0
  0
SOLID
  8
0
 62
    15
 10
4.295720
 20
1.664960
 11
5.044600
 21
1.666280
 12
4.336200
 22
1.647800
 13
5.085520
 23
1.649120
  0
POLYLINE
  8
0
  6
CONTINUOUS
 66
     1
 40
0.000000
 41
0.000000
  0
VERTEX
  8
0
  6
CONTINUOUS
 10
4.295720
 20
1.664960
  0
VERTEX
  8
0
  6
CONTINUOUS
 10
5.044600
 20
1.666280
  0
VERTEX
  8
0
  6
CONTINUOUS
 10
5.085520
 20
1.649120
  0
VERTEX
  8
0
  6
CONTINUOUS
 10
4.336200
 20
1.647800
  0
VERTEX
  8
0
  6
CONTINUOUS
 10
4.295720
 20
1.664960
  0
SEQEND
  8
0
  0
SOLID
  8
0
 62
    15
 10
4.336200
 20
1.647800
 11
5.085520
 21
1.649120
 12
4.368320
 22
1.628880
 13
5.117640
 23
1.630200
  0
POLYLINE
  8
0
  6
CONTINUOUS
 66
     1
 40
0.000000
 41
0.000000
  0
VERTEX
  8
0
  6
CONTINUOUS
 10
4.336200
 20
1.647800
  0
VERTEX
  8
0
  6
CONTINUOUS
 10
5.085520
 20
1.649120
  0
VERTEX
  8
0
  6
CONTINUOUS
 10
5.117640
 20
1.630200
  0
VERTEX
  8
0
  6
CONTINUOUS
 10
4.368320
 20
1.628880
  0
VERTEX
  8
0
  6
CONTINUOUS
 10
4.336200
 20
1.647800
  0
SEQEND
  8
0
  0
SOLID
  8
0
 62
    15
 10
4.368320
 20
1.628880
 11
5.117640
 21
1.630200
 12
4.392520
 22
1.608640
 13
5.141400
 23
1.609960
  0
POLYLINE
  8
0
  6
CONTINUOUS
 66
     1
 40
0.000000
 41
0.000000
  0
VERTEX
  8
0
  6
CONTINUOUS
 10
4.368320
 20
1.628880
  0
VERTEX
  8
0
  6
CONTINUOUS
 10
5.117640
 20
1.630200
  0
VERTEX
  8
0
  6
CONTINUOUS
 10
5.141400
 20
1.609960
  0
VERTEX
  8
0
  6
CONTINUOUS
 10
4.392520
 20
1.608640
  0
VERTEX
  8
0
  6
CONTINUOUS
 10
4.368320
 20
1.628880
  0
SEQEND
  8
0
  0
SOLID
  8
0
 62
    15
 10
4.392520
 20
1.608640
 11
5.141400
 21
1.609960
 12
4.408800
 22
1.587960
 13
5.158120
 23
1.589280
  0
POLYLINE
  8
0
  6
CONTINUOUS
 66
     1
 40
0.000000
 41
0.000000
  0
VERTEX
  8
0
  6
CONTINUOUS
 10
4.392520
 20
1.608640
  0
VERTEX
  8
0
  6
CONTINUOUS
 10
5.141400
 20
1.609960
  0
VERTEX
  8
0
  6
CONTINUOUS
 10
5.158120
 20
1.589280
  0
VERTEX
  8
0
  6
CONTINUOUS
 10
4.408800
 20
1.587960
  0
VERTEX
  8
0
  6
CONTINUOUS
 10
4.392520
 20
1.608640
  0
SEQEND
  8
0
  0
SOLID
  8
0
 62
     7
 10
4.408800
 20
1.587960
 11
5.158120
 21
1.589280
 12
4.418920
 22
1.566400
 13
5.167800
 23
1.567720
  0
POLYLINE
  8
0
  6
CONTINUOUS
 66
     1
 40
0.000000
 41
0.000000
  0
VERTEX
  8
0
  6
CONTINUOUS
 10
4.408800
 20
1.587960
  0
VERTEX
  8
0
  6
CONTINUOUS
 10
5.158120
 20
1.589280
  0
VERTEX
  8
0
  6
CONTINUOUS
 10
5.167800
 20
1.567720
  0
VERTEX
  8
0
  6
CONTINUOUS
 10
4.418920
 20
1.566400
  0
VERTEX
  8
0
  6
CONTINUOUS
 10
4.408800
 20
1.587960
  0
SEQEND
  8
0
  0
SOLID
  8
0
 62
    15
 10
4.418920
 20
1.566400
 11
5.167800
 21
1.567720
 12
4.422880
 22
1.545280
 13
5.172200
 23
1.546600
  0
POLYLINE
  8
0
  6
CONTINUOUS
 66
     1
 40
0.000000
 41
0.000000
  0
VERTEX
  8
0
  6
CONTINUOUS
 10
4.418920
 20
1.566400
  0
VERTEX
  8
0
  6
CONTINUOUS
 10
5.167800
 20
1.567720
  0
VERTEX
  8
0
  6
CONTINUOUS
 10
5.172200
 20
1.546600
  0
VERTEX
  8
0
  6
CONTINUOUS
 10
4.422880
 20
1.545280
  0
VERTEX
  8
0
  6
CONTINUOUS
 10
4.418920
 20
1.566400
  0
SEQEND
  8
0
  0
SOLID
  8
0
 62
    15
 10
4.422880
 20
1.545280
 11
5.172200
 21
1.546600
 12
4.421560
 22
1.524160
 13
5.170880
 23
1.525480
  0
POLYLINE
  8
0
  6
CONTINUOUS
 66
     1
 40
0.000000
 41
0.000000
  0
VERTEX
  8
0
  6
CONTINUOUS
 10
4.422880
 20
1.545280
  0
VERTEX
  8
0
  6
CONTINUOUS
 10
5.172200
 20
1.546600
  0
VERTEX
  8
0
  6
CONTINUOUS
 10
5.170880
 20
1.525480
  0
VERTEX
  8
0
  6
CONTINUOUS
 10
4.421560
 20
1.524160
  0
VERTEX
  8
0
  6
CONTINUOUS
 10
4.422880
 20
1.545280
  0
SEQEND
  8
0
  0
SOLID
  8
0
 62
    15
 10
4.421560
 20
1.524160
 11
5.170880
 21
1.525480
 12
4.407480
 22
1.485440
 13
5.156360
 23
1.486760
  0
POLYLINE
  8
0
  6
CONTINUOUS
 66
     1
 40
0.000000
 41
0.000000
  0
VERTEX
  8
0
  6
CONTINUOUS
 10
4.421560
 20
1.524160
  0
VERTEX
  8
0
  6
CONTINUOUS
 10
5.170880
 20
1.525480
  0
VERTEX
  8
0
  6
CONTINUOUS
 10
5.156360
 20
1.486760
  0
VERTEX
  8
0
  6
CONTINUOUS
 10
4.407480
 20
1.485440
  0
VERTEX
  8
0
  6
CONTINUOUS
 10
4.421560
 20
1.524160
  0
SEQEND
  8
0
  0
SOLID
  8
0
 62
    15
 10
4.407480
 20
1.485440
 11
5.156360
 21
1.486760
 12
4.381080
 22
1.452880
 13
5.130400
 23
1.454640
  0
POLYLINE
  8
0
  6
CONTINUOUS
 66
     1
 40
0.000000
 41
0.000000
  0
VERTEX
  8
0
  6
CONTINUOUS
 10
4.407480
 20
1.485440
  0
VERTEX
  8
0
  6
CONTINUOUS
 10
5.156360
 20
1.486760
  0
VERTEX
  8
0
  6
CONTINUOUS
 10
5.130400
 20
1.454640
  0
VERTEX
  8
0
  6
CONTINUOUS
 10
4.381080
 20
1.452880
  0
VERTEX
  8
0
  6
CONTINUOUS
 10
4.407480
 20
1.485440
  0
SEQEND
  8
0
  0
SOLID
  8
0
 62
    15
 10
4.381080
 20
1.452880
 11
5.130400
 21
1.454640
 12
4.349840
 22
1.430440
 13
5.098720
 23
1.432200
  0
POLYLINE
  8
0
  6
CONTINUOUS
 66
     1
 40
0.000000
 41
0.000000
  0
VERTEX
  8
0
  6
CONTINUOUS
 10
4.381080
 20
1.452880
  0
VERTEX
  8
0
  6
CONTINUOUS
 10
5.130400
 20
1.454640
  0
VERTEX
  8
0
  6
CONTINUOUS
 10
5.098720
 20
1.432200
  0
VERTEX
  8
0
  6
CONTINUOUS
 10
4.349840
 20
1.430440
  0
VERTEX
  8
0
  6
CONTINUOUS
 10
4.381080
 20
1.452880
  0
SEQEND
  8
0
  0
SOLID
  8
0
 62
    15
 10
4.349840
 20
1.430440
 11
5.098720
 21
1.432200
 12
4.318600
 22
1.421200
 13
5.067480
 23
1.422960
  0
POLYLINE
  8
0
  6
CONTINUOUS
 66
     1
 40
0.000000
 41
0.000000
  0
VERTEX
  8
0
  6
CONTINUOUS
 10
4.349840
 20
1.430440
  0
VERTEX
  8
0
  6
CONTINUOUS
 10
5.098720
 20
1.432200
  0
VERTEX
  8
0
  6
CONTINUOUS
 10
5.067480
 20
1.422960
  0
VERTEX
  8
0
  6
CONTINUOUS
 10
4.318600
 20
1.421200
  0
VERTEX
  8
0
  6
CONTINUOUS
 10
4.349840
 20
1.430440
  0
SEQEND
  8
0
  0
SOLID
  8
0
 62
    15
 10
4.318600
 20
1.421200
 11
5.067480
 21
1.422960
 12
4.308920
 22
1.419440
 13
5.057800
 23
1.420760
  0
POLYLINE
  8
0
  6
CONTINUOUS
 66
     1
 40
0.000000
 41
0.000000
  0
VERTEX
  8
0
  6
CONTINUOUS
 10
4.318600
 20
1.421200
  0
VERTEX
  8
0
  6
CONTINUOUS
 10
5.067480
 20
1.422960
  0
VERTEX
  8
0
  6
CONTINUOUS
 10
5.057800
 20
1.420760
  0
VERTEX
  8
0
  6
CONTINUOUS
 10
4.308920
 20
1.419440
  0
VERTEX
  8
0
  6
CONTINUOUS
 10
4.318600
 20
1.421200
  0
SEQEND
  8
0
  0
SOLID
  8
0
 62
    15
 10
4.308920
 20
1.419440
 11
5.057800
 21
1.420760
 12
4.294400
 22
1.415920
 13
5.043720
 23
1.417240
  0
POLYLINE
  8
0
  6
CONTINUOUS
 66
     1
 40
0.000000
 41
0.000000
  0
VERTEX
  8
0
  6
CONTINUOUS
 10
4.308920
 20
1.419440
  0
VERTEX
  8
0
  6
CONTINUOUS
 10
5.057800
 20
1.420760
  0
VERTEX
  8
0
  6
CONTINUOUS
 10
5.043720
 20
1.417240
  0
VERTEX
  8
0
  6
CONTINUOUS
 10
4.294400
 20
1.415920
  0
VERTEX
  8
0
  6
CONTINUOUS
 10
4.308920
 20
1.419440
  0
SEQEND
  8
0
  0
SOLID
  8
0
 62
    15
 10
4.294400
 20
1.415920
 11
5.043720
 21
1.417240
 12
4.260080
 22
1.404920
 13
5.009400
 23
1.406680
  0
POLYLINE
  8
0
  6
CONTINUOUS
 66
     1
 40
0.000000
 41
0.000000
  0
VERTEX
  8
0
  6
CONTINUOUS
 10
4.294400
 20
1.415920
  0
VERTEX
  8
0
  6
CONTINUOUS
 10
5.043720
 20
1.417240
  0
VERTEX
  8
0
  6
CONTINUOUS
 10
5.009400
 20
1.406680
  0
VERTEX
  8
0
  6
CONTINUOUS
 10
4.260080
 20
1.404920
  0
VERTEX
  8
0
  6
CONTINUOUS
 10
4.294400
 20
1.415920
  0
SEQEND
  8
0
  0
SOLID
  8
0
 62
    15
 10
4.260080
 20
1.404920
 11
5.009400
 21
1.406680
 12
4.229280
 22
1.388640
 13
4.978600
 23
1.390400
  0
POLYLINE
  8
0
  6
CONTINUOUS
 66
     1
 40
0.000000
 41
0.000000
  0
VERTEX
  8
0
  6
CONTINUOUS
 10
4.260080
 20
1.404920
  0
VERTEX
  8
0
  6
CONTINUOUS
 10
5.009400
 20
1.406680
  0
VERTEX
  8
0
  6
CONTINUOUS
 10
4.978600
 20
1.390400
  0
VERTEX
  8
0
  6
CONTINUOUS
 10
4.229280
 20
1.388640
  0
VERTEX
  8
0
  6
CONTINUOUS
 10
4.260080
 20
1.404920
  0
SEQEND
  8
0
  0
SOLID
  8
0
 62
    15
 10
4.229280
 20
1.388640
 11
4.978600
 21
1.390400
 12
4.219600
 22
1.378520
 13
4.968480
 23
1.379840
  0
POLYLINE
  8
0
  6
CONTINUOUS
 66
     1
 40
0.000000
 41
0.000000
  0
VERTEX
  8
0
  6
CONTINUOUS
 10
4.229280
 20
1.388640
  0
VERTEX
  8
0
  6
CONTINUOUS
 10
4.978600
 20
1.390400
  0
VERTEX
  8
0
  6
CONTINUOUS
 10
4.968480
 20
1.379840
  0
VERTEX
  8
0
  6
CONTINUOUS
 10
4.219600
 20
1.378520
  0
VERTEX
  8
0
  6
CONTINUOUS
 10
4.229280
 20
1.388640
  0
SEQEND
  8
0
  0
SOLID
  8
0
 62
    15
 10
4.219600
 20
1.378520
 11
4.968480
 21
1.379840
 12
4.215640
 22
1.366640
 13
4.964960
 23
1.367960
  0
POLYLINE
  8
0
  6
CONTINUOUS
 66
     1
 40
0.000000
 41
0.000000
  0
VERTEX
  8
0
  6
CONTINUOUS
 10
4.219600
 20
1.378520
  0
VERTEX
  8
0
  6
CONTINUOUS
 10
4.968480
 20
1.379840
  0
VERTEX
  8
0
  6
CONTINUOUS
 10
4.964960
 20
1.367960
  0
VERTEX
  8
0
  6
CONTINUOUS
 10
4.215640
 20
1.366640
  0
VERTEX
  8
0
  6
CONTINUOUS
 10
4.219600
 20
1.378520
  0
SEQEND
  8
0
  0
POLYLINE
  8
0
  6
CONTINUOUS
 66
     1
 40
0.000000
 41
0.000000
  0
VERTEX
  8
0
  6
CONTINUOUS
 10
4.215640
 20
1.367960
  0
VERTEX
  8
0
  6
CONTINUOUS
 10
4.215640
 20
1.312080
  0
VERTEX
  8
0
  6
CONTINUOUS
 10
4.167240
 20
1.294920
  0
VERTEX
  8
0
  6
CONTINUOUS
 10
4.129400
 20
1.277320
  0
VERTEX
  8
0
  6
CONTINUOUS
 10
4.100360
 20
1.257960
  0
VERTEX
  8
0
  6
CONTINUOUS
 10
4.077920
 20
1.236400
  0
VERTEX
  8
0
  6
CONTINUOUS
 10
4.061640
 20
1.211320
  0
VERTEX
  8
0
  6
CONTINUOUS
 10
4.050200
 20
1.181840
  0
VERTEX
  8
0
  6
CONTINUOUS
 10
4.041840
 20
1.146200
  0
VERTEX
  8
0
  6
CONTINUOUS
 10
4.035680
 20
1.103960
  0
VERTEX
  8
0
  6
CONTINUOUS
 10
3.770360
 20
1.103960
  0
VERTEX
  8
0
  6
CONTINUOUS
 10
3.770360
 20
3.174600
  0
VERTEX
  8
0
  6
CONTINUOUS
 10
4.409240
 20
3.174600
  0
VERTEX
  8
0
  6
CONTINUOUS
 10
4.491520
 20
3.166680
  0
VERTEX
  8
0
  6
CONTINUOUS
 10
4.568520
 20
3.142920
  0
VERTEX
  8
0
  6
CONTINUOUS
 10
4.637600
 20
3.105520
  0
VERTEX
  8
0
  6
CONTINUOUS
 10
4.697440
 20
3.055800
  0
VERTEX
  8
0
  6
CONTINUOUS
 10
4.746720
 20
2.995520
  0
VERTEX
  8
0
  6
CONTINUOUS
 10
4.784120
 20
2.926000
  0
VERTEX
  8
0
  6
CONTINUOUS
 10
4.807440
 20
2.849440
  0
VERTEX
  8
0
  6
CONTINUOUS
 10
4.815800
 20
2.766720
  0
VERTEX
  8
0
  6
CONTINUOUS
 10
4.809200
 20
2.693240
  0
VERTEX
  8
0
  6
CONTINUOUS
 10
4.790720
 20
2.624160
  0
VERTEX
  8
0
  6
CONTINUOUS
 10
4.760800
 20
2.560360
  0
VERTEX
  8
0
  6
CONTINUOUS
 10
4.721200
 20
2.502720
  0
VERTEX
  8
0
  6
CONTINUOUS
 10
4.672360
 20
2.453000
  0
VERTEX
  8
0
  6
CONTINUOUS
 10
4.616040
 20
2.411640
  0
VERTEX
  8
0
  6
CONTINUOUS
 10
4.553560
 20
2.380400
  0
VERTEX
  8
0
  6
CONTINUOUS
 10
4.483600
 20
2.358840
  0
VERTEX
  8
0
  6
CONTINUOUS
 10
4.483600
 20
2.242680
  0
VERTEX
  8
0
  6
CONTINUOUS
 10
4.418040
 20
2.228160
  0
VERTEX
  8
0
  6
CONTINUOUS
 10
4.357760
 20
2.212760
  0
VERTEX
  8
0
  6
CONTINUOUS
 10
4.303200
 20
2.196920
  0
VERTEX
  8
0
  6
CONTINUOUS
 10
4.253920
 20
2.179760
  0
VERTEX
  8
0
  6
CONTINUOUS
 10
4.209920
 20
2.162160
  0
VERTEX
  8
0
  6
CONTINUOUS
 10
4.170760
 20
2.144120
  0
VERTEX
  8
0
  6
CONTINUOUS
 10
4.106520
 20
2.106720
  0
VERTEX
  8
0
  6
CONTINUOUS
 10
4.059880
 20
2.068000
  0
VERTEX
  8
0
  6
CONTINUOUS
 10
4.029080
 20
2.028400
  0
VERTEX
  8
0
  6
CONTINUOUS
 10
4.012800
 20
1.989240
  0
VERTEX
  8
0
  6
CONTINUOUS
 10
4.008840
 20
1.950520
  0
VERTEX
  8
0
  6
CONTINUOUS
 10
4.016320
 20
1.912680
  0
VERTEX
  8
0
  6
CONTINUOUS
 10
4.033040
 20
1.877480
  0
VERTEX
  8
0
  6
CONTINUOUS
 10
4.058120
 20
1.844480
  0
VERTEX
  8
0
  6
CONTINUOUS
 10
4.088920
 20
1.814560
  0
VERTEX
  8
0
  6
CONTINUOUS
 10
4.125000
 20
1.788600
  0
VERTEX
  8
0
  6
CONTINUOUS
 10
4.164160
 20
1.767040
  0
VERTEX
  8
0
  6
CONTINUOUS
 10
4.204640
 20
1.750760
  0
VERTEX
  8
0
  6
CONTINUOUS
 10
4.245120
 20
1.740200
  0
VERTEX
  8
0
  6
CONTINUOUS
 10
4.245120
 20
1.679920
  0
VERTEX
  8
0
  6
CONTINUOUS
 10
4.295720
 20
1.664960
  0
VERTEX
  8
0
  6
CONTINUOUS
 10
4.336200
 20
1.647800
  0
VERTEX
  8
0
  6
CONTINUOUS
 10
4.368320
 20
1.628880
  0
VERTEX
  8
0
  6
CONTINUOUS
 10
4.392520
 20
1.608640
  0
VERTEX
  8
0
  6
CONTINUOUS
 10
4.408800
 20
1.587960
  0
VERTEX
  8
0
  6
CONTINUOUS
 10
4.418920
 20
1.566400
  0
VERTEX
  8
0
  6
CONTINUOUS
 10
4.422880
 20
1.545280
  0
VERTEX
  8
0
  6
CONTINUOUS
 10
4.421560
 20
1.524160
  0
VERTEX
  8
0
  6
CONTINUOUS
 10
4.407480
 20
1.485440
  0
VERTEX
  8
0
  6
CONTINUOUS
 10
4.381080
 20
1.452880
  0
VERTEX
  8
0
  6
CONTINUOUS
 10
4.349840
 20
1.430440
  0
VERTEX
  8
0
  6
CONTINUOUS
 10
4.318600
 20
1.421200
  0
VERTEX
  8
0
  6
CONTINUOUS
 10
4.294400
 20
1.415920
  0
VERTEX
  8
0
  6
CONTINUOUS
 10
4.260080
 20
1.404920
  0
VERTEX
  8
0
  6
CONTINUOUS
 10
4.229280
 20
1.388640
  0
VERTEX
  8
0
  6
CONTINUOUS
 10
4.219600
 20
1.378520
  0
VERTEX
  8
0
  6
CONTINUOUS
 10
4.215640
 20
1.366640
  0
VERTEX
  8
0
  6
CONTINUOUS
 10
4.215640
 20
1.367960
  0
SEQEND
  8
0
  0
POLYLINE
  8
0
  6
CONTINUOUS
 66
     1
 40
0.014080
 41
0.014080
  0
VERTEX
  8
0
  6
CONTINUOUS
 10
7.660840
 20
2.136200
  0
VERTEX
  8
0
  6
CONTINUOUS
 10
7.717160
 20
2.136200
  0
VERTEX
  8
0
  6
CONTINUOUS
 10
7.734320
 20
2.087800
  0
VERTEX
  8
0
  6
CONTINUOUS
 10
7.751920
 20
2.049960
  0
VERTEX
  8
0
  6
CONTINUOUS
 10
7.771280
 20
2.020480
  0
VERTEX
  8
0
  6
CONTINUOUS
 10
7.781400
 20
2.008600
  0
VERTEX
  8
0
  6
CONTINUOUS
 10
7.804720
 20
1.989680
  0
VERTEX
  8
0
  6
CONTINUOUS
 10
7.817480
 20
1.982200
  0
VERTEX
  8
0
  6
CONTINUOUS
 10
7.847400
 20
1.970760
  0
VERTEX
  8
0
  6
CONTINUOUS
 10
7.864120
 20
1.965920
  0
VERTEX
  8
0
  6
CONTINUOUS
 10
7.924840
 20
1.956240
  0
VERTEX
  8
0
  6
CONTINUOUS
 10
7.924840
 20
1.690920
  0
VERTEX
  8
0
  6
CONTINUOUS
 10
5.854200
 20
1.690920
  0
VERTEX
  8
0
  6
CONTINUOUS
 10
5.854640
 20
2.350920
  0
VERTEX
  8
0
  6
CONTINUOUS
 10
5.859040
 20
2.392280
  0
VERTEX
  8
0
  6
CONTINUOUS
 10
5.866960
 20
2.431880
  0
VERTEX
  8
0
  6
CONTINUOUS
 10
5.878840
 20
2.470600
  0
VERTEX
  8
0
  6
CONTINUOUS
 10
5.894240
 20
2.507120
  0
VERTEX
  8
0
  6
CONTINUOUS
 10
5.913160
 20
2.541440
  0
VERTEX
  8
0
  6
CONTINUOUS
 10
5.934720
 20
2.574000
  0
VERTEX
  8
0
  6
CONTINUOUS
 10
5.959800
 20
2.603920
  0
VERTEX
  8
0
  6
CONTINUOUS
 10
6.002040
 20
2.644400
  0
VERTEX
  8
0
  6
CONTINUOUS
 10
6.033720
 20
2.667280
  0
VERTEX
  8
0
  6
CONTINUOUS
 10
6.067160
 20
2.687520
  0
VERTEX
  8
0
  6
CONTINUOUS
 10
6.102800
 20
2.704680
  0
VERTEX
  8
0
  6
CONTINUOUS
 10
6.140640
 20
2.718320
  0
VERTEX
  8
0
  6
CONTINUOUS
 10
6.179800
 20
2.728000
  0
VERTEX
  8
0
  6
CONTINUOUS
 10
6.220720
 20
2.734160
  0
VERTEX
  8
0
  6
CONTINUOUS
 10
6.262520
 20
2.736360
  0
VERTEX
  8
0
  6
CONTINUOUS
 10
6.299480
 20
2.734600
  0
VERTEX
  8
0
  6
CONTINUOUS
 10
6.335560
 20
2.729760
  0
VERTEX
  8
0
  6
CONTINUOUS
 10
6.370760
 20
2.721840
  0
VERTEX
  8
0
  6
CONTINUOUS
 10
6.405080
 20
2.711280
  0
VERTEX
  8
0
  6
CONTINUOUS
 10
6.453480
 20
2.689720
  0
VERTEX
  8
0
  6
CONTINUOUS
 10
6.498360
 20
2.662440
  0
VERTEX
  8
0
  6
CONTINUOUS
 10
6.539280
 20
2.630320
  0
VERTEX
  8
0
  6
CONTINUOUS
 10
6.576240
 20
2.592920
  0
VERTEX
  8
0
  6
CONTINUOUS
 10
6.607920
 20
2.551560
  0
VERTEX
  8
0
  6
CONTINUOUS
 10
6.634320
 20
2.505800
  0
VERTEX
  8
0
  6
CONTINUOUS
 10
6.655000
 20
2.456960
  0
VERTEX
  8
0
  6
CONTINUOUS
 10
6.665120
 20
2.423080
  0
VERTEX
  8
0
  6
CONTINUOUS
 10
6.669080
 20
2.405480
  0
VERTEX
  8
0
  6
CONTINUOUS
 10
6.670400
 20
2.404160
  0
VERTEX
  8
0
  6
CONTINUOUS
 10
6.782160
 20
2.404160
  0
VERTEX
  8
0
  6
CONTINUOUS
 10
6.780840
 20
2.404160
  0
VERTEX
  8
0
  6
CONTINUOUS
 10
6.786120
 20
2.404160
  0
VERTEX
  8
0
  6
CONTINUOUS
 10
6.808120
 20
2.307360
  0
VERTEX
  8
0
  6
CONTINUOUS
 10
6.832320
 20
2.223320
  0
VERTEX
  8
0
  6
CONTINUOUS
 10
6.857840
 20
2.151600
  0
VERTEX
  8
0
  6
CONTINUOUS
 10
6.884680
 20
2.091320
  0
VERTEX
  8
0
  6
CONTINUOUS
 10
6.912840
 20
2.041600
  0
VERTEX
  8
0
  6
CONTINUOUS
 10
6.941440
 20
2.001560
  0
VERTEX
  8
0
  6
CONTINUOUS
 10
6.970920
 20
1.971200
  0
VERTEX
  8
0
  6
CONTINUOUS
 10
7.000400
 20
1.949640
  0
VERTEX
  8
0
  6
CONTINUOUS
 10
7.029880
 20
1.936000
  0
VERTEX
  8
0
  6
CONTINUOUS
 10
7.059360
 20
1.929840
  0
VERTEX
  8
0
  6
CONTINUOUS
 10
7.078720
 20
1.929400
  0
VERTEX
  8
0
  6
CONTINUOUS
 10
7.097640
 20
1.932040
  0
VERTEX
  8
0
  6
CONTINUOUS
 10
7.116120
 20
1.936880
  0
VERTEX
  8
0
  6
CONTINUOUS
 10
7.134160
 20
1.944360
  0
VERTEX
  8
0
  6
CONTINUOUS
 10
7.151760
 20
1.953600
  0
VERTEX
  8
0
  6
CONTINUOUS
 10
7.168480
 20
1.965040
  0
VERTEX
  8
0
  6
CONTINUOUS
 10
7.200160
 20
1.993200
  0
VERTEX
  8
0
  6
CONTINUOUS
 10
7.228320
 20
2.027080
  0
VERTEX
  8
0
  6
CONTINUOUS
 10
7.252080
 20
2.064920
  0
VERTEX
  8
0
  6
CONTINUOUS
 10
7.271000
 20
2.104520
  0
VERTEX
  8
0
  6
CONTINUOUS
 10
7.284640
 20
2.145440
  0
VERTEX
  8
0
  6
CONTINUOUS
 10
7.289040
 20
2.165680
  0
VERTEX
  8
0
  6
CONTINUOUS
 10
7.350200
 20
2.165680
  0
VERTEX
  8
0
  6
CONTINUOUS
 10
7.348880
 20
2.165680
  0
VERTEX
  8
0
  6
CONTINUOUS
 10
7.364280
 20
2.216280
  0
VERTEX
  8
0
  6
CONTINUOUS
 10
7.381440
 20
2.257200
  0
VERTEX
  8
0
  6
CONTINUOUS
 10
7.400360
 20
2.288880
  0
VERTEX
  8
0
  6
CONTINUOUS
 10
7.420160
 20
2.313080
  0
VERTEX
  8
0
  6
CONTINUOUS
 10
7.441280
 20
2.329360
  0
VERTEX
  8
0
  6
CONTINUOUS
 10
7.462400
 20
2.339480
  0
VERTEX
  8
0
  6
CONTINUOUS
 10
7.483960
 20
2.343440
  0
VERTEX
  8
0
  6
CONTINUOUS
 10
7.494520
 20
2.343440
  0
VERTEX
  8
0
  6
CONTINUOUS
 10
7.514760
 20
2.339920
  0
VERTEX
  8
0
  6
CONTINUOUS
 10
7.534560
 20
2.332880
  0
VERTEX
  8
0
  6
CONTINUOUS
 10
7.552600
 20
2.322320
  0
VERTEX
  8
0
  6
CONTINUOUS
 10
7.575920
 20
2.301640
  0
VERTEX
  8
0
  6
CONTINUOUS
 10
7.593960
 20
2.278320
  0
VERTEX
  8
0
  6
CONTINUOUS
 10
7.604960
 20
2.254120
  0
VERTEX
  8
0
  6
CONTINUOUS
 10
7.613320
 20
2.214960
  0
VERTEX
  8
0
  6
CONTINUOUS
 10
7.623880
 20
2.180640
  0
VERTEX
  8
0
  6
CONTINUOUS
 10
7.635760
 20
2.156440
  0
VERTEX
  8
0
  6
CONTINUOUS
 10
7.645000
 20
2.144120
  0
VERTEX
  8
0
  6
CONTINUOUS
 10
7.656000
 20
2.137080
  0
VERTEX
  8
0
  6
CONTINUOUS
 10
7.662160
 20
2.136200
  0
VERTEX
  8
0
  6
CONTINUOUS
 10
7.660840
 20
2.136200
  0
SEQEND
  8
0
  0
TEXT
  8
0
 10
6.088280
 20
1.937760
 40
0.138127
  1
BA  140
 41
1.000000
  7
SN0
 71
     0
 72
     5
 11
6.678300
 21
1.937760
  0
TEXT
  8
0
 10
5.955840
 20
1.746360
 40
0.138127
  1
1" x 2-1/16"
 41
1.000000
  7
SN0
 71
     0
 72
     5
 11
6.809756
 21
1.746360
  0
ENDSEC
  0
EOF
