  0
SECTION
  2
HEADER
  9
$ACADVER
  1
AC1006
  9
$EXTMIN
 10
2.144560
 20
1.254880
  9
$EXTMAX
 10
4.601960
 20
3.959120
  9
$LTSCALE
 40
0.044000
  9
$PDMODE
 70
    35
  9
$PDSIZE
 40
0.035200
  0
ENDSEC
  0
SECTION
  2
TABLES
  0
TABLE
  2
LTYPE
 70
     9
  0
LTYPE
  2
CONTINUOUS
 70
    64
  3
Solid line
 72
    65
 73
     0
 40
0.000000
  0
LTYPE
  2
DASHED
 70
    64
  3
__ __ __ __ __ __ __ __ __ __ __ __ __ __ __
 72
    65
 73
     2
 40
0.000330
 49
0.000220
 49
-0.000110
  0
LTYPE
  2
HIDDEN
 70
    64
  3
 _ _ _ _ _ _ _ _ _ _ _ _ _ _ _ _ _ _ _ _ _ _
 72
    65
 73
     2
 40
0.000165
 49
0.000110
 49
-0.000055
  0
LTYPE
  2
CENTER
 70
    64
  3
____ _ ____ _ ____ _ ____ _ ____ _ ____ _ ____
 72
    65
 73
     4
 40
0.000880
 49
0.000550
 49
-0.000110
 49
0.000110
 49
-0.000110
  0
LTYPE
  2
PHANTOM
 70
    64
  3
_____ _ _ _____ _ _ _____ _ _ _____ _ _ ____
 72
    65
 73
     6
 40
0.001100
 49
0.000550
 49
-0.000110
 49
0.000110
 49
-0.000110
 49
0.000110
 49
-0.000110
  0
LTYPE
  2
DOT
 70
    64
  3
...............................................
 72
    65
 73
     2
 40
0.000110
 49
0.000000
 49
-0.000110
  0
LTYPE
  2
DASHDOT
 70
    64
  3
__ . __ . __ . __ . __ . __ . __ . __ . __ . __
 72
    65
 73
     4
 40
0.000440
 49
0.000220
 49
-0.000110
 49
0.000000
 49
-0.000110
  0
LTYPE
  2
BORDER
 70
    64
  3
__ __ . __ __ . __ __ . __ __ . __ __ . __ __
 72
    65
 73
     6
 40
0.000770
 49
0.000220
 49
-0.000110
 49
0.000220
 49
-0.000110
 49
0.000000
 49
-0.000110
  0
LTYPE
  2
DIVIDE
 70
    64
  3
__ . . __ . . __ . . __ . . __ . . __ . . __
 72
    65
 73
     6
 40
0.000550
 49
0.000220
 49
-0.000110
 49
0.000000
 49
-0.000110
 49
0.000000
 49
-0.000110
  0
LTYPE
  2
DOTDOT
 70
    64
  3
 . .  . .  . .  . .  . .  . . 
 72
    65
 73
     5
 40
0.000242
 49
-0.000110
 49
0.000000
 49
-0.000110
 49
0.000000
 49
-0.000110
  0
ENDTAB
  0
TABLE
  2
STYLE
 70
     2
  0
STYLE
 70
     0
  2
SN0
 40
0.000000
 41
0.000440
 50
0.000000
 71
     0
 42
0.000000
  3
ROMAND
  0
STYLE
 70
    68
  2
SV0
 40
0.000000
 41
0.000440
 50
0.000000
 71
     0
 42
0.000000
  3
ROMAND
  0
ENDTAB
  0
TABLE
  2
LAYER
 70
     3
  0
LAYER
  2
FOREGROUND
 70
    64
 62
     7
  6
CONTINUOUS
  0
LAYER
  2
BACKGROUND
 70
    65
 62
    -7
  6
CONTINUOUS
  0
LAYER
  2
0
 70
    64
 62
     7
  6
CONTINUOUS
  0
ENDTAB
  0
ENDSEC
  0
SECTION
  2
ENTITIES
  0
POLYLINE
  8
FOREGROUND
  6
CONTINUOUS
 66
     1
 40
0.000000
 41
0.000000
  0
VERTEX
  8
FOREGROUND
  6
CONTINUOUS
 10
0.000000
 20
5.214000
  0
VERTEX
  8
FOREGROUND
  6
CONTINUOUS
 10
8.499920
 20
5.214000
  0
VERTEX
  8
FOREGROUND
  6
CONTINUOUS
 10
8.499920
 20
-5.786000
  0
VERTEX
  8
FOREGROUND
  6
CONTINUOUS
 10
0.000000
 20
-5.786000
  0
VERTEX
  8
FOREGROUND
  6
CONTINUOUS
 10
0.000000
 20
5.214000
  0
SEQEND
  8
0
  0
POLYLINE
  8
FOREGROUND
  6
CONTINUOUS
 66
     1
 40
0.000000
 41
0.000000
  0
VERTEX
  8
FOREGROUND
  6
CONTINUOUS
 10
0.000000
 20
5.214000
  0
VERTEX
  8
FOREGROUND
  6
CONTINUOUS
 10
8.499920
 20
5.214000
  0
VERTEX
  8
FOREGROUND
  6
CONTINUOUS
 10
8.499920
 20
-5.786000
  0
VERTEX
  8
FOREGROUND
  6
CONTINUOUS
 10
0.000000
 20
-5.786000
  0
VERTEX
  8
FOREGROUND
  6
CONTINUOUS
 10
0.000000
 20
5.214000
  0
SEQEND
  8
0
  0
POLYLINE
  8
0
  6
CONTINUOUS
 66
     1
 40
0.014080
 41
0.014080
  0
VERTEX
  8
0
  6
CONTINUOUS
 10
4.466880
 20
2.768920
  0
VERTEX
  8
0
  6
CONTINUOUS
 10
4.466880
 20
2.720520
  0
VERTEX
  8
0
  6
CONTINUOUS
 10
4.594480
 20
2.629880
  0
VERTEX
  8
0
  6
CONTINUOUS
 10
4.594480
 20
2.159520
  0
VERTEX
  8
0
  6
CONTINUOUS
 10
3.905440
 20
2.159520
  0
VERTEX
  8
0
  6
CONTINUOUS
 10
3.905440
 20
3.951640
  0
VERTEX
  8
0
  6
CONTINUOUS
 10
4.201560
 20
3.951640
  0
VERTEX
  8
0
  6
CONTINUOUS
 10
4.237640
 20
3.940640
  0
VERTEX
  8
0
  6
CONTINUOUS
 10
4.268880
 20
3.926120
  0
VERTEX
  8
0
  6
CONTINUOUS
 10
4.295280
 20
3.908520
  0
VERTEX
  8
0
  6
CONTINUOUS
 10
4.316840
 20
3.888720
  0
VERTEX
  8
0
  6
CONTINUOUS
 10
4.333560
 20
3.866720
  0
VERTEX
  8
0
  6
CONTINUOUS
 10
4.346760
 20
3.843400
  0
VERTEX
  8
0
  6
CONTINUOUS
 10
4.355560
 20
3.818760
  0
VERTEX
  8
0
  6
CONTINUOUS
 10
4.360400
 20
3.793680
  0
VERTEX
  8
0
  6
CONTINUOUS
 10
4.362160
 20
3.768160
  0
VERTEX
  8
0
  6
CONTINUOUS
 10
4.360400
 20
3.743080
  0
VERTEX
  8
0
  6
CONTINUOUS
 10
4.356000
 20
3.718440
  0
VERTEX
  8
0
  6
CONTINUOUS
 10
4.343680
 20
3.683680
  0
VERTEX
  8
0
  6
CONTINUOUS
 10
4.325640
 20
3.652880
  0
VERTEX
  8
0
  6
CONTINUOUS
 10
4.303200
 20
3.627800
  0
VERTEX
  8
0
  6
CONTINUOUS
 10
4.294840
 20
3.620760
  0
VERTEX
  8
0
  6
CONTINUOUS
 10
4.276360
 20
3.574560
  0
VERTEX
  8
0
  6
CONTINUOUS
 10
4.264480
 20
3.531880
  0
VERTEX
  8
0
  6
CONTINUOUS
 10
4.258760
 20
3.492720
  0
VERTEX
  8
0
  6
CONTINUOUS
 10
4.258760
 20
3.456640
  0
VERTEX
  8
0
  6
CONTINUOUS
 10
4.261840
 20
3.433760
  0
VERTEX
  8
0
  6
CONTINUOUS
 10
4.267120
 20
3.412200
  0
VERTEX
  8
0
  6
CONTINUOUS
 10
4.274600
 20
3.391520
  0
VERTEX
  8
0
  6
CONTINUOUS
 10
4.284280
 20
3.371720
  0
VERTEX
  8
0
  6
CONTINUOUS
 10
4.295720
 20
3.352800
  0
VERTEX
  8
0
  6
CONTINUOUS
 10
4.324320
 20
3.317160
  0
VERTEX
  8
0
  6
CONTINUOUS
 10
4.359080
 20
3.283720
  0
VERTEX
  8
0
  6
CONTINUOUS
 10
4.378880
 20
3.267440
  0
VERTEX
  8
0
  6
CONTINUOUS
 10
4.417600
 20
3.243240
  0
VERTEX
  8
0
  6
CONTINUOUS
 10
4.458520
 20
3.211560
  0
VERTEX
  8
0
  6
CONTINUOUS
 10
4.498560
 20
3.173280
  0
VERTEX
  8
0
  6
CONTINUOUS
 10
4.523640
 20
3.144680
  0
VERTEX
  8
0
  6
CONTINUOUS
 10
4.555760
 20
3.097600
  0
VERTEX
  8
0
  6
CONTINUOUS
 10
4.572920
 20
3.063720
  0
VERTEX
  8
0
  6
CONTINUOUS
 10
4.585240
 20
3.028960
  0
VERTEX
  8
0
  6
CONTINUOUS
 10
4.589640
 20
3.010920
  0
VERTEX
  8
0
  6
CONTINUOUS
 10
4.592280
 20
2.992880
  0
VERTEX
  8
0
  6
CONTINUOUS
 10
4.592720
 20
2.956360
  0
VERTEX
  8
0
  6
CONTINUOUS
 10
4.590520
 20
2.937440
  0
VERTEX
  8
0
  6
CONTINUOUS
 10
4.579960
 20
2.900040
  0
VERTEX
  8
0
  6
CONTINUOUS
 10
4.561040
 20
2.862640
  0
VERTEX
  8
0
  6
CONTINUOUS
 10
4.532880
 20
2.825680
  0
VERTEX
  8
0
  6
CONTINUOUS
 10
4.494160
 20
2.789600
  0
VERTEX
  8
0
  6
CONTINUOUS
 10
4.466880
 20
2.768920
  0
SEQEND
  8
0
  0
SOLID
  8
0
 62
    15
 10
2.499640
 20
3.063280
 11
3.133680
 21
3.441680
 12
2.498320
 22
3.014440
 13
3.132360
 23
3.392840
  0
POLYLINE
  8
0
  6
CONTINUOUS
 66
     1
 40
0.000000
 41
0.000000
  0
VERTEX
  8
0
  6
CONTINUOUS
 10
2.499640
 20
3.063280
  0
VERTEX
  8
0
  6
CONTINUOUS
 10
3.133680
 20
3.441680
  0
VERTEX
  8
0
  6
CONTINUOUS
 10
3.132360
 20
3.392840
  0
VERTEX
  8
0
  6
CONTINUOUS
 10
2.498320
 20
3.014440
  0
VERTEX
  8
0
  6
CONTINUOUS
 10
2.499640
 20
3.063280
  0
SEQEND
  8
0
  0
SOLID
  8
0
 62
    15
 10
2.706440
 20
2.278320
 11
3.340480
 21
2.656720
 12
2.834480
 22
2.187680
 13
3.468520
 23
2.566080
  0
POLYLINE
  8
0
  6
CONTINUOUS
 66
     1
 40
0.000000
 41
0.000000
  0
VERTEX
  8
0
  6
CONTINUOUS
 10
2.706440
 20
2.278320
  0
VERTEX
  8
0
  6
CONTINUOUS
 10
3.340480
 20
2.656720
  0
VERTEX
  8
0
  6
CONTINUOUS
 10
3.468520
 20
2.566080
  0
VERTEX
  8
0
  6
CONTINUOUS
 10
2.834480
 20
2.187680
  0
VERTEX
  8
0
  6
CONTINUOUS
 10
2.706440
 20
2.278320
  0
SEQEND
  8
0
  0
SOLID
  8
0
 62
    15
 10
2.834480
 20
2.187680
 11
3.468520
 21
2.566080
 12
2.834480
 22
1.717320
 13
3.468520
 23
2.095720
  0
POLYLINE
  8
0
  6
CONTINUOUS
 66
     1
 40
0.000000
 41
0.000000
  0
VERTEX
  8
0
  6
CONTINUOUS
 10
2.834480
 20
2.187680
  0
VERTEX
  8
0
  6
CONTINUOUS
 10
3.468520
 20
2.566080
  0
VERTEX
  8
0
  6
CONTINUOUS
 10
3.468520
 20
2.095720
  0
VERTEX
  8
0
  6
CONTINUOUS
 10
2.834480
 20
1.717320
  0
VERTEX
  8
0
  6
CONTINUOUS
 10
2.834480
 20
2.187680
  0
SEQEND
  8
0
  0
SOLID
  8
0
 62
    15
 10
2.145000
 20
3.509000
 11
2.779040
 21
3.887840
 12
2.441120
 22
3.509000
 13
3.075160
 23
3.887840
  0
POLYLINE
  8
0
  6
CONTINUOUS
 66
     1
 40
0.000000
 41
0.000000
  0
VERTEX
  8
0
  6
CONTINUOUS
 10
2.145000
 20
3.509000
  0
VERTEX
  8
0
  6
CONTINUOUS
 10
2.779040
 20
3.887840
  0
VERTEX
  8
0
  6
CONTINUOUS
 10
3.075160
 20
3.887840
  0
VERTEX
  8
0
  6
CONTINUOUS
 10
2.441120
 20
3.509000
  0
VERTEX
  8
0
  6
CONTINUOUS
 10
2.145000
 20
3.509000
  0
SEQEND
  8
0
  0
SOLID
  8
0
 62
    15
 10
2.441120
 20
3.509000
 11
3.075160
 21
3.887840
 12
2.477200
 22
3.498000
 13
3.111240
 23
3.876400
  0
POLYLINE
  8
0
  6
CONTINUOUS
 66
     1
 40
0.000000
 41
0.000000
  0
VERTEX
  8
0
  6
CONTINUOUS
 10
2.441120
 20
3.509000
  0
VERTEX
  8
0
  6
CONTINUOUS
 10
3.075160
 20
3.887840
  0
VERTEX
  8
0
  6
CONTINUOUS
 10
3.111240
 20
3.876400
  0
VERTEX
  8
0
  6
CONTINUOUS
 10
2.477200
 20
3.498000
  0
VERTEX
  8
0
  6
CONTINUOUS
 10
2.441120
 20
3.509000
  0
SEQEND
  8
0
  0
SOLID
  8
0
 62
    15
 10
2.477200
 20
3.498000
 11
3.111240
 21
3.876400
 12
2.508440
 22
3.483480
 13
3.142480
 23
3.862320
  0
POLYLINE
  8
0
  6
CONTINUOUS
 66
     1
 40
0.000000
 41
0.000000
  0
VERTEX
  8
0
  6
CONTINUOUS
 10
2.477200
 20
3.498000
  0
VERTEX
  8
0
  6
CONTINUOUS
 10
3.111240
 20
3.876400
  0
VERTEX
  8
0
  6
CONTINUOUS
 10
3.142480
 20
3.862320
  0
VERTEX
  8
0
  6
CONTINUOUS
 10
2.508440
 20
3.483480
  0
VERTEX
  8
0
  6
CONTINUOUS
 10
2.477200
 20
3.498000
  0
SEQEND
  8
0
  0
SOLID
  8
0
 62
    15
 10
2.508440
 20
3.483480
 11
3.142480
 21
3.862320
 12
2.534840
 22
3.466320
 13
3.168880
 23
3.844720
  0
POLYLINE
  8
0
  6
CONTINUOUS
 66
     1
 40
0.000000
 41
0.000000
  0
VERTEX
  8
0
  6
CONTINUOUS
 10
2.508440
 20
3.483480
  0
VERTEX
  8
0
  6
CONTINUOUS
 10
3.142480
 20
3.862320
  0
VERTEX
  8
0
  6
CONTINUOUS
 10
3.168880
 20
3.844720
  0
VERTEX
  8
0
  6
CONTINUOUS
 10
2.534840
 20
3.466320
  0
VERTEX
  8
0
  6
CONTINUOUS
 10
2.508440
 20
3.483480
  0
SEQEND
  8
0
  0
SOLID
  8
0
 62
    15
 10
2.534840
 20
3.466320
 11
3.168880
 21
3.844720
 12
2.556400
 22
3.446520
 13
3.190440
 23
3.824920
  0
POLYLINE
  8
0
  6
CONTINUOUS
 66
     1
 40
0.000000
 41
0.000000
  0
VERTEX
  8
0
  6
CONTINUOUS
 10
2.534840
 20
3.466320
  0
VERTEX
  8
0
  6
CONTINUOUS
 10
3.168880
 20
3.844720
  0
VERTEX
  8
0
  6
CONTINUOUS
 10
3.190440
 20
3.824920
  0
VERTEX
  8
0
  6
CONTINUOUS
 10
2.556400
 20
3.446520
  0
VERTEX
  8
0
  6
CONTINUOUS
 10
2.534840
 20
3.466320
  0
SEQEND
  8
0
  0
SOLID
  8
0
 62
    15
 10
2.556400
 20
3.446520
 11
3.190440
 21
3.824920
 12
2.573560
 22
3.424520
 13
3.207160
 23
3.802920
  0
POLYLINE
  8
0
  6
CONTINUOUS
 66
     1
 40
0.000000
 41
0.000000
  0
VERTEX
  8
0
  6
CONTINUOUS
 10
2.556400
 20
3.446520
  0
VERTEX
  8
0
  6
CONTINUOUS
 10
3.190440
 20
3.824920
  0
VERTEX
  8
0
  6
CONTINUOUS
 10
3.207160
 20
3.802920
  0
VERTEX
  8
0
  6
CONTINUOUS
 10
2.573560
 20
3.424520
  0
VERTEX
  8
0
  6
CONTINUOUS
 10
2.556400
 20
3.446520
  0
SEQEND
  8
0
  0
SOLID
  8
0
 62
    15
 10
2.573560
 20
3.424520
 11
3.207160
 21
3.802920
 12
2.586320
 22
3.401200
 13
3.220360
 23
3.779600
  0
POLYLINE
  8
0
  6
CONTINUOUS
 66
     1
 40
0.000000
 41
0.000000
  0
VERTEX
  8
0
  6
CONTINUOUS
 10
2.573560
 20
3.424520
  0
VERTEX
  8
0
  6
CONTINUOUS
 10
3.207160
 20
3.802920
  0
VERTEX
  8
0
  6
CONTINUOUS
 10
3.220360
 20
3.779600
  0
VERTEX
  8
0
  6
CONTINUOUS
 10
2.586320
 20
3.401200
  0
VERTEX
  8
0
  6
CONTINUOUS
 10
2.573560
 20
3.424520
  0
SEQEND
  8
0
  0
SOLID
  8
0
 62
    15
 10
2.586320
 20
3.401200
 11
3.220360
 21
3.779600
 12
2.595120
 22
3.376560
 13
3.229160
 23
3.754960
  0
POLYLINE
  8
0
  6
CONTINUOUS
 66
     1
 40
0.000000
 41
0.000000
  0
VERTEX
  8
0
  6
CONTINUOUS
 10
2.586320
 20
3.401200
  0
VERTEX
  8
0
  6
CONTINUOUS
 10
3.220360
 20
3.779600
  0
VERTEX
  8
0
  6
CONTINUOUS
 10
3.229160
 20
3.754960
  0
VERTEX
  8
0
  6
CONTINUOUS
 10
2.595120
 20
3.376560
  0
VERTEX
  8
0
  6
CONTINUOUS
 10
2.586320
 20
3.401200
  0
SEQEND
  8
0
  0
SOLID
  8
0
 62
    15
 10
2.595120
 20
3.376560
 11
3.229160
 21
3.754960
 12
2.600400
 22
3.351480
 13
3.234000
 23
3.729880
  0
POLYLINE
  8
0
  6
CONTINUOUS
 66
     1
 40
0.000000
 41
0.000000
  0
VERTEX
  8
0
  6
CONTINUOUS
 10
2.595120
 20
3.376560
  0
VERTEX
  8
0
  6
CONTINUOUS
 10
3.229160
 20
3.754960
  0
VERTEX
  8
0
  6
CONTINUOUS
 10
3.234000
 20
3.729880
  0
VERTEX
  8
0
  6
CONTINUOUS
 10
2.600400
 20
3.351480
  0
VERTEX
  8
0
  6
CONTINUOUS
 10
2.595120
 20
3.376560
  0
SEQEND
  8
0
  0
SOLID
  8
0
 62
    15
 10
2.600400
 20
3.351480
 11
3.234000
 21
3.729880
 12
2.599960
 22
3.300440
 13
3.234000
 23
3.679280
  0
POLYLINE
  8
0
  6
CONTINUOUS
 66
     1
 40
0.000000
 41
0.000000
  0
VERTEX
  8
0
  6
CONTINUOUS
 10
2.600400
 20
3.351480
  0
VERTEX
  8
0
  6
CONTINUOUS
 10
3.234000
 20
3.729880
  0
VERTEX
  8
0
  6
CONTINUOUS
 10
3.234000
 20
3.679280
  0
VERTEX
  8
0
  6
CONTINUOUS
 10
2.599960
 20
3.300440
  0
VERTEX
  8
0
  6
CONTINUOUS
 10
2.600400
 20
3.351480
  0
SEQEND
  8
0
  0
SOLID
  8
0
 62
    15
 10
2.599960
 20
3.300440
 11
3.234000
 21
3.679280
 12
2.588080
 22
3.252480
 13
3.221680
 23
3.630880
  0
POLYLINE
  8
0
  6
CONTINUOUS
 66
     1
 40
0.000000
 41
0.000000
  0
VERTEX
  8
0
  6
CONTINUOUS
 10
2.599960
 20
3.300440
  0
VERTEX
  8
0
  6
CONTINUOUS
 10
3.234000
 20
3.679280
  0
VERTEX
  8
0
  6
CONTINUOUS
 10
3.221680
 20
3.630880
  0
VERTEX
  8
0
  6
CONTINUOUS
 10
2.588080
 20
3.252480
  0
VERTEX
  8
0
  6
CONTINUOUS
 10
2.599960
 20
3.300440
  0
SEQEND
  8
0
  0
SOLID
  8
0
 62
    15
 10
2.588080
 20
3.252480
 11
3.221680
 21
3.630880
 12
2.565200
 22
3.210680
 13
3.199240
 23
3.589080
  0
POLYLINE
  8
0
  6
CONTINUOUS
 66
     1
 40
0.000000
 41
0.000000
  0
VERTEX
  8
0
  6
CONTINUOUS
 10
2.588080
 20
3.252480
  0
VERTEX
  8
0
  6
CONTINUOUS
 10
3.221680
 20
3.630880
  0
VERTEX
  8
0
  6
CONTINUOUS
 10
3.199240
 20
3.589080
  0
VERTEX
  8
0
  6
CONTINUOUS
 10
2.565200
 20
3.210680
  0
VERTEX
  8
0
  6
CONTINUOUS
 10
2.588080
 20
3.252480
  0
SEQEND
  8
0
  0
SOLID
  8
0
 62
    15
 10
2.565200
 20
3.210680
 11
3.199240
 21
3.589080
 12
2.550680
 22
3.193080
 13
3.184720
 23
3.571480
  0
POLYLINE
  8
0
  6
CONTINUOUS
 66
     1
 40
0.000000
 41
0.000000
  0
VERTEX
  8
0
  6
CONTINUOUS
 10
2.565200
 20
3.210680
  0
VERTEX
  8
0
  6
CONTINUOUS
 10
3.199240
 20
3.589080
  0
VERTEX
  8
0
  6
CONTINUOUS
 10
3.184720
 20
3.571480
  0
VERTEX
  8
0
  6
CONTINUOUS
 10
2.550680
 20
3.193080
  0
VERTEX
  8
0
  6
CONTINUOUS
 10
2.565200
 20
3.210680
  0
SEQEND
  8
0
  0
SOLID
  8
0
 62
    15
 10
2.550680
 20
3.193080
 11
3.184720
 21
3.571480
 12
2.534400
 22
3.178560
 13
3.168440
 23
3.556960
  0
POLYLINE
  8
0
  6
CONTINUOUS
 66
     1
 40
0.000000
 41
0.000000
  0
VERTEX
  8
0
  6
CONTINUOUS
 10
2.550680
 20
3.193080
  0
VERTEX
  8
0
  6
CONTINUOUS
 10
3.184720
 20
3.571480
  0
VERTEX
  8
0
  6
CONTINUOUS
 10
3.168440
 20
3.556960
  0
VERTEX
  8
0
  6
CONTINUOUS
 10
2.534400
 20
3.178560
  0
VERTEX
  8
0
  6
CONTINUOUS
 10
2.550680
 20
3.193080
  0
SEQEND
  8
0
  0
SOLID
  8
0
 62
    15
 10
2.534400
 20
3.178560
 11
3.168440
 21
3.556960
 12
2.521200
 22
3.147320
 13
3.155240
 23
3.525720
  0
POLYLINE
  8
0
  6
CONTINUOUS
 66
     1
 40
0.000000
 41
0.000000
  0
VERTEX
  8
0
  6
CONTINUOUS
 10
2.534400
 20
3.178560
  0
VERTEX
  8
0
  6
CONTINUOUS
 10
3.168440
 20
3.556960
  0
VERTEX
  8
0
  6
CONTINUOUS
 10
3.155240
 20
3.525720
  0
VERTEX
  8
0
  6
CONTINUOUS
 10
2.521200
 20
3.147320
  0
VERTEX
  8
0
  6
CONTINUOUS
 10
2.534400
 20
3.178560
  0
SEQEND
  8
0
  0
SOLID
  8
0
 62
    15
 10
2.521200
 20
3.147320
 11
3.155240
 21
3.525720
 12
2.511520
 22
3.117840
 13
3.145120
 23
3.496240
  0
POLYLINE
  8
0
  6
CONTINUOUS
 66
     1
 40
0.000000
 41
0.000000
  0
VERTEX
  8
0
  6
CONTINUOUS
 10
2.521200
 20
3.147320
  0
VERTEX
  8
0
  6
CONTINUOUS
 10
3.155240
 20
3.525720
  0
VERTEX
  8
0
  6
CONTINUOUS
 10
3.145120
 20
3.496240
  0
VERTEX
  8
0
  6
CONTINUOUS
 10
2.511520
 20
3.117840
  0
VERTEX
  8
0
  6
CONTINUOUS
 10
2.521200
 20
3.147320
  0
SEQEND
  8
0
  0
SOLID
  8
0
 62
    15
 10
2.511520
 20
3.117840
 11
3.145120
 21
3.496240
 12
2.499640
 22
3.063280
 13
3.133680
 23
3.441680
  0
POLYLINE
  8
0
  6
CONTINUOUS
 66
     1
 40
0.000000
 41
0.000000
  0
VERTEX
  8
0
  6
CONTINUOUS
 10
2.511520
 20
3.117840
  0
VERTEX
  8
0
  6
CONTINUOUS
 10
3.145120
 20
3.496240
  0
VERTEX
  8
0
  6
CONTINUOUS
 10
3.133680
 20
3.441680
  0
VERTEX
  8
0
  6
CONTINUOUS
 10
2.499640
 20
3.063280
  0
VERTEX
  8
0
  6
CONTINUOUS
 10
2.511520
 20
3.117840
  0
SEQEND
  8
0
  0
SOLID
  8
0
 62
    15
 10
2.706440
 20
2.326720
 11
3.340480
 21
2.705120
 12
2.706440
 22
2.278320
 13
3.340480
 23
2.656720
  0
POLYLINE
  8
0
  6
CONTINUOUS
 66
     1
 40
0.000000
 41
0.000000
  0
VERTEX
  8
0
  6
CONTINUOUS
 10
2.706440
 20
2.326720
  0
VERTEX
  8
0
  6
CONTINUOUS
 10
3.340480
 20
2.705120
  0
VERTEX
  8
0
  6
CONTINUOUS
 10
3.340480
 20
2.656720
  0
VERTEX
  8
0
  6
CONTINUOUS
 10
2.706440
 20
2.278320
  0
VERTEX
  8
0
  6
CONTINUOUS
 10
2.706440
 20
2.326720
  0
SEQEND
  8
0
  0
SOLID
  8
0
 62
    15
 10
2.498320
 20
3.014440
 11
3.132360
 21
3.392840
 12
2.506680
 22
2.970000
 13
3.140720
 23
3.348400
  0
POLYLINE
  8
0
  6
CONTINUOUS
 66
     1
 40
0.000000
 41
0.000000
  0
VERTEX
  8
0
  6
CONTINUOUS
 10
2.498320
 20
3.014440
  0
VERTEX
  8
0
  6
CONTINUOUS
 10
3.132360
 20
3.392840
  0
VERTEX
  8
0
  6
CONTINUOUS
 10
3.140720
 20
3.348400
  0
VERTEX
  8
0
  6
CONTINUOUS
 10
2.506680
 20
2.970000
  0
VERTEX
  8
0
  6
CONTINUOUS
 10
2.498320
 20
3.014440
  0
SEQEND
  8
0
  0
SOLID
  8
0
 62
    15
 10
2.506680
 20
2.970000
 11
3.140720
 21
3.348400
 12
2.523840
 22
2.929520
 13
3.157880
 23
3.307920
  0
POLYLINE
  8
0
  6
CONTINUOUS
 66
     1
 40
0.000000
 41
0.000000
  0
VERTEX
  8
0
  6
CONTINUOUS
 10
2.506680
 20
2.970000
  0
VERTEX
  8
0
  6
CONTINUOUS
 10
3.140720
 20
3.348400
  0
VERTEX
  8
0
  6
CONTINUOUS
 10
3.157880
 20
3.307920
  0
VERTEX
  8
0
  6
CONTINUOUS
 10
2.523840
 20
2.929520
  0
VERTEX
  8
0
  6
CONTINUOUS
 10
2.506680
 20
2.970000
  0
SEQEND
  8
0
  0
SOLID
  8
0
 62
    15
 10
2.523840
 20
2.929520
 11
3.157880
 21
3.307920
 12
2.548920
 22
2.892560
 13
3.182960
 23
3.270960
  0
POLYLINE
  8
0
  6
CONTINUOUS
 66
     1
 40
0.000000
 41
0.000000
  0
VERTEX
  8
0
  6
CONTINUOUS
 10
2.523840
 20
2.929520
  0
VERTEX
  8
0
  6
CONTINUOUS
 10
3.157880
 20
3.307920
  0
VERTEX
  8
0
  6
CONTINUOUS
 10
3.182960
 20
3.270960
  0
VERTEX
  8
0
  6
CONTINUOUS
 10
2.548920
 20
2.892560
  0
VERTEX
  8
0
  6
CONTINUOUS
 10
2.523840
 20
2.929520
  0
SEQEND
  8
0
  0
SOLID
  8
0
 62
    15
 10
2.548920
 20
2.892560
 11
3.182960
 21
3.270960
 12
2.580600
 22
2.857800
 13
3.214640
 23
3.236200
  0
POLYLINE
  8
0
  6
CONTINUOUS
 66
     1
 40
0.000000
 41
0.000000
  0
VERTEX
  8
0
  6
CONTINUOUS
 10
2.548920
 20
2.892560
  0
VERTEX
  8
0
  6
CONTINUOUS
 10
3.182960
 20
3.270960
  0
VERTEX
  8
0
  6
CONTINUOUS
 10
3.214640
 20
3.236200
  0
VERTEX
  8
0
  6
CONTINUOUS
 10
2.580600
 20
2.857800
  0
VERTEX
  8
0
  6
CONTINUOUS
 10
2.548920
 20
2.892560
  0
SEQEND
  8
0
  0
SOLID
  8
0
 62
    15
 10
2.580600
 20
2.857800
 11
3.214640
 21
3.236200
 12
2.618440
 22
2.825240
 13
3.252480
 23
3.203640
  0
POLYLINE
  8
0
  6
CONTINUOUS
 66
     1
 40
0.000000
 41
0.000000
  0
VERTEX
  8
0
  6
CONTINUOUS
 10
2.580600
 20
2.857800
  0
VERTEX
  8
0
  6
CONTINUOUS
 10
3.214640
 20
3.236200
  0
VERTEX
  8
0
  6
CONTINUOUS
 10
3.252480
 20
3.203640
  0
VERTEX
  8
0
  6
CONTINUOUS
 10
2.618440
 20
2.825240
  0
VERTEX
  8
0
  6
CONTINUOUS
 10
2.580600
 20
2.857800
  0
SEQEND
  8
0
  0
SOLID
  8
0
 62
    15
 10
2.618440
 20
2.825240
 11
3.252480
 21
3.203640
 12
2.643960
 22
2.810280
 13
3.278000
 23
3.188680
  0
POLYLINE
  8
0
  6
CONTINUOUS
 66
     1
 40
0.000000
 41
0.000000
  0
VERTEX
  8
0
  6
CONTINUOUS
 10
2.618440
 20
2.825240
  0
VERTEX
  8
0
  6
CONTINUOUS
 10
3.252480
 20
3.203640
  0
VERTEX
  8
0
  6
CONTINUOUS
 10
3.278000
 20
3.188680
  0
VERTEX
  8
0
  6
CONTINUOUS
 10
2.643960
 20
2.810280
  0
VERTEX
  8
0
  6
CONTINUOUS
 10
2.618440
 20
2.825240
  0
SEQEND
  8
0
  0
SOLID
  8
0
 62
    15
 10
2.643960
 20
2.810280
 11
3.278000
 21
3.188680
 12
2.670800
 22
2.791360
 13
3.304840
 23
3.169760
  0
POLYLINE
  8
0
  6
CONTINUOUS
 66
     1
 40
0.000000
 41
0.000000
  0
VERTEX
  8
0
  6
CONTINUOUS
 10
2.643960
 20
2.810280
  0
VERTEX
  8
0
  6
CONTINUOUS
 10
3.278000
 20
3.188680
  0
VERTEX
  8
0
  6
CONTINUOUS
 10
3.304840
 20
3.169760
  0
VERTEX
  8
0
  6
CONTINUOUS
 10
2.670800
 20
2.791360
  0
VERTEX
  8
0
  6
CONTINUOUS
 10
2.643960
 20
2.810280
  0
SEQEND
  8
0
  0
SOLID
  8
0
 62
    15
 10
2.670800
 20
2.791360
 11
3.304840
 21
3.169760
 12
2.724920
 22
2.744720
 13
3.358960
 23
3.123120
  0
POLYLINE
  8
0
  6
CONTINUOUS
 66
     1
 40
0.000000
 41
0.000000
  0
VERTEX
  8
0
  6
CONTINUOUS
 10
2.670800
 20
2.791360
  0
VERTEX
  8
0
  6
CONTINUOUS
 10
3.304840
 20
3.169760
  0
VERTEX
  8
0
  6
CONTINUOUS
 10
3.358960
 20
3.123120
  0
VERTEX
  8
0
  6
CONTINUOUS
 10
2.724920
 20
2.744720
  0
VERTEX
  8
0
  6
CONTINUOUS
 10
2.670800
 20
2.791360
  0
SEQEND
  8
0
  0
SOLID
  8
0
 62
    15
 10
2.724920
 20
2.744720
 11
3.358960
 21
3.123120
 12
2.774640
 22
2.687080
 13
3.408680
 23
3.065480
  0
POLYLINE
  8
0
  6
CONTINUOUS
 66
     1
 40
0.000000
 41
0.000000
  0
VERTEX
  8
0
  6
CONTINUOUS
 10
2.724920
 20
2.744720
  0
VERTEX
  8
0
  6
CONTINUOUS
 10
3.358960
 20
3.123120
  0
VERTEX
  8
0
  6
CONTINUOUS
 10
3.408680
 20
3.065480
  0
VERTEX
  8
0
  6
CONTINUOUS
 10
2.774640
 20
2.687080
  0
VERTEX
  8
0
  6
CONTINUOUS
 10
2.724920
 20
2.744720
  0
SEQEND
  8
0
  0
SOLID
  8
0
 62
    15
 10
2.774640
 20
2.687080
 11
3.408680
 21
3.065480
 12
2.795320
 22
2.655400
 13
3.429360
 23
3.033800
  0
POLYLINE
  8
0
  6
CONTINUOUS
 66
     1
 40
0.000000
 41
0.000000
  0
VERTEX
  8
0
  6
CONTINUOUS
 10
2.774640
 20
2.687080
  0
VERTEX
  8
0
  6
CONTINUOUS
 10
3.408680
 20
3.065480
  0
VERTEX
  8
0
  6
CONTINUOUS
 10
3.429360
 20
3.033800
  0
VERTEX
  8
0
  6
CONTINUOUS
 10
2.795320
 20
2.655400
  0
VERTEX
  8
0
  6
CONTINUOUS
 10
2.774640
 20
2.687080
  0
SEQEND
  8
0
  0
SOLID
  8
0
 62
    15
 10
2.795320
 20
2.655400
 11
3.429360
 21
3.033800
 12
2.812480
 22
2.621520
 13
3.446520
 23
3.000360
  0
POLYLINE
  8
0
  6
CONTINUOUS
 66
     1
 40
0.000000
 41
0.000000
  0
VERTEX
  8
0
  6
CONTINUOUS
 10
2.795320
 20
2.655400
  0
VERTEX
  8
0
  6
CONTINUOUS
 10
3.429360
 20
3.033800
  0
VERTEX
  8
0
  6
CONTINUOUS
 10
3.446520
 20
3.000360
  0
VERTEX
  8
0
  6
CONTINUOUS
 10
2.812480
 20
2.621520
  0
VERTEX
  8
0
  6
CONTINUOUS
 10
2.795320
 20
2.655400
  0
SEQEND
  8
0
  0
SOLID
  8
0
 62
    15
 10
2.812480
 20
2.621520
 11
3.446520
 21
3.000360
 12
2.824800
 22
2.586760
 13
3.458840
 23
2.965160
  0
POLYLINE
  8
0
  6
CONTINUOUS
 66
     1
 40
0.000000
 41
0.000000
  0
VERTEX
  8
0
  6
CONTINUOUS
 10
2.812480
 20
2.621520
  0
VERTEX
  8
0
  6
CONTINUOUS
 10
3.446520
 20
3.000360
  0
VERTEX
  8
0
  6
CONTINUOUS
 10
3.458840
 20
2.965160
  0
VERTEX
  8
0
  6
CONTINUOUS
 10
2.824800
 20
2.586760
  0
VERTEX
  8
0
  6
CONTINUOUS
 10
2.812480
 20
2.621520
  0
SEQEND
  8
0
  0
SOLID
  8
0
 62
    15
 10
2.824800
 20
2.586760
 11
3.458840
 21
2.965160
 12
2.831840
 22
2.550680
 13
3.465880
 23
2.929080
  0
POLYLINE
  8
0
  6
CONTINUOUS
 66
     1
 40
0.000000
 41
0.000000
  0
VERTEX
  8
0
  6
CONTINUOUS
 10
2.824800
 20
2.586760
  0
VERTEX
  8
0
  6
CONTINUOUS
 10
3.458840
 20
2.965160
  0
VERTEX
  8
0
  6
CONTINUOUS
 10
3.465880
 20
2.929080
  0
VERTEX
  8
0
  6
CONTINUOUS
 10
2.831840
 20
2.550680
  0
VERTEX
  8
0
  6
CONTINUOUS
 10
2.824800
 20
2.586760
  0
SEQEND
  8
0
  0
SOLID
  8
0
 62
    15
 10
2.831840
 20
2.550680
 11
3.465880
 21
2.929080
 12
2.832280
 22
2.513720
 13
3.466320
 23
2.892560
  0
POLYLINE
  8
0
  6
CONTINUOUS
 66
     1
 40
0.000000
 41
0.000000
  0
VERTEX
  8
0
  6
CONTINUOUS
 10
2.831840
 20
2.550680
  0
VERTEX
  8
0
  6
CONTINUOUS
 10
3.465880
 20
2.929080
  0
VERTEX
  8
0
  6
CONTINUOUS
 10
3.466320
 20
2.892560
  0
VERTEX
  8
0
  6
CONTINUOUS
 10
2.832280
 20
2.513720
  0
VERTEX
  8
0
  6
CONTINUOUS
 10
2.831840
 20
2.550680
  0
SEQEND
  8
0
  0
SOLID
  8
0
 62
    15
 10
2.832280
 20
2.513720
 11
3.466320
 21
2.892560
 12
2.825680
 22
2.476760
 13
3.459720
 23
2.855160
  0
POLYLINE
  8
0
  6
CONTINUOUS
 66
     1
 40
0.000000
 41
0.000000
  0
VERTEX
  8
0
  6
CONTINUOUS
 10
2.832280
 20
2.513720
  0
VERTEX
  8
0
  6
CONTINUOUS
 10
3.466320
 20
2.892560
  0
VERTEX
  8
0
  6
CONTINUOUS
 10
3.459720
 20
2.855160
  0
VERTEX
  8
0
  6
CONTINUOUS
 10
2.825680
 20
2.476760
  0
VERTEX
  8
0
  6
CONTINUOUS
 10
2.832280
 20
2.513720
  0
SEQEND
  8
0
  0
SOLID
  8
0
 62
    15
 10
2.825680
 20
2.476760
 11
3.459720
 21
2.855160
 12
2.811160
 22
2.439360
 13
3.445200
 23
2.817760
  0
POLYLINE
  8
0
  6
CONTINUOUS
 66
     1
 40
0.000000
 41
0.000000
  0
VERTEX
  8
0
  6
CONTINUOUS
 10
2.825680
 20
2.476760
  0
VERTEX
  8
0
  6
CONTINUOUS
 10
3.459720
 20
2.855160
  0
VERTEX
  8
0
  6
CONTINUOUS
 10
3.445200
 20
2.817760
  0
VERTEX
  8
0
  6
CONTINUOUS
 10
2.811160
 20
2.439360
  0
VERTEX
  8
0
  6
CONTINUOUS
 10
2.825680
 20
2.476760
  0
SEQEND
  8
0
  0
SOLID
  8
0
 62
    15
 10
2.811160
 20
2.439360
 11
3.445200
 21
2.817760
 12
2.787400
 22
2.401960
 13
3.421440
 23
2.780360
  0
POLYLINE
  8
0
  6
CONTINUOUS
 66
     1
 40
0.000000
 41
0.000000
  0
VERTEX
  8
0
  6
CONTINUOUS
 10
2.811160
 20
2.439360
  0
VERTEX
  8
0
  6
CONTINUOUS
 10
3.445200
 20
2.817760
  0
VERTEX
  8
0
  6
CONTINUOUS
 10
3.421440
 20
2.780360
  0
VERTEX
  8
0
  6
CONTINUOUS
 10
2.787400
 20
2.401960
  0
VERTEX
  8
0
  6
CONTINUOUS
 10
2.811160
 20
2.439360
  0
SEQEND
  8
0
  0
SOLID
  8
0
 62
    15
 10
2.787400
 20
2.401960
 11
3.421440
 21
2.780360
 12
2.754400
 22
2.365000
 13
3.388440
 23
2.743400
  0
POLYLINE
  8
0
  6
CONTINUOUS
 66
     1
 40
0.000000
 41
0.000000
  0
VERTEX
  8
0
  6
CONTINUOUS
 10
2.787400
 20
2.401960
  0
VERTEX
  8
0
  6
CONTINUOUS
 10
3.421440
 20
2.780360
  0
VERTEX
  8
0
  6
CONTINUOUS
 10
3.388440
 20
2.743400
  0
VERTEX
  8
0
  6
CONTINUOUS
 10
2.754400
 20
2.365000
  0
VERTEX
  8
0
  6
CONTINUOUS
 10
2.787400
 20
2.401960
  0
SEQEND
  8
0
  0
SOLID
  8
0
 62
    15
 10
2.754400
 20
2.365000
 11
3.388440
 21
2.743400
 12
2.710400
 22
2.329360
 13
3.344440
 23
2.707760
  0
POLYLINE
  8
0
  6
CONTINUOUS
 66
     1
 40
0.000000
 41
0.000000
  0
VERTEX
  8
0
  6
CONTINUOUS
 10
2.754400
 20
2.365000
  0
VERTEX
  8
0
  6
CONTINUOUS
 10
3.388440
 20
2.743400
  0
VERTEX
  8
0
  6
CONTINUOUS
 10
3.344440
 20
2.707760
  0
VERTEX
  8
0
  6
CONTINUOUS
 10
2.710400
 20
2.329360
  0
VERTEX
  8
0
  6
CONTINUOUS
 10
2.754400
 20
2.365000
  0
SEQEND
  8
0
  0
SOLID
  8
0
 62
    15
 10
2.710400
 20
2.329360
 11
3.344440
 21
2.707760
 12
2.706440
 22
2.326720
 13
3.340480
 23
2.705120
  0
POLYLINE
  8
0
  6
CONTINUOUS
 66
     1
 40
0.000000
 41
0.000000
  0
VERTEX
  8
0
  6
CONTINUOUS
 10
2.710400
 20
2.329360
  0
VERTEX
  8
0
  6
CONTINUOUS
 10
3.344440
 20
2.707760
  0
VERTEX
  8
0
  6
CONTINUOUS
 10
3.340480
 20
2.705120
  0
VERTEX
  8
0
  6
CONTINUOUS
 10
2.706440
 20
2.326720
  0
VERTEX
  8
0
  6
CONTINUOUS
 10
2.710400
 20
2.329360
  0
SEQEND
  8
0
  0
POLYLINE
  8
0
  6
CONTINUOUS
 66
     1
 40
0.000000
 41
0.000000
  0
VERTEX
  8
0
  6
CONTINUOUS
 10
2.706440
 20
2.326720
  0
VERTEX
  8
0
  6
CONTINUOUS
 10
2.706440
 20
2.278320
  0
VERTEX
  8
0
  6
CONTINUOUS
 10
2.834480
 20
2.187680
  0
VERTEX
  8
0
  6
CONTINUOUS
 10
2.834480
 20
1.717320
  0
VERTEX
  8
0
  6
CONTINUOUS
 10
2.145000
 20
1.717320
  0
VERTEX
  8
0
  6
CONTINUOUS
 10
2.145000
 20
3.509000
  0
VERTEX
  8
0
  6
CONTINUOUS
 10
2.441120
 20
3.509000
  0
VERTEX
  8
0
  6
CONTINUOUS
 10
2.477200
 20
3.498000
  0
VERTEX
  8
0
  6
CONTINUOUS
 10
2.508440
 20
3.483480
  0
VERTEX
  8
0
  6
CONTINUOUS
 10
2.534840
 20
3.466320
  0
VERTEX
  8
0
  6
CONTINUOUS
 10
2.556400
 20
3.446520
  0
VERTEX
  8
0
  6
CONTINUOUS
 10
2.573560
 20
3.424520
  0
VERTEX
  8
0
  6
CONTINUOUS
 10
2.586320
 20
3.401200
  0
VERTEX
  8
0
  6
CONTINUOUS
 10
2.595120
 20
3.376560
  0
VERTEX
  8
0
  6
CONTINUOUS
 10
2.600400
 20
3.351480
  0
VERTEX
  8
0
  6
CONTINUOUS
 10
2.599960
 20
3.300440
  0
VERTEX
  8
0
  6
CONTINUOUS
 10
2.588080
 20
3.252480
  0
VERTEX
  8
0
  6
CONTINUOUS
 10
2.565200
 20
3.210680
  0
VERTEX
  8
0
  6
CONTINUOUS
 10
2.550680
 20
3.193080
  0
VERTEX
  8
0
  6
CONTINUOUS
 10
2.534400
 20
3.178560
  0
VERTEX
  8
0
  6
CONTINUOUS
 10
2.521200
 20
3.147320
  0
VERTEX
  8
0
  6
CONTINUOUS
 10
2.511520
 20
3.117840
  0
VERTEX
  8
0
  6
CONTINUOUS
 10
2.499640
 20
3.063280
  0
VERTEX
  8
0
  6
CONTINUOUS
 10
2.498320
 20
3.014440
  0
VERTEX
  8
0
  6
CONTINUOUS
 10
2.506680
 20
2.970000
  0
VERTEX
  8
0
  6
CONTINUOUS
 10
2.523840
 20
2.929520
  0
VERTEX
  8
0
  6
CONTINUOUS
 10
2.548920
 20
2.892560
  0
VERTEX
  8
0
  6
CONTINUOUS
 10
2.580600
 20
2.857800
  0
VERTEX
  8
0
  6
CONTINUOUS
 10
2.618440
 20
2.825240
  0
VERTEX
  8
0
  6
CONTINUOUS
 10
2.643960
 20
2.810280
  0
VERTEX
  8
0
  6
CONTINUOUS
 10
2.670800
 20
2.791360
  0
VERTEX
  8
0
  6
CONTINUOUS
 10
2.724920
 20
2.744720
  0
VERTEX
  8
0
  6
CONTINUOUS
 10
2.774640
 20
2.687080
  0
VERTEX
  8
0
  6
CONTINUOUS
 10
2.795320
 20
2.655400
  0
VERTEX
  8
0
  6
CONTINUOUS
 10
2.812480
 20
2.621520
  0
VERTEX
  8
0
  6
CONTINUOUS
 10
2.824800
 20
2.586760
  0
VERTEX
  8
0
  6
CONTINUOUS
 10
2.831840
 20
2.550680
  0
VERTEX
  8
0
  6
CONTINUOUS
 10
2.832280
 20
2.513720
  0
VERTEX
  8
0
  6
CONTINUOUS
 10
2.825680
 20
2.476760
  0
VERTEX
  8
0
  6
CONTINUOUS
 10
2.811160
 20
2.439360
  0
VERTEX
  8
0
  6
CONTINUOUS
 10
2.787400
 20
2.401960
  0
VERTEX
  8
0
  6
CONTINUOUS
 10
2.754400
 20
2.365000
  0
VERTEX
  8
0
  6
CONTINUOUS
 10
2.710400
 20
2.329360
  0
VERTEX
  8
0
  6
CONTINUOUS
 10
2.706440
 20
2.326720
  0
SEQEND
  8
0
  0
TEXT
  8
0
 10
2.510640
 20
1.489400
 40
0.138079
  1
BA  139
 41
1.000000
  7
SN0
 71
     0
 72
     5
 11
3.100570
 21
1.489400
  0
TEXT
  8
0
 10
2.262480
 20
1.298000
 40
0.138079
  1
11/16" x 1-7/8"
 41
1.000000
  7
SN0
 71
     0
 72
     5
 11
3.347015
 21
1.298000
  0
ENDSEC
  0
EOF
