  0
SECTION
  2
HEADER
  9
$ACADVER
  1
AC1006
  9
$EXTMIN
 10
1.982640
 20
1.248720
  9
$EXTMAX
 10
6.517280
 20
5.903480
  9
$LTSCALE
 40
0.044000
  9
$PDMODE
 70
    35
  9
$PDSIZE
 40
0.035200
  0
ENDSEC
  0
SECTION
  2
TABLES
  0
TABLE
  2
LTYPE
 70
     9
  0
LTYPE
  2
CONTINUOUS
 70
    64
  3
Solid line
 72
    65
 73
     0
 40
0.000000
  0
LTYPE
  2
DASHED
 70
    64
  3
__ __ __ __ __ __ __ __ __ __ __ __ __ __ __
 72
    65
 73
     2
 40
0.000330
 49
0.000220
 49
-0.000110
  0
LTYPE
  2
HIDDEN
 70
    64
  3
 _ _ _ _ _ _ _ _ _ _ _ _ _ _ _ _ _ _ _ _ _ _
 72
    65
 73
     2
 40
0.000165
 49
0.000110
 49
-0.000055
  0
LTYPE
  2
CENTER
 70
    64
  3
____ _ ____ _ ____ _ ____ _ ____ _ ____ _ ____
 72
    65
 73
     4
 40
0.000880
 49
0.000550
 49
-0.000110
 49
0.000110
 49
-0.000110
  0
LTYPE
  2
PHANTOM
 70
    64
  3
_____ _ _ _____ _ _ _____ _ _ _____ _ _ ____
 72
    65
 73
     6
 40
0.001100
 49
0.000550
 49
-0.000110
 49
0.000110
 49
-0.000110
 49
0.000110
 49
-0.000110
  0
LTYPE
  2
DOT
 70
    64
  3
...............................................
 72
    65
 73
     2
 40
0.000110
 49
0.000000
 49
-0.000110
  0
LTYPE
  2
DASHDOT
 70
    64
  3
__ . __ . __ . __ . __ . __ . __ . __ . __ . __
 72
    65
 73
     4
 40
0.000440
 49
0.000220
 49
-0.000110
 49
0.000000
 49
-0.000110
  0
LTYPE
  2
BORDER
 70
    64
  3
__ __ . __ __ . __ __ . __ __ . __ __ . __ __
 72
    65
 73
     6
 40
0.000770
 49
0.000220
 49
-0.000110
 49
0.000220
 49
-0.000110
 49
0.000000
 49
-0.000110
  0
LTYPE
  2
DIVIDE
 70
    64
  3
__ . . __ . . __ . . __ . . __ . . __ . . __
 72
    65
 73
     6
 40
0.000550
 49
0.000220
 49
-0.000110
 49
0.000000
 49
-0.000110
 49
0.000000
 49
-0.000110
  0
LTYPE
  2
DOTDOT
 70
    64
  3
 . .  . .  . .  . .  . .  . . 
 72
    65
 73
     5
 40
0.000242
 49
-0.000110
 49
0.000000
 49
-0.000110
 49
0.000000
 49
-0.000110
  0
ENDTAB
  0
TABLE
  2
STYLE
 70
     2
  0
STYLE
 70
     0
  2
SN0
 40
0.000000
 41
0.000440
 50
0.000000
 71
     0
 42
0.000000
  3
ROMAND
  0
STYLE
 70
    68
  2
SV0
 40
0.000000
 41
0.000440
 50
0.000000
 71
     0
 42
0.000000
  3
ROMAND
  0
ENDTAB
  0
TABLE
  2
LAYER
 70
     3
  0
LAYER
  2
FOREGROUND
 70
    64
 62
     7
  6
CONTINUOUS
  0
LAYER
  2
BACKGROUND
 70
    65
 62
    -7
  6
CONTINUOUS
  0
LAYER
  2
0
 70
    64
 62
     7
  6
CONTINUOUS
  0
ENDTAB
  0
ENDSEC
  0
SECTION
  2
ENTITIES
  0
POLYLINE
  8
FOREGROUND
  6
CONTINUOUS
 66
     1
 40
0.000000
 41
0.000000
  0
VERTEX
  8
FOREGROUND
  6
CONTINUOUS
 10
0.000000
 20
7.152200
  0
VERTEX
  8
FOREGROUND
  6
CONTINUOUS
 10
8.499920
 20
7.152200
  0
VERTEX
  8
FOREGROUND
  6
CONTINUOUS
 10
8.499920
 20
-3.847800
  0
VERTEX
  8
FOREGROUND
  6
CONTINUOUS
 10
0.000000
 20
-3.847800
  0
VERTEX
  8
FOREGROUND
  6
CONTINUOUS
 10
0.000000
 20
7.152200
  0
SEQEND
  8
0
  0
POLYLINE
  8
FOREGROUND
  6
CONTINUOUS
 66
     1
 40
0.000000
 41
0.000000
  0
VERTEX
  8
FOREGROUND
  6
CONTINUOUS
 10
0.000000
 20
7.152200
  0
VERTEX
  8
FOREGROUND
  6
CONTINUOUS
 10
8.499920
 20
7.152200
  0
VERTEX
  8
FOREGROUND
  6
CONTINUOUS
 10
8.499920
 20
-3.847800
  0
VERTEX
  8
FOREGROUND
  6
CONTINUOUS
 10
0.000000
 20
-3.847800
  0
VERTEX
  8
FOREGROUND
  6
CONTINUOUS
 10
0.000000
 20
7.152200
  0
SEQEND
  8
0
  0
POLYLINE
  8
0
  6
CONTINUOUS
 66
     1
 40
0.014080
 41
0.014080
  0
VERTEX
  8
0
  6
CONTINUOUS
 10
6.096200
 20
5.038440
  0
VERTEX
  8
0
  6
CONTINUOUS
 10
2.410760
 20
5.038440
  0
VERTEX
  8
0
  6
CONTINUOUS
 10
2.410760
 20
5.037120
  0
VERTEX
  8
0
  6
CONTINUOUS
 10
1.987920
 20
5.454240
  0
VERTEX
  8
0
  6
CONTINUOUS
 10
2.624160
 20
5.896880
  0
VERTEX
  8
0
  6
CONTINUOUS
 10
2.733280
 20
5.821200
  0
VERTEX
  8
0
  6
CONTINUOUS
 10
2.812920
 20
5.772360
  0
VERTEX
  8
0
  6
CONTINUOUS
 10
2.890360
 20
5.729680
  0
VERTEX
  8
0
  6
CONTINUOUS
 10
2.966480
 20
5.693160
  0
VERTEX
  8
0
  6
CONTINUOUS
 10
3.065040
 20
5.653120
  0
VERTEX
  8
0
  6
CONTINUOUS
 10
3.137200
 20
5.629360
  0
VERTEX
  8
0
  6
CONTINUOUS
 10
3.184280
 20
5.616160
  0
VERTEX
  8
0
  6
CONTINUOUS
 10
3.276680
 20
5.595920
  0
VERTEX
  8
0
  6
CONTINUOUS
 10
3.322000
 20
5.588880
  0
VERTEX
  8
0
  6
CONTINUOUS
 10
3.366880
 20
5.583600
  0
VERTEX
  8
0
  6
CONTINUOUS
 10
3.454440
 20
5.577880
  0
VERTEX
  8
0
  6
CONTINUOUS
 10
3.497560
 20
5.577440
  0
VERTEX
  8
0
  6
CONTINUOUS
 10
3.582040
 20
5.580520
  0
VERTEX
  8
0
  6
CONTINUOUS
 10
3.664320
 20
5.588440
  0
VERTEX
  8
0
  6
CONTINUOUS
 10
3.745280
 20
5.600320
  0
VERTEX
  8
0
  6
CONTINUOUS
 10
3.863640
 20
5.624960
  0
VERTEX
  8
0
  6
CONTINUOUS
 10
3.978920
 20
5.654000
  0
VERTEX
  8
0
  6
CONTINUOUS
 10
4.276360
 20
5.737160
  0
VERTEX
  8
0
  6
CONTINUOUS
 10
4.385480
 20
5.762680
  0
VERTEX
  8
0
  6
CONTINUOUS
 10
4.458080
 20
5.775880
  0
VERTEX
  8
0
  6
CONTINUOUS
 10
4.530680
 20
5.785120
  0
VERTEX
  8
0
  6
CONTINUOUS
 10
4.567200
 20
5.788200
  0
VERTEX
  8
0
  6
CONTINUOUS
 10
4.640240
 20
5.789960
  0
VERTEX
  8
0
  6
CONTINUOUS
 10
4.676760
 20
5.789080
  0
VERTEX
  8
0
  6
CONTINUOUS
 10
4.750240
 20
5.782040
  0
VERTEX
  8
0
  6
CONTINUOUS
 10
4.787640
 20
5.775880
  0
VERTEX
  8
0
  6
CONTINUOUS
 10
4.824600
 20
5.767960
  0
VERTEX
  8
0
  6
CONTINUOUS
 10
4.862440
 20
5.757840
  0
VERTEX
  8
0
  6
CONTINUOUS
 10
4.899840
 20
5.745960
  0
VERTEX
  8
0
  6
CONTINUOUS
 10
4.938120
 20
5.731880
  0
VERTEX
  8
0
  6
CONTINUOUS
 10
5.014680
 20
5.697120
  0
VERTEX
  8
0
  6
CONTINUOUS
 10
5.073200
 20
5.665000
  0
VERTEX
  8
0
  6
CONTINUOUS
 10
5.151960
 20
5.612640
  0
VERTEX
  8
0
  6
CONTINUOUS
 10
5.212240
 20
5.566000
  0
VERTEX
  8
0
  6
CONTINUOUS
 10
5.255800
 20
5.529040
  0
VERTEX
  8
0
  6
CONTINUOUS
 10
5.448080
 20
5.701080
  0
VERTEX
  8
0
  6
CONTINUOUS
 10
5.450720
 20
5.701080
  0
VERTEX
  8
0
  6
CONTINUOUS
 10
5.513200
 20
5.655760
  0
VERTEX
  8
0
  6
CONTINUOUS
 10
5.575680
 20
5.618800
  0
VERTEX
  8
0
  6
CONTINUOUS
 10
5.606920
 20
5.602960
  0
VERTEX
  8
0
  6
CONTINUOUS
 10
5.669400
 20
5.576560
  0
VERTEX
  8
0
  6
CONTINUOUS
 10
5.731440
 20
5.557200
  0
VERTEX
  8
0
  6
CONTINUOUS
 10
5.792600
 20
5.544000
  0
VERTEX
  8
0
  6
CONTINUOUS
 10
5.852880
 20
5.536520
  0
VERTEX
  8
0
  6
CONTINUOUS
 10
5.911400
 20
5.534760
  0
VERTEX
  8
0
  6
CONTINUOUS
 10
5.940000
 20
5.535200
  0
VERTEX
  8
0
  6
CONTINUOUS
 10
5.996320
 20
5.540480
  0
VERTEX
  8
0
  6
CONTINUOUS
 10
6.050000
 20
5.549280
  0
VERTEX
  8
0
  6
CONTINUOUS
 10
6.101480
 20
5.562040
  0
VERTEX
  8
0
  6
CONTINUOUS
 10
6.150320
 20
5.577880
  0
VERTEX
  8
0
  6
CONTINUOUS
 10
6.217640
 20
5.606920
  0
VERTEX
  8
0
  6
CONTINUOUS
 10
6.277040
 20
5.639920
  0
VERTEX
  8
0
  6
CONTINUOUS
 10
6.311800
 20
5.663680
  0
VERTEX
  8
0
  6
CONTINUOUS
 10
6.314440
 20
5.663680
  0
VERTEX
  8
0
  6
CONTINUOUS
 10
6.512000
 20
5.489000
  0
VERTEX
  8
0
  6
CONTINUOUS
 10
6.100160
 20
5.038440
  0
VERTEX
  8
0
  6
CONTINUOUS
 10
6.096200
 20
5.038440
  0
SEQEND
  8
0
  0
SOLID
  8
0
 62
    15
 10
3.410440
 20
2.534840
 11
4.081880
 21
2.144120
 12
3.210680
 22
2.512400
 13
3.882120
 23
2.121240
  0
POLYLINE
  8
0
  6
CONTINUOUS
 66
     1
 40
0.000000
 41
0.000000
  0
VERTEX
  8
0
  6
CONTINUOUS
 10
3.410440
 20
2.534840
  0
VERTEX
  8
0
  6
CONTINUOUS
 10
4.081880
 20
2.144120
  0
VERTEX
  8
0
  6
CONTINUOUS
 10
3.882120
 20
2.121240
  0
VERTEX
  8
0
  6
CONTINUOUS
 10
3.210680
 20
2.512400
  0
VERTEX
  8
0
  6
CONTINUOUS
 10
3.410440
 20
2.534840
  0
SEQEND
  8
0
  0
SOLID
  8
0
 62
    15
 10
5.369320
 20
4.057240
 11
6.040760
 21
3.666080
 12
5.117640
 22
4.010600
 13
5.789080
 23
3.619440
  0
POLYLINE
  8
0
  6
CONTINUOUS
 66
     1
 40
0.000000
 41
0.000000
  0
VERTEX
  8
0
  6
CONTINUOUS
 10
5.369320
 20
4.057240
  0
VERTEX
  8
0
  6
CONTINUOUS
 10
6.040760
 20
3.666080
  0
VERTEX
  8
0
  6
CONTINUOUS
 10
5.789080
 20
3.619440
  0
VERTEX
  8
0
  6
CONTINUOUS
 10
5.117640
 20
4.010600
  0
VERTEX
  8
0
  6
CONTINUOUS
 10
5.369320
 20
4.057240
  0
SEQEND
  8
0
  0
SOLID
  8
0
 62
    15
 10
5.117640
 20
4.010600
 11
5.789080
 21
3.619440
 12
4.905560
 22
3.940640
 13
5.577000
 23
3.549480
  0
POLYLINE
  8
0
  6
CONTINUOUS
 66
     1
 40
0.000000
 41
0.000000
  0
VERTEX
  8
0
  6
CONTINUOUS
 10
5.117640
 20
4.010600
  0
VERTEX
  8
0
  6
CONTINUOUS
 10
5.789080
 20
3.619440
  0
VERTEX
  8
0
  6
CONTINUOUS
 10
5.577000
 20
3.549480
  0
VERTEX
  8
0
  6
CONTINUOUS
 10
4.905560
 20
3.940640
  0
VERTEX
  8
0
  6
CONTINUOUS
 10
5.117640
 20
4.010600
  0
SEQEND
  8
0
  0
SOLID
  8
0
 62
    15
 10
4.905560
 20
3.940640
 11
5.577000
 21
3.549480
 12
4.728240
 22
3.850880
 13
5.399680
 23
3.460160
  0
POLYLINE
  8
0
  6
CONTINUOUS
 66
     1
 40
0.000000
 41
0.000000
  0
VERTEX
  8
0
  6
CONTINUOUS
 10
4.905560
 20
3.940640
  0
VERTEX
  8
0
  6
CONTINUOUS
 10
5.577000
 20
3.549480
  0
VERTEX
  8
0
  6
CONTINUOUS
 10
5.399680
 20
3.460160
  0
VERTEX
  8
0
  6
CONTINUOUS
 10
4.728240
 20
3.850880
  0
VERTEX
  8
0
  6
CONTINUOUS
 10
4.905560
 20
3.940640
  0
SEQEND
  8
0
  0
SOLID
  8
0
 62
    15
 10
4.728240
 20
3.850880
 11
5.399680
 21
3.460160
 12
4.580400
 22
3.745280
 13
5.251840
 23
3.354560
  0
POLYLINE
  8
0
  6
CONTINUOUS
 66
     1
 40
0.000000
 41
0.000000
  0
VERTEX
  8
0
  6
CONTINUOUS
 10
4.728240
 20
3.850880
  0
VERTEX
  8
0
  6
CONTINUOUS
 10
5.399680
 20
3.460160
  0
VERTEX
  8
0
  6
CONTINUOUS
 10
5.251840
 20
3.354560
  0
VERTEX
  8
0
  6
CONTINUOUS
 10
4.580400
 20
3.745280
  0
VERTEX
  8
0
  6
CONTINUOUS
 10
4.728240
 20
3.850880
  0
SEQEND
  8
0
  0
SOLID
  8
0
 62
    15
 10
4.580400
 20
3.745280
 11
5.251840
 21
3.354560
 12
4.456760
 22
3.627360
 13
5.128200
 23
3.236200
  0
POLYLINE
  8
0
  6
CONTINUOUS
 66
     1
 40
0.000000
 41
0.000000
  0
VERTEX
  8
0
  6
CONTINUOUS
 10
4.580400
 20
3.745280
  0
VERTEX
  8
0
  6
CONTINUOUS
 10
5.251840
 20
3.354560
  0
VERTEX
  8
0
  6
CONTINUOUS
 10
5.128200
 20
3.236200
  0
VERTEX
  8
0
  6
CONTINUOUS
 10
4.456760
 20
3.627360
  0
VERTEX
  8
0
  6
CONTINUOUS
 10
4.580400
 20
3.745280
  0
SEQEND
  8
0
  0
SOLID
  8
0
 62
    15
 10
4.456760
 20
3.627360
 11
5.128200
 21
3.236200
 12
4.352040
 22
3.500200
 13
5.023480
 23
3.109040
  0
POLYLINE
  8
0
  6
CONTINUOUS
 66
     1
 40
0.000000
 41
0.000000
  0
VERTEX
  8
0
  6
CONTINUOUS
 10
4.456760
 20
3.627360
  0
VERTEX
  8
0
  6
CONTINUOUS
 10
5.128200
 20
3.236200
  0
VERTEX
  8
0
  6
CONTINUOUS
 10
5.023480
 20
3.109040
  0
VERTEX
  8
0
  6
CONTINUOUS
 10
4.352040
 20
3.500200
  0
VERTEX
  8
0
  6
CONTINUOUS
 10
4.456760
 20
3.627360
  0
SEQEND
  8
0
  0
SOLID
  8
0
 62
    15
 10
4.352040
 20
3.500200
 11
5.023480
 21
3.109040
 12
4.179120
 22
3.233120
 13
4.850560
 23
2.842400
  0
POLYLINE
  8
0
  6
CONTINUOUS
 66
     1
 40
0.000000
 41
0.000000
  0
VERTEX
  8
0
  6
CONTINUOUS
 10
4.352040
 20
3.500200
  0
VERTEX
  8
0
  6
CONTINUOUS
 10
5.023480
 20
3.109040
  0
VERTEX
  8
0
  6
CONTINUOUS
 10
4.850560
 20
2.842400
  0
VERTEX
  8
0
  6
CONTINUOUS
 10
4.179120
 20
3.233120
  0
VERTEX
  8
0
  6
CONTINUOUS
 10
4.352040
 20
3.500200
  0
SEQEND
  8
0
  0
SOLID
  8
0
 62
    15
 10
4.179120
 20
3.233120
 11
4.850560
 21
2.842400
 12
4.019840
 22
2.972640
 13
4.691280
 23
2.581480
  0
POLYLINE
  8
0
  6
CONTINUOUS
 66
     1
 40
0.000000
 41
0.000000
  0
VERTEX
  8
0
  6
CONTINUOUS
 10
4.179120
 20
3.233120
  0
VERTEX
  8
0
  6
CONTINUOUS
 10
4.850560
 20
2.842400
  0
VERTEX
  8
0
  6
CONTINUOUS
 10
4.691280
 20
2.581480
  0
VERTEX
  8
0
  6
CONTINUOUS
 10
4.019840
 20
2.972640
  0
VERTEX
  8
0
  6
CONTINUOUS
 10
4.179120
 20
3.233120
  0
SEQEND
  8
0
  0
SOLID
  8
0
 62
    15
 10
4.019840
 20
2.972640
 11
4.691280
 21
2.581480
 12
3.932720
 22
2.853840
 13
4.604160
 23
2.462680
  0
POLYLINE
  8
0
  6
CONTINUOUS
 66
     1
 40
0.000000
 41
0.000000
  0
VERTEX
  8
0
  6
CONTINUOUS
 10
4.019840
 20
2.972640
  0
VERTEX
  8
0
  6
CONTINUOUS
 10
4.691280
 20
2.581480
  0
VERTEX
  8
0
  6
CONTINUOUS
 10
4.604160
 20
2.462680
  0
VERTEX
  8
0
  6
CONTINUOUS
 10
3.932720
 20
2.853840
  0
VERTEX
  8
0
  6
CONTINUOUS
 10
4.019840
 20
2.972640
  0
SEQEND
  8
0
  0
SOLID
  8
0
 62
    15
 10
3.932720
 20
2.853840
 11
4.604160
 21
2.462680
 12
3.833280
 22
2.746920
 13
4.504720
 23
2.355760
  0
POLYLINE
  8
0
  6
CONTINUOUS
 66
     1
 40
0.000000
 41
0.000000
  0
VERTEX
  8
0
  6
CONTINUOUS
 10
3.932720
 20
2.853840
  0
VERTEX
  8
0
  6
CONTINUOUS
 10
4.604160
 20
2.462680
  0
VERTEX
  8
0
  6
CONTINUOUS
 10
4.504720
 20
2.355760
  0
VERTEX
  8
0
  6
CONTINUOUS
 10
3.833280
 20
2.746920
  0
VERTEX
  8
0
  6
CONTINUOUS
 10
3.932720
 20
2.853840
  0
SEQEND
  8
0
  0
SOLID
  8
0
 62
    15
 10
3.833280
 20
2.746920
 11
4.504720
 21
2.355760
 12
3.716680
 22
2.655840
 13
4.388120
 23
2.264680
  0
POLYLINE
  8
0
  6
CONTINUOUS
 66
     1
 40
0.000000
 41
0.000000
  0
VERTEX
  8
0
  6
CONTINUOUS
 10
3.833280
 20
2.746920
  0
VERTEX
  8
0
  6
CONTINUOUS
 10
4.504720
 20
2.355760
  0
VERTEX
  8
0
  6
CONTINUOUS
 10
4.388120
 20
2.264680
  0
VERTEX
  8
0
  6
CONTINUOUS
 10
3.716680
 20
2.655840
  0
VERTEX
  8
0
  6
CONTINUOUS
 10
3.833280
 20
2.746920
  0
SEQEND
  8
0
  0
SOLID
  8
0
 62
    15
 10
3.716680
 20
2.655840
 11
4.388120
 21
2.264680
 12
3.577200
 22
2.584120
 13
4.248640
 23
2.192960
  0
POLYLINE
  8
0
  6
CONTINUOUS
 66
     1
 40
0.000000
 41
0.000000
  0
VERTEX
  8
0
  6
CONTINUOUS
 10
3.716680
 20
2.655840
  0
VERTEX
  8
0
  6
CONTINUOUS
 10
4.388120
 20
2.264680
  0
VERTEX
  8
0
  6
CONTINUOUS
 10
4.248640
 20
2.192960
  0
VERTEX
  8
0
  6
CONTINUOUS
 10
3.577200
 20
2.584120
  0
VERTEX
  8
0
  6
CONTINUOUS
 10
3.716680
 20
2.655840
  0
SEQEND
  8
0
  0
SOLID
  8
0
 62
    15
 10
3.577200
 20
2.584120
 11
4.248640
 21
2.192960
 12
3.410440
 22
2.534840
 13
4.081880
 23
2.144120
  0
POLYLINE
  8
0
  6
CONTINUOUS
 66
     1
 40
0.000000
 41
0.000000
  0
VERTEX
  8
0
  6
CONTINUOUS
 10
3.577200
 20
2.584120
  0
VERTEX
  8
0
  6
CONTINUOUS
 10
4.248640
 20
2.192960
  0
VERTEX
  8
0
  6
CONTINUOUS
 10
4.081880
 20
2.144120
  0
VERTEX
  8
0
  6
CONTINUOUS
 10
3.410440
 20
2.534840
  0
VERTEX
  8
0
  6
CONTINUOUS
 10
3.577200
 20
2.584120
  0
SEQEND
  8
0
  0
SOLID
  8
0
 62
    15
 10
5.526400
 20
4.816240
 11
6.197400
 21
4.425080
 12
5.369320
 22
4.057240
 13
6.040760
 23
3.666080
  0
POLYLINE
  8
0
  6
CONTINUOUS
 66
     1
 40
0.000000
 41
0.000000
  0
VERTEX
  8
0
  6
CONTINUOUS
 10
5.526400
 20
4.816240
  0
VERTEX
  8
0
  6
CONTINUOUS
 10
6.197400
 20
4.425080
  0
VERTEX
  8
0
  6
CONTINUOUS
 10
6.040760
 20
3.666080
  0
VERTEX
  8
0
  6
CONTINUOUS
 10
5.369320
 20
4.057240
  0
VERTEX
  8
0
  6
CONTINUOUS
 10
5.526400
 20
4.816240
  0
SEQEND
  8
0
  0
SOLID
  8
0
 62
    15
 10
3.210680
 20
2.512400
 11
3.882120
 21
2.121240
 12
3.207160
 22
2.512400
 13
3.878600
 23
2.121240
  0
POLYLINE
  8
0
  6
CONTINUOUS
 66
     1
 40
0.000000
 41
0.000000
  0
VERTEX
  8
0
  6
CONTINUOUS
 10
3.210680
 20
2.512400
  0
VERTEX
  8
0
  6
CONTINUOUS
 10
3.882120
 20
2.121240
  0
VERTEX
  8
0
  6
CONTINUOUS
 10
3.878600
 20
2.121240
  0
VERTEX
  8
0
  6
CONTINUOUS
 10
3.207160
 20
2.512400
  0
VERTEX
  8
0
  6
CONTINUOUS
 10
3.210680
 20
2.512400
  0
SEQEND
  8
0
  0
SOLID
  8
0
 62
    15
 10
3.207160
 20
2.512400
 11
3.878600
 21
2.121240
 12
3.186040
 22
2.255440
 13
3.857480
 23
1.864280
  0
POLYLINE
  8
0
  6
CONTINUOUS
 66
     1
 40
0.000000
 41
0.000000
  0
VERTEX
  8
0
  6
CONTINUOUS
 10
3.207160
 20
2.512400
  0
VERTEX
  8
0
  6
CONTINUOUS
 10
3.878600
 20
2.121240
  0
VERTEX
  8
0
  6
CONTINUOUS
 10
3.857480
 20
1.864280
  0
VERTEX
  8
0
  6
CONTINUOUS
 10
3.186040
 20
2.255440
  0
VERTEX
  8
0
  6
CONTINUOUS
 10
3.207160
 20
2.512400
  0
SEQEND
  8
0
  0
SOLID
  8
0
 62
    15
 10
3.186040
 20
2.255440
 11
3.857480
 21
1.864280
 12
3.184280
 22
2.253680
 13
3.855720
 23
1.862520
  0
POLYLINE
  8
0
  6
CONTINUOUS
 66
     1
 40
0.000000
 41
0.000000
  0
VERTEX
  8
0
  6
CONTINUOUS
 10
3.186040
 20
2.255440
  0
VERTEX
  8
0
  6
CONTINUOUS
 10
3.857480
 20
1.864280
  0
VERTEX
  8
0
  6
CONTINUOUS
 10
3.855720
 20
1.862520
  0
VERTEX
  8
0
  6
CONTINUOUS
 10
3.184280
 20
2.253680
  0
VERTEX
  8
0
  6
CONTINUOUS
 10
3.186040
 20
2.255440
  0
SEQEND
  8
0
  0
SOLID
  8
0
 62
    15
 10
3.184280
 20
2.253680
 11
3.855720
 21
1.862520
 12
3.036880
 22
2.227280
 13
3.707880
 23
1.836120
  0
POLYLINE
  8
0
  6
CONTINUOUS
 66
     1
 40
0.000000
 41
0.000000
  0
VERTEX
  8
0
  6
CONTINUOUS
 10
3.184280
 20
2.253680
  0
VERTEX
  8
0
  6
CONTINUOUS
 10
3.855720
 20
1.862520
  0
VERTEX
  8
0
  6
CONTINUOUS
 10
3.707880
 20
1.836120
  0
VERTEX
  8
0
  6
CONTINUOUS
 10
3.036880
 20
2.227280
  0
VERTEX
  8
0
  6
CONTINUOUS
 10
3.184280
 20
2.253680
  0
SEQEND
  8
0
  0
SOLID
  8
0
 62
    15
 10
3.036880
 20
2.227280
 11
3.707880
 21
1.836120
 12
2.910160
 22
2.179320
 13
3.581160
 23
1.788160
  0
POLYLINE
  8
0
  6
CONTINUOUS
 66
     1
 40
0.000000
 41
0.000000
  0
VERTEX
  8
0
  6
CONTINUOUS
 10
3.036880
 20
2.227280
  0
VERTEX
  8
0
  6
CONTINUOUS
 10
3.707880
 20
1.836120
  0
VERTEX
  8
0
  6
CONTINUOUS
 10
3.581160
 20
1.788160
  0
VERTEX
  8
0
  6
CONTINUOUS
 10
2.910160
 20
2.179320
  0
VERTEX
  8
0
  6
CONTINUOUS
 10
3.036880
 20
2.227280
  0
SEQEND
  8
0
  0
SOLID
  8
0
 62
    15
 10
2.910160
 20
2.179320
 11
3.581160
 21
1.788160
 12
2.803240
 22
2.114200
 13
3.474240
 23
1.723480
  0
POLYLINE
  8
0
  6
CONTINUOUS
 66
     1
 40
0.000000
 41
0.000000
  0
VERTEX
  8
0
  6
CONTINUOUS
 10
2.910160
 20
2.179320
  0
VERTEX
  8
0
  6
CONTINUOUS
 10
3.581160
 20
1.788160
  0
VERTEX
  8
0
  6
CONTINUOUS
 10
3.474240
 20
1.723480
  0
VERTEX
  8
0
  6
CONTINUOUS
 10
2.803240
 20
2.114200
  0
VERTEX
  8
0
  6
CONTINUOUS
 10
2.910160
 20
2.179320
  0
SEQEND
  8
0
  0
SOLID
  8
0
 62
    15
 10
2.803240
 20
2.114200
 11
3.474240
 21
1.723480
 12
2.714800
 22
2.036760
 13
3.386240
 23
1.645600
  0
POLYLINE
  8
0
  6
CONTINUOUS
 66
     1
 40
0.000000
 41
0.000000
  0
VERTEX
  8
0
  6
CONTINUOUS
 10
2.803240
 20
2.114200
  0
VERTEX
  8
0
  6
CONTINUOUS
 10
3.474240
 20
1.723480
  0
VERTEX
  8
0
  6
CONTINUOUS
 10
3.386240
 20
1.645600
  0
VERTEX
  8
0
  6
CONTINUOUS
 10
2.714800
 20
2.036760
  0
VERTEX
  8
0
  6
CONTINUOUS
 10
2.803240
 20
2.114200
  0
SEQEND
  8
0
  0
SOLID
  8
0
 62
    15
 10
2.714800
 20
2.036760
 11
3.386240
 21
1.645600
 12
2.644840
 22
1.950960
 13
3.316280
 23
1.559800
  0
POLYLINE
  8
0
  6
CONTINUOUS
 66
     1
 40
0.000000
 41
0.000000
  0
VERTEX
  8
0
  6
CONTINUOUS
 10
2.714800
 20
2.036760
  0
VERTEX
  8
0
  6
CONTINUOUS
 10
3.386240
 20
1.645600
  0
VERTEX
  8
0
  6
CONTINUOUS
 10
3.316280
 20
1.559800
  0
VERTEX
  8
0
  6
CONTINUOUS
 10
2.644840
 20
1.950960
  0
VERTEX
  8
0
  6
CONTINUOUS
 10
2.714800
 20
2.036760
  0
SEQEND
  8
0
  0
SOLID
  8
0
 62
    15
 10
2.644840
 20
1.950960
 11
3.316280
 21
1.559800
 12
2.592040
 22
1.861200
 13
3.263480
 23
1.470040
  0
POLYLINE
  8
0
  6
CONTINUOUS
 66
     1
 40
0.000000
 41
0.000000
  0
VERTEX
  8
0
  6
CONTINUOUS
 10
2.644840
 20
1.950960
  0
VERTEX
  8
0
  6
CONTINUOUS
 10
3.316280
 20
1.559800
  0
VERTEX
  8
0
  6
CONTINUOUS
 10
3.263480
 20
1.470040
  0
VERTEX
  8
0
  6
CONTINUOUS
 10
2.592040
 20
1.861200
  0
VERTEX
  8
0
  6
CONTINUOUS
 10
2.644840
 20
1.950960
  0
SEQEND
  8
0
  0
SOLID
  8
0
 62
    15
 10
2.592040
 20
1.861200
 11
3.263480
 21
1.470040
 12
2.555080
 22
1.771880
 13
3.226520
 23
1.381160
  0
POLYLINE
  8
0
  6
CONTINUOUS
 66
     1
 40
0.000000
 41
0.000000
  0
VERTEX
  8
0
  6
CONTINUOUS
 10
2.592040
 20
1.861200
  0
VERTEX
  8
0
  6
CONTINUOUS
 10
3.263480
 20
1.470040
  0
VERTEX
  8
0
  6
CONTINUOUS
 10
3.226520
 20
1.381160
  0
VERTEX
  8
0
  6
CONTINUOUS
 10
2.555080
 20
1.771880
  0
VERTEX
  8
0
  6
CONTINUOUS
 10
2.592040
 20
1.861200
  0
SEQEND
  8
0
  0
SOLID
  8
0
 62
    15
 10
2.555080
 20
1.771880
 11
3.226520
 21
1.381160
 12
2.533960
 22
1.687840
 13
3.204960
 23
1.296680
  0
POLYLINE
  8
0
  6
CONTINUOUS
 66
     1
 40
0.000000
 41
0.000000
  0
VERTEX
  8
0
  6
CONTINUOUS
 10
2.555080
 20
1.771880
  0
VERTEX
  8
0
  6
CONTINUOUS
 10
3.226520
 20
1.381160
  0
VERTEX
  8
0
  6
CONTINUOUS
 10
3.204960
 20
1.296680
  0
VERTEX
  8
0
  6
CONTINUOUS
 10
2.533960
 20
1.687840
  0
VERTEX
  8
0
  6
CONTINUOUS
 10
2.555080
 20
1.771880
  0
SEQEND
  8
0
  0
SOLID
  8
0
 62
    15
 10
2.533960
 20
1.687840
 11
3.204960
 21
1.296680
 12
2.531760
 22
1.686080
 13
3.203200
 23
1.294920
  0
POLYLINE
  8
0
  6
CONTINUOUS
 66
     1
 40
0.000000
 41
0.000000
  0
VERTEX
  8
0
  6
CONTINUOUS
 10
2.533960
 20
1.687840
  0
VERTEX
  8
0
  6
CONTINUOUS
 10
3.204960
 20
1.296680
  0
VERTEX
  8
0
  6
CONTINUOUS
 10
3.203200
 20
1.294920
  0
VERTEX
  8
0
  6
CONTINUOUS
 10
2.531760
 20
1.686080
  0
VERTEX
  8
0
  6
CONTINUOUS
 10
2.533960
 20
1.687840
  0
SEQEND
  8
0
  0
SOLID
  8
0
 62
    15
 10
2.531760
 20
1.686080
 11
3.203200
 21
1.294920
 12
2.268640
 22
1.676840
 13
2.939640
 23
1.285680
  0
POLYLINE
  8
0
  6
CONTINUOUS
 66
     1
 40
0.000000
 41
0.000000
  0
VERTEX
  8
0
  6
CONTINUOUS
 10
2.531760
 20
1.686080
  0
VERTEX
  8
0
  6
CONTINUOUS
 10
3.203200
 20
1.294920
  0
VERTEX
  8
0
  6
CONTINUOUS
 10
2.939640
 20
1.285680
  0
VERTEX
  8
0
  6
CONTINUOUS
 10
2.268640
 20
1.676840
  0
VERTEX
  8
0
  6
CONTINUOUS
 10
2.531760
 20
1.686080
  0
SEQEND
  8
0
  0
POLYLINE
  8
0
  6
CONTINUOUS
 66
     1
 40
0.000000
 41
0.000000
  0
VERTEX
  8
0
  6
CONTINUOUS
 10
2.259840
 20
2.290200
  0
VERTEX
  8
0
  6
CONTINUOUS
 10
4.933280
 20
4.826800
  0
VERTEX
  8
0
  6
CONTINUOUS
 10
4.932400
 20
4.828120
  0
VERTEX
  8
0
  6
CONTINUOUS
 10
5.526400
 20
4.816240
  0
VERTEX
  8
0
  6
CONTINUOUS
 10
5.369320
 20
4.057240
  0
VERTEX
  8
0
  6
CONTINUOUS
 10
5.117640
 20
4.010600
  0
VERTEX
  8
0
  6
CONTINUOUS
 10
4.905560
 20
3.940640
  0
VERTEX
  8
0
  6
CONTINUOUS
 10
4.728240
 20
3.850880
  0
VERTEX
  8
0
  6
CONTINUOUS
 10
4.580400
 20
3.745280
  0
VERTEX
  8
0
  6
CONTINUOUS
 10
4.456760
 20
3.627360
  0
VERTEX
  8
0
  6
CONTINUOUS
 10
4.352040
 20
3.500200
  0
VERTEX
  8
0
  6
CONTINUOUS
 10
4.179120
 20
3.233120
  0
VERTEX
  8
0
  6
CONTINUOUS
 10
4.019840
 20
2.972640
  0
VERTEX
  8
0
  6
CONTINUOUS
 10
3.932720
 20
2.853840
  0
VERTEX
  8
0
  6
CONTINUOUS
 10
3.833280
 20
2.746920
  0
VERTEX
  8
0
  6
CONTINUOUS
 10
3.716680
 20
2.655840
  0
VERTEX
  8
0
  6
CONTINUOUS
 10
3.577200
 20
2.584120
  0
VERTEX
  8
0
  6
CONTINUOUS
 10
3.410440
 20
2.534840
  0
VERTEX
  8
0
  6
CONTINUOUS
 10
3.210680
 20
2.512400
  0
VERTEX
  8
0
  6
CONTINUOUS
 10
3.207160
 20
2.512400
  0
VERTEX
  8
0
  6
CONTINUOUS
 10
3.186040
 20
2.255440
  0
VERTEX
  8
0
  6
CONTINUOUS
 10
3.184280
 20
2.253680
  0
VERTEX
  8
0
  6
CONTINUOUS
 10
3.036880
 20
2.227280
  0
VERTEX
  8
0
  6
CONTINUOUS
 10
2.910160
 20
2.179320
  0
VERTEX
  8
0
  6
CONTINUOUS
 10
2.803240
 20
2.114200
  0
VERTEX
  8
0
  6
CONTINUOUS
 10
2.714800
 20
2.036760
  0
VERTEX
  8
0
  6
CONTINUOUS
 10
2.644840
 20
1.950960
  0
VERTEX
  8
0
  6
CONTINUOUS
 10
2.592040
 20
1.861200
  0
VERTEX
  8
0
  6
CONTINUOUS
 10
2.555080
 20
1.771880
  0
VERTEX
  8
0
  6
CONTINUOUS
 10
2.533960
 20
1.687840
  0
VERTEX
  8
0
  6
CONTINUOUS
 10
2.531760
 20
1.686080
  0
VERTEX
  8
0
  6
CONTINUOUS
 10
2.268640
 20
1.676840
  0
VERTEX
  8
0
  6
CONTINUOUS
 10
2.257200
 20
2.287120
  0
VERTEX
  8
0
  6
CONTINUOUS
 10
2.259840
 20
2.290200
  0
SEQEND
  8
0
  0
TEXT
  8
0
 10
3.702600
 20
1.484560
 40
0.138038
  1
BA  138
 41
1.000000
  7
SN0
 71
     0
 72
     5
 11
4.293755
 21
1.484560
  0
TEXT
  8
0
 10
3.546840
 20
1.293160
 40
0.138038
  1
3/4" x 4-1/2"
 41
1.000000
  7
SN0
 71
     0
 72
     5
 11
4.449398
 21
1.293160
  0
ENDSEC
  0
EOF
