  0
SECTION
  2
HEADER
  9
$ACADVER
  1
AC1006
  9
$EXTMIN
 10
1.496000
 20
1.159840
  9
$EXTMAX
 10
6.293760
 20
7.168920
  9
$LTSCALE
 40
0.044000
  9
$PDMODE
 70
    35
  9
$PDSIZE
 40
0.035200
  0
ENDSEC
  0
SECTION
  2
TABLES
  0
TABLE
  2
LTYPE
 70
     9
  0
LTYPE
  2
CONTINUOUS
 70
    64
  3
Solid line
 72
    65
 73
     0
 40
0.000000
  0
LTYPE
  2
DASHED
 70
    64
  3
__ __ __ __ __ __ __ __ __ __ __ __ __ __ __
 72
    65
 73
     2
 40
0.000330
 49
0.000220
 49
-0.000110
  0
LTYPE
  2
HIDDEN
 70
    64
  3
 _ _ _ _ _ _ _ _ _ _ _ _ _ _ _ _ _ _ _ _ _ _
 72
    65
 73
     2
 40
0.000165
 49
0.000110
 49
-0.000055
  0
LTYPE
  2
CENTER
 70
    64
  3
____ _ ____ _ ____ _ ____ _ ____ _ ____ _ ____
 72
    65
 73
     4
 40
0.000880
 49
0.000550
 49
-0.000110
 49
0.000110
 49
-0.000110
  0
LTYPE
  2
PHANTOM
 70
    64
  3
_____ _ _ _____ _ _ _____ _ _ _____ _ _ ____
 72
    65
 73
     6
 40
0.001100
 49
0.000550
 49
-0.000110
 49
0.000110
 49
-0.000110
 49
0.000110
 49
-0.000110
  0
LTYPE
  2
DOT
 70
    64
  3
...............................................
 72
    65
 73
     2
 40
0.000110
 49
0.000000
 49
-0.000110
  0
LTYPE
  2
DASHDOT
 70
    64
  3
__ . __ . __ . __ . __ . __ . __ . __ . __ . __
 72
    65
 73
     4
 40
0.000440
 49
0.000220
 49
-0.000110
 49
0.000000
 49
-0.000110
  0
LTYPE
  2
BORDER
 70
    64
  3
__ __ . __ __ . __ __ . __ __ . __ __ . __ __
 72
    65
 73
     6
 40
0.000770
 49
0.000220
 49
-0.000110
 49
0.000220
 49
-0.000110
 49
0.000000
 49
-0.000110
  0
LTYPE
  2
DIVIDE
 70
    64
  3
__ . . __ . . __ . . __ . . __ . . __ . . __
 72
    65
 73
     6
 40
0.000550
 49
0.000220
 49
-0.000110
 49
0.000000
 49
-0.000110
 49
0.000000
 49
-0.000110
  0
LTYPE
  2
DOTDOT
 70
    64
  3
 . .  . .  . .  . .  . .  . . 
 72
    65
 73
     5
 40
0.000242
 49
-0.000110
 49
0.000000
 49
-0.000110
 49
0.000000
 49
-0.000110
  0
ENDTAB
  0
TABLE
  2
STYLE
 70
     2
  0
STYLE
 70
     0
  2
SN0
 40
0.000000
 41
0.000440
 50
0.000000
 71
     0
 42
0.000000
  3
ROMAND
  0
STYLE
 70
    68
  2
SV0
 40
0.000000
 41
0.000440
 50
0.000000
 71
     0
 42
0.000000
  3
ROMAND
  0
ENDTAB
  0
TABLE
  2
LAYER
 70
     3
  0
LAYER
  2
FOREGROUND
 70
    64
 62
     7
  6
CONTINUOUS
  0
LAYER
  2
BACKGROUND
 70
    65
 62
    -7
  6
CONTINUOUS
  0
LAYER
  2
0
 70
    64
 62
     7
  6
CONTINUOUS
  0
ENDTAB
  0
ENDSEC
  0
SECTION
  2
ENTITIES
  0
POLYLINE
  8
FOREGROUND
  6
CONTINUOUS
 66
     1
 40
0.000000
 41
0.000000
  0
VERTEX
  8
FOREGROUND
  6
CONTINUOUS
 10
0.000000
 20
8.328760
  0
VERTEX
  8
FOREGROUND
  6
CONTINUOUS
 10
8.499920
 20
8.328760
  0
VERTEX
  8
FOREGROUND
  6
CONTINUOUS
 10
8.499920
 20
-2.671240
  0
VERTEX
  8
FOREGROUND
  6
CONTINUOUS
 10
0.000000
 20
-2.671240
  0
VERTEX
  8
FOREGROUND
  6
CONTINUOUS
 10
0.000000
 20
8.328760
  0
SEQEND
  8
0
  0
POLYLINE
  8
FOREGROUND
  6
CONTINUOUS
 66
     1
 40
0.000000
 41
0.000000
  0
VERTEX
  8
FOREGROUND
  6
CONTINUOUS
 10
0.000000
 20
8.328760
  0
VERTEX
  8
FOREGROUND
  6
CONTINUOUS
 10
8.499920
 20
8.328760
  0
VERTEX
  8
FOREGROUND
  6
CONTINUOUS
 10
8.499920
 20
-2.671240
  0
VERTEX
  8
FOREGROUND
  6
CONTINUOUS
 10
0.000000
 20
-2.671240
  0
VERTEX
  8
FOREGROUND
  6
CONTINUOUS
 10
0.000000
 20
8.328760
  0
SEQEND
  8
0
  0
POLYLINE
  8
0
  6
CONTINUOUS
 66
     1
 40
0.014080
 41
0.014080
  0
VERTEX
  8
0
  6
CONTINUOUS
 10
3.969680
 20
7.159240
  0
VERTEX
  8
0
  6
CONTINUOUS
 10
3.914240
 20
7.160120
  0
VERTEX
  8
0
  6
CONTINUOUS
 10
3.835040
 20
7.157040
  0
VERTEX
  8
0
  6
CONTINUOUS
 10
3.761120
 20
7.149120
  0
VERTEX
  8
0
  6
CONTINUOUS
 10
3.714040
 20
7.141640
  0
VERTEX
  8
0
  6
CONTINUOUS
 10
3.668720
 20
7.131960
  0
VERTEX
  8
0
  6
CONTINUOUS
 10
3.625160
 20
7.120960
  0
VERTEX
  8
0
  6
CONTINUOUS
 10
3.541120
 20
7.094120
  0
VERTEX
  8
0
  6
CONTINUOUS
 10
3.500640
 20
7.078720
  0
VERTEX
  8
0
  6
CONTINUOUS
 10
3.421880
 20
7.043520
  0
VERTEX
  8
0
  6
CONTINUOUS
 10
3.344880
 20
7.004360
  0
VERTEX
  8
0
  6
CONTINUOUS
 10
3.228720
 20
6.939680
  0
VERTEX
  8
0
  6
CONTINUOUS
 10
3.022800
 20
6.822640
  0
VERTEX
  8
0
  6
CONTINUOUS
 10
2.883760
 20
6.751360
  0
VERTEX
  8
0
  6
CONTINUOUS
 10
2.753960
 20
6.694160
  0
VERTEX
  8
0
  6
CONTINUOUS
 10
2.669480
 20
6.661600
  0
VERTEX
  8
0
  6
CONTINUOUS
 10
2.546720
 20
6.620680
  0
VERTEX
  8
0
  6
CONTINUOUS
 10
2.480720
 20
6.601760
  0
VERTEX
  8
0
  6
CONTINUOUS
 10
2.400640
 20
6.589000
  0
VERTEX
  8
0
  6
CONTINUOUS
 10
2.352680
 20
6.581960
  0
VERTEX
  8
0
  6
CONTINUOUS
 10
2.330240
 20
6.578000
  0
VERTEX
  8
0
  6
CONTINUOUS
 10
2.310000
 20
6.572720
  0
VERTEX
  8
0
  6
CONTINUOUS
 10
2.282720
 20
6.562160
  0
VERTEX
  8
0
  6
CONTINUOUS
 10
2.260280
 20
6.547200
  0
VERTEX
  8
0
  6
CONTINUOUS
 10
2.243120
 20
6.526520
  0
VERTEX
  8
0
  6
CONTINUOUS
 10
2.234760
 20
6.509360
  0
VERTEX
  8
0
  6
CONTINUOUS
 10
2.229040
 20
6.488680
  0
VERTEX
  8
0
  6
CONTINUOUS
 10
2.226400
 20
6.464040
  0
VERTEX
  8
0
  6
CONTINUOUS
 10
2.227280
 20
6.435000
  0
VERTEX
  8
0
  6
CONTINUOUS
 10
2.228600
 20
6.419160
  0
VERTEX
  8
0
  6
CONTINUOUS
 10
2.224640
 20
6.420480
  0
VERTEX
  8
0
  6
CONTINUOUS
 10
2.199560
 20
6.415200
  0
VERTEX
  8
0
  6
CONTINUOUS
 10
2.159080
 20
6.400680
  0
VERTEX
  8
0
  6
CONTINUOUS
 10
2.116400
 20
6.379560
  0
VERTEX
  8
0
  6
CONTINUOUS
 10
2.073280
 20
6.351840
  0
VERTEX
  8
0
  6
CONTINUOUS
 10
2.030600
 20
6.318840
  0
VERTEX
  8
0
  6
CONTINUOUS
 10
1.990120
 20
6.280120
  0
VERTEX
  8
0
  6
CONTINUOUS
 10
1.965040
 20
6.251960
  0
VERTEX
  8
0
  6
CONTINUOUS
 10
1.942160
 20
6.222040
  0
VERTEX
  8
0
  6
CONTINUOUS
 10
1.913120
 20
6.173640
  0
VERTEX
  8
0
  6
CONTINUOUS
 10
1.897280
 20
6.139320
  0
VERTEX
  8
0
  6
CONTINUOUS
 10
1.885400
 20
6.104120
  0
VERTEX
  8
0
  6
CONTINUOUS
 10
1.877480
 20
6.067160
  0
VERTEX
  8
0
  6
CONTINUOUS
 10
1.873960
 20
6.029760
  0
VERTEX
  8
0
  6
CONTINUOUS
 10
1.872200
 20
5.976960
  0
VERTEX
  8
0
  6
CONTINUOUS
 10
1.873080
 20
5.929440
  0
VERTEX
  8
0
  6
CONTINUOUS
 10
1.879680
 20
5.865640
  0
VERTEX
  8
0
  6
CONTINUOUS
 10
1.891560
 20
5.810640
  0
VERTEX
  8
0
  6
CONTINUOUS
 10
1.908720
 20
5.762680
  0
VERTEX
  8
0
  6
CONTINUOUS
 10
1.930280
 20
5.720880
  0
VERTEX
  8
0
  6
CONTINUOUS
 10
1.946560
 20
5.695800
  0
VERTEX
  8
0
  6
CONTINUOUS
 10
1.964600
 20
5.672040
  0
VERTEX
  8
0
  6
CONTINUOUS
 10
1.983960
 20
5.650040
  0
VERTEX
  8
0
  6
CONTINUOUS
 10
2.026640
 20
5.607800
  0
VERTEX
  8
0
  6
CONTINUOUS
 10
2.147640
 20
5.498680
  0
VERTEX
  8
0
  6
CONTINUOUS
 10
2.198240
 20
5.445440
  0
VERTEX
  8
0
  6
CONTINUOUS
 10
2.248400
 20
5.382080
  0
VERTEX
  8
0
  6
CONTINUOUS
 10
2.284920
 20
5.325760
  0
VERTEX
  8
0
  6
CONTINUOUS
 10
2.319680
 20
5.261080
  0
VERTEX
  8
0
  6
CONTINUOUS
 10
2.341680
 20
5.212240
  0
VERTEX
  8
0
  6
CONTINUOUS
 10
2.373360
 20
5.129960
  0
VERTEX
  8
0
  6
CONTINUOUS
 10
2.401520
 20
5.035360
  0
VERTEX
  8
0
  6
CONTINUOUS
 10
2.418680
 20
4.964960
  0
VERTEX
  8
0
  6
CONTINUOUS
 10
2.440680
 20
4.847040
  0
VERTEX
  8
0
  6
CONTINUOUS
 10
2.447280
 20
4.804360
  0
VERTEX
  8
0
  6
CONTINUOUS
 10
2.444640
 20
4.796440
  0
VERTEX
  8
0
  6
CONTINUOUS
 10
5.460400
 20
4.796440
  0
VERTEX
  8
0
  6
CONTINUOUS
 10
5.457760
 20
4.800400
  0
VERTEX
  8
0
  6
CONTINUOUS
 10
5.478880
 20
4.923160
  0
VERTEX
  8
0
  6
CONTINUOUS
 10
5.494720
 20
4.996640
  0
VERTEX
  8
0
  6
CONTINUOUS
 10
5.522000
 20
5.095640
  0
VERTEX
  8
0
  6
CONTINUOUS
 10
5.541800
 20
5.154600
  0
VERTEX
  8
0
  6
CONTINUOUS
 10
5.573920
 20
5.233360
  0
VERTEX
  8
0
  6
CONTINUOUS
 10
5.608680
 20
5.301120
  0
VERTEX
  8
0
  6
CONTINUOUS
 10
5.632440
 20
5.341600
  0
VERTEX
  8
0
  6
CONTINUOUS
 10
5.656640
 20
5.378120
  0
VERTEX
  8
0
  6
CONTINUOUS
 10
5.706800
 20
5.441480
  0
VERTEX
  8
0
  6
CONTINUOUS
 10
5.757400
 20
5.494720
  0
VERTEX
  8
0
  6
CONTINUOUS
 10
5.878400
 20
5.603840
  0
VERTEX
  8
0
  6
CONTINUOUS
 10
5.921080
 20
5.646080
  0
VERTEX
  8
0
  6
CONTINUOUS
 10
5.940440
 20
5.668080
  0
VERTEX
  8
0
  6
CONTINUOUS
 10
5.958480
 20
5.691840
  0
VERTEX
  8
0
  6
CONTINUOUS
 10
5.982680
 20
5.730560
  0
VERTEX
  8
0
  6
CONTINUOUS
 10
6.002480
 20
5.774120
  0
VERTEX
  8
0
  6
CONTINUOUS
 10
6.013480
 20
5.806680
  0
VERTEX
  8
0
  6
CONTINUOUS
 10
6.025360
 20
5.861680
  0
VERTEX
  8
0
  6
CONTINUOUS
 10
6.031960
 20
5.925480
  0
VERTEX
  8
0
  6
CONTINUOUS
 10
6.032840
 20
5.973000
  0
VERTEX
  8
0
  6
CONTINUOUS
 10
6.029760
 20
6.044720
  0
VERTEX
  8
0
  6
CONTINUOUS
 10
6.024040
 20
6.081680
  0
VERTEX
  8
0
  6
CONTINUOUS
 10
6.014360
 20
6.117760
  0
VERTEX
  8
0
  6
CONTINUOUS
 10
6.000280
 20
6.152520
  0
VERTEX
  8
0
  6
CONTINUOUS
 10
5.983120
 20
6.185960
  0
VERTEX
  8
0
  6
CONTINUOUS
 10
5.962880
 20
6.218080
  0
VERTEX
  8
0
  6
CONTINUOUS
 10
5.927680
 20
6.262520
  0
VERTEX
  8
0
  6
CONTINUOUS
 10
5.888080
 20
6.302560
  0
VERTEX
  8
0
  6
CONTINUOUS
 10
5.846280
 20
6.337320
  0
VERTEX
  8
0
  6
CONTINUOUS
 10
5.802720
 20
6.366800
  0
VERTEX
  8
0
  6
CONTINUOUS
 10
5.774120
 20
6.383080
  0
VERTEX
  8
0
  6
CONTINUOUS
 10
5.731880
 20
6.402440
  0
VERTEX
  8
0
  6
CONTINUOUS
 10
5.692720
 20
6.414320
  0
VERTEX
  8
0
  6
CONTINUOUS
 10
5.680400
 20
6.416520
  0
VERTEX
  8
0
  6
CONTINUOUS
 10
5.676440
 20
6.415200
  0
VERTEX
  8
0
  6
CONTINUOUS
 10
5.678640
 20
6.460080
  0
VERTEX
  8
0
  6
CONTINUOUS
 10
5.676000
 20
6.484720
  0
VERTEX
  8
0
  6
CONTINUOUS
 10
5.670280
 20
6.505400
  0
VERTEX
  8
0
  6
CONTINUOUS
 10
5.661920
 20
6.522560
  0
VERTEX
  8
0
  6
CONTINUOUS
 10
5.644760
 20
6.543240
  0
VERTEX
  8
0
  6
CONTINUOUS
 10
5.622320
 20
6.558200
  0
VERTEX
  8
0
  6
CONTINUOUS
 10
5.595040
 20
6.568760
  0
VERTEX
  8
0
  6
CONTINUOUS
 10
5.574800
 20
6.574040
  0
VERTEX
  8
0
  6
CONTINUOUS
 10
5.529040
 20
6.581960
  0
VERTEX
  8
0
  6
CONTINUOUS
 10
5.451600
 20
6.592960
  0
VERTEX
  8
0
  6
CONTINUOUS
 10
5.424320
 20
6.597800
  0
VERTEX
  8
0
  6
CONTINUOUS
 10
5.326640
 20
6.626840
  0
VERTEX
  8
0
  6
CONTINUOUS
 10
5.235560
 20
6.657640
  0
VERTEX
  8
0
  6
CONTINUOUS
 10
5.151080
 20
6.690640
  0
VERTEX
  8
0
  6
CONTINUOUS
 10
5.071440
 20
6.724520
  0
VERTEX
  8
0
  6
CONTINUOUS
 10
4.973320
 20
6.771600
  0
VERTEX
  8
0
  6
CONTINUOUS
 10
4.838680
 20
6.843760
  0
VERTEX
  8
0
  6
CONTINUOUS
 10
4.598880
 20
6.982360
  0
VERTEX
  8
0
  6
CONTINUOUS
 10
4.483160
 20
7.043080
  0
VERTEX
  8
0
  6
CONTINUOUS
 10
4.404400
 20
7.078720
  0
VERTEX
  8
0
  6
CONTINUOUS
 10
4.322560
 20
7.108640
  0
VERTEX
  8
0
  6
CONTINUOUS
 10
4.236320
 20
7.132840
  0
VERTEX
  8
0
  6
CONTINUOUS
 10
4.167680
 20
7.146480
  0
VERTEX
  8
0
  6
CONTINUOUS
 10
4.095080
 20
7.155720
  0
VERTEX
  8
0
  6
CONTINUOUS
 10
4.044040
 20
7.159680
  0
VERTEX
  8
0
  6
CONTINUOUS
 10
3.990800
 20
7.161440
  0
VERTEX
  8
0
  6
CONTINUOUS
 10
3.935360
 20
7.160560
  0
VERTEX
  8
0
  6
CONTINUOUS
 10
3.969680
 20
7.159240
  0
SEQEND
  8
0
  0
SOLID
  8
0
 62
    15
 10
5.645200
 20
2.691920
 11
6.283640
 21
3.062400
 12
5.625840
 22
2.623720
 13
6.264280
 23
2.993760
  0
POLYLINE
  8
0
  6
CONTINUOUS
 66
     1
 40
0.000000
 41
0.000000
  0
VERTEX
  8
0
  6
CONTINUOUS
 10
5.645200
 20
2.691920
  0
VERTEX
  8
0
  6
CONTINUOUS
 10
6.283640
 20
3.062400
  0
VERTEX
  8
0
  6
CONTINUOUS
 10
6.264280
 20
2.993760
  0
VERTEX
  8
0
  6
CONTINUOUS
 10
5.625840
 20
2.623720
  0
VERTEX
  8
0
  6
CONTINUOUS
 10
5.645200
 20
2.691920
  0
SEQEND
  8
0
  0
SOLID
  8
0
 62
    15
 10
3.667400
 20
4.009280
 11
4.305840
 21
4.379320
 12
3.767280
 22
3.999600
 13
4.405720
 23
4.369640
  0
POLYLINE
  8
0
  6
CONTINUOUS
 66
     1
 40
0.000000
 41
0.000000
  0
VERTEX
  8
0
  6
CONTINUOUS
 10
3.667400
 20
4.009280
  0
VERTEX
  8
0
  6
CONTINUOUS
 10
4.305840
 20
4.379320
  0
VERTEX
  8
0
  6
CONTINUOUS
 10
4.405720
 20
4.369640
  0
VERTEX
  8
0
  6
CONTINUOUS
 10
3.767280
 20
3.999600
  0
VERTEX
  8
0
  6
CONTINUOUS
 10
3.667400
 20
4.009280
  0
SEQEND
  8
0
  0
SOLID
  8
0
 62
    15
 10
3.767280
 20
3.999600
 11
4.405720
 21
4.369640
 12
3.945920
 22
3.958240
 13
4.584360
 23
4.328280
  0
POLYLINE
  8
0
  6
CONTINUOUS
 66
     1
 40
0.000000
 41
0.000000
  0
VERTEX
  8
0
  6
CONTINUOUS
 10
3.767280
 20
3.999600
  0
VERTEX
  8
0
  6
CONTINUOUS
 10
4.405720
 20
4.369640
  0
VERTEX
  8
0
  6
CONTINUOUS
 10
4.584360
 20
4.328280
  0
VERTEX
  8
0
  6
CONTINUOUS
 10
3.945920
 20
3.958240
  0
VERTEX
  8
0
  6
CONTINUOUS
 10
3.767280
 20
3.999600
  0
SEQEND
  8
0
  0
SOLID
  8
0
 62
    15
 10
3.945920
 20
3.958240
 11
4.584360
 21
4.328280
 12
4.106520
 22
3.892680
 13
4.744960
 23
4.263160
  0
POLYLINE
  8
0
  6
CONTINUOUS
 66
     1
 40
0.000000
 41
0.000000
  0
VERTEX
  8
0
  6
CONTINUOUS
 10
3.945920
 20
3.958240
  0
VERTEX
  8
0
  6
CONTINUOUS
 10
4.584360
 20
4.328280
  0
VERTEX
  8
0
  6
CONTINUOUS
 10
4.744960
 20
4.263160
  0
VERTEX
  8
0
  6
CONTINUOUS
 10
4.106520
 20
3.892680
  0
VERTEX
  8
0
  6
CONTINUOUS
 10
3.945920
 20
3.958240
  0
SEQEND
  8
0
  0
SOLID
  8
0
 62
    15
 10
4.106520
 20
3.892680
 11
4.744960
 21
4.263160
 12
4.260960
 22
3.809960
 13
4.898960
 23
4.180440
  0
POLYLINE
  8
0
  6
CONTINUOUS
 66
     1
 40
0.000000
 41
0.000000
  0
VERTEX
  8
0
  6
CONTINUOUS
 10
4.106520
 20
3.892680
  0
VERTEX
  8
0
  6
CONTINUOUS
 10
4.744960
 20
4.263160
  0
VERTEX
  8
0
  6
CONTINUOUS
 10
4.898960
 20
4.180440
  0
VERTEX
  8
0
  6
CONTINUOUS
 10
4.260960
 20
3.809960
  0
VERTEX
  8
0
  6
CONTINUOUS
 10
4.106520
 20
3.892680
  0
SEQEND
  8
0
  0
SOLID
  8
0
 62
    15
 10
4.260960
 20
3.809960
 11
4.898960
 21
4.180440
 12
4.420240
 22
3.717120
 13
5.058680
 23
4.087600
  0
POLYLINE
  8
0
  6
CONTINUOUS
 66
     1
 40
0.000000
 41
0.000000
  0
VERTEX
  8
0
  6
CONTINUOUS
 10
4.260960
 20
3.809960
  0
VERTEX
  8
0
  6
CONTINUOUS
 10
4.898960
 20
4.180440
  0
VERTEX
  8
0
  6
CONTINUOUS
 10
5.058680
 20
4.087600
  0
VERTEX
  8
0
  6
CONTINUOUS
 10
4.420240
 20
3.717120
  0
VERTEX
  8
0
  6
CONTINUOUS
 10
4.260960
 20
3.809960
  0
SEQEND
  8
0
  0
SOLID
  8
0
 62
    15
 10
4.420240
 20
3.717120
 11
5.058680
 21
4.087600
 12
4.596680
 22
3.621200
 13
5.235120
 23
3.991680
  0
POLYLINE
  8
0
  6
CONTINUOUS
 66
     1
 40
0.000000
 41
0.000000
  0
VERTEX
  8
0
  6
CONTINUOUS
 10
4.420240
 20
3.717120
  0
VERTEX
  8
0
  6
CONTINUOUS
 10
5.058680
 20
4.087600
  0
VERTEX
  8
0
  6
CONTINUOUS
 10
5.235120
 20
3.991680
  0
VERTEX
  8
0
  6
CONTINUOUS
 10
4.596680
 20
3.621200
  0
VERTEX
  8
0
  6
CONTINUOUS
 10
4.420240
 20
3.717120
  0
SEQEND
  8
0
  0
SOLID
  8
0
 62
    15
 10
4.596680
 20
3.621200
 11
5.235120
 21
3.991680
 12
4.802160
 22
3.528800
 13
5.440600
 23
3.899280
  0
POLYLINE
  8
0
  6
CONTINUOUS
 66
     1
 40
0.000000
 41
0.000000
  0
VERTEX
  8
0
  6
CONTINUOUS
 10
4.596680
 20
3.621200
  0
VERTEX
  8
0
  6
CONTINUOUS
 10
5.235120
 20
3.991680
  0
VERTEX
  8
0
  6
CONTINUOUS
 10
5.440600
 20
3.899280
  0
VERTEX
  8
0
  6
CONTINUOUS
 10
4.802160
 20
3.528800
  0
VERTEX
  8
0
  6
CONTINUOUS
 10
4.596680
 20
3.621200
  0
SEQEND
  8
0
  0
SOLID
  8
0
 62
    15
 10
4.802160
 20
3.528800
 11
5.440600
 21
3.899280
 12
4.919200
 22
3.486120
 13
5.557640
 23
3.856600
  0
POLYLINE
  8
0
  6
CONTINUOUS
 66
     1
 40
0.000000
 41
0.000000
  0
VERTEX
  8
0
  6
CONTINUOUS
 10
4.802160
 20
3.528800
  0
VERTEX
  8
0
  6
CONTINUOUS
 10
5.440600
 20
3.899280
  0
VERTEX
  8
0
  6
CONTINUOUS
 10
5.557640
 20
3.856600
  0
VERTEX
  8
0
  6
CONTINUOUS
 10
4.919200
 20
3.486120
  0
VERTEX
  8
0
  6
CONTINUOUS
 10
4.802160
 20
3.528800
  0
SEQEND
  8
0
  0
SOLID
  8
0
 62
    15
 10
4.919200
 20
3.486120
 11
5.557640
 21
3.856600
 12
5.048120
 22
3.447400
 13
5.686120
 23
3.817440
  0
POLYLINE
  8
0
  6
CONTINUOUS
 66
     1
 40
0.000000
 41
0.000000
  0
VERTEX
  8
0
  6
CONTINUOUS
 10
4.919200
 20
3.486120
  0
VERTEX
  8
0
  6
CONTINUOUS
 10
5.557640
 20
3.856600
  0
VERTEX
  8
0
  6
CONTINUOUS
 10
5.686120
 20
3.817440
  0
VERTEX
  8
0
  6
CONTINUOUS
 10
5.048120
 20
3.447400
  0
VERTEX
  8
0
  6
CONTINUOUS
 10
4.919200
 20
3.486120
  0
SEQEND
  8
0
  0
SOLID
  8
0
 62
    15
 10
5.048120
 20
3.447400
 11
5.686120
 21
3.817440
 12
5.152400
 22
3.431120
 13
5.790840
 23
3.801600
  0
POLYLINE
  8
0
  6
CONTINUOUS
 66
     1
 40
0.000000
 41
0.000000
  0
VERTEX
  8
0
  6
CONTINUOUS
 10
5.048120
 20
3.447400
  0
VERTEX
  8
0
  6
CONTINUOUS
 10
5.686120
 20
3.817440
  0
VERTEX
  8
0
  6
CONTINUOUS
 10
5.790840
 20
3.801600
  0
VERTEX
  8
0
  6
CONTINUOUS
 10
5.152400
 20
3.431120
  0
VERTEX
  8
0
  6
CONTINUOUS
 10
5.048120
 20
3.447400
  0
SEQEND
  8
0
  0
SOLID
  8
0
 62
    15
 10
5.152400
 20
3.431120
 11
5.790840
 21
3.801600
 12
5.236880
 22
3.411320
 13
5.875320
 23
3.781800
  0
POLYLINE
  8
0
  6
CONTINUOUS
 66
     1
 40
0.000000
 41
0.000000
  0
VERTEX
  8
0
  6
CONTINUOUS
 10
5.152400
 20
3.431120
  0
VERTEX
  8
0
  6
CONTINUOUS
 10
5.790840
 20
3.801600
  0
VERTEX
  8
0
  6
CONTINUOUS
 10
5.875320
 20
3.781800
  0
VERTEX
  8
0
  6
CONTINUOUS
 10
5.236880
 20
3.411320
  0
VERTEX
  8
0
  6
CONTINUOUS
 10
5.152400
 20
3.431120
  0
SEQEND
  8
0
  0
SOLID
  8
0
 62
    15
 10
5.236880
 20
3.411320
 11
5.875320
 21
3.781800
 12
5.268120
 22
3.392400
 13
5.906120
 23
3.762880
  0
POLYLINE
  8
0
  6
CONTINUOUS
 66
     1
 40
0.000000
 41
0.000000
  0
VERTEX
  8
0
  6
CONTINUOUS
 10
5.236880
 20
3.411320
  0
VERTEX
  8
0
  6
CONTINUOUS
 10
5.875320
 20
3.781800
  0
VERTEX
  8
0
  6
CONTINUOUS
 10
5.906120
 20
3.762880
  0
VERTEX
  8
0
  6
CONTINUOUS
 10
5.268120
 20
3.392400
  0
VERTEX
  8
0
  6
CONTINUOUS
 10
5.236880
 20
3.411320
  0
SEQEND
  8
0
  0
SOLID
  8
0
 62
    15
 10
5.268120
 20
3.392400
 11
5.906120
 21
3.762880
 12
5.289680
 22
3.363800
 13
5.928120
 23
3.733840
  0
POLYLINE
  8
0
  6
CONTINUOUS
 66
     1
 40
0.000000
 41
0.000000
  0
VERTEX
  8
0
  6
CONTINUOUS
 10
5.268120
 20
3.392400
  0
VERTEX
  8
0
  6
CONTINUOUS
 10
5.906120
 20
3.762880
  0
VERTEX
  8
0
  6
CONTINUOUS
 10
5.928120
 20
3.733840
  0
VERTEX
  8
0
  6
CONTINUOUS
 10
5.289680
 20
3.363800
  0
VERTEX
  8
0
  6
CONTINUOUS
 10
5.268120
 20
3.392400
  0
SEQEND
  8
0
  0
SOLID
  8
0
 62
    15
 10
5.289680
 20
3.363800
 11
5.928120
 21
3.733840
 12
5.301120
 22
3.322000
 13
5.939120
 23
3.692480
  0
POLYLINE
  8
0
  6
CONTINUOUS
 66
     1
 40
0.000000
 41
0.000000
  0
VERTEX
  8
0
  6
CONTINUOUS
 10
5.289680
 20
3.363800
  0
VERTEX
  8
0
  6
CONTINUOUS
 10
5.928120
 20
3.733840
  0
VERTEX
  8
0
  6
CONTINUOUS
 10
5.939120
 20
3.692480
  0
VERTEX
  8
0
  6
CONTINUOUS
 10
5.301120
 20
3.322000
  0
VERTEX
  8
0
  6
CONTINUOUS
 10
5.289680
 20
3.363800
  0
SEQEND
  8
0
  0
SOLID
  8
0
 62
    15
 10
5.301120
 20
3.322000
 11
5.939120
 21
3.692480
 12
5.299800
 22
3.264360
 13
5.938240
 23
3.634840
  0
POLYLINE
  8
0
  6
CONTINUOUS
 66
     1
 40
0.000000
 41
0.000000
  0
VERTEX
  8
0
  6
CONTINUOUS
 10
5.301120
 20
3.322000
  0
VERTEX
  8
0
  6
CONTINUOUS
 10
5.939120
 20
3.692480
  0
VERTEX
  8
0
  6
CONTINUOUS
 10
5.938240
 20
3.634840
  0
VERTEX
  8
0
  6
CONTINUOUS
 10
5.299800
 20
3.264360
  0
VERTEX
  8
0
  6
CONTINUOUS
 10
5.301120
 20
3.322000
  0
SEQEND
  8
0
  0
SOLID
  8
0
 62
    15
 10
5.299800
 20
3.264360
 11
5.938240
 21
3.634840
 12
5.303760
 22
3.265680
 13
5.942200
 23
3.636160
  0
POLYLINE
  8
0
  6
CONTINUOUS
 66
     1
 40
0.000000
 41
0.000000
  0
VERTEX
  8
0
  6
CONTINUOUS
 10
5.299800
 20
3.264360
  0
VERTEX
  8
0
  6
CONTINUOUS
 10
5.938240
 20
3.634840
  0
VERTEX
  8
0
  6
CONTINUOUS
 10
5.942200
 20
3.636160
  0
VERTEX
  8
0
  6
CONTINUOUS
 10
5.303760
 20
3.265680
  0
VERTEX
  8
0
  6
CONTINUOUS
 10
5.299800
 20
3.264360
  0
SEQEND
  8
0
  0
SOLID
  8
0
 62
    15
 10
5.303760
 20
3.265680
 11
5.942200
 21
3.636160
 12
5.355680
 22
3.251600
 13
5.993680
 23
3.622080
  0
POLYLINE
  8
0
  6
CONTINUOUS
 66
     1
 40
0.000000
 41
0.000000
  0
VERTEX
  8
0
  6
CONTINUOUS
 10
5.303760
 20
3.265680
  0
VERTEX
  8
0
  6
CONTINUOUS
 10
5.942200
 20
3.636160
  0
VERTEX
  8
0
  6
CONTINUOUS
 10
5.993680
 20
3.622080
  0
VERTEX
  8
0
  6
CONTINUOUS
 10
5.355680
 20
3.251600
  0
VERTEX
  8
0
  6
CONTINUOUS
 10
5.303760
 20
3.265680
  0
SEQEND
  8
0
  0
SOLID
  8
0
 62
    15
 10
5.355680
 20
3.251600
 11
5.993680
 21
3.622080
 12
5.412000
 22
3.225200
 13
6.050440
 23
3.595240
  0
POLYLINE
  8
0
  6
CONTINUOUS
 66
     1
 40
0.000000
 41
0.000000
  0
VERTEX
  8
0
  6
CONTINUOUS
 10
5.355680
 20
3.251600
  0
VERTEX
  8
0
  6
CONTINUOUS
 10
5.993680
 20
3.622080
  0
VERTEX
  8
0
  6
CONTINUOUS
 10
6.050440
 20
3.595240
  0
VERTEX
  8
0
  6
CONTINUOUS
 10
5.412000
 20
3.225200
  0
VERTEX
  8
0
  6
CONTINUOUS
 10
5.355680
 20
3.251600
  0
SEQEND
  8
0
  0
SOLID
  8
0
 62
    15
 10
5.412000
 20
3.225200
 11
6.050440
 21
3.595240
 12
5.525080
 22
3.138960
 13
6.163520
 23
3.509440
  0
POLYLINE
  8
0
  6
CONTINUOUS
 66
     1
 40
0.000000
 41
0.000000
  0
VERTEX
  8
0
  6
CONTINUOUS
 10
5.412000
 20
3.225200
  0
VERTEX
  8
0
  6
CONTINUOUS
 10
6.050440
 20
3.595240
  0
VERTEX
  8
0
  6
CONTINUOUS
 10
6.163520
 20
3.509440
  0
VERTEX
  8
0
  6
CONTINUOUS
 10
5.525080
 20
3.138960
  0
VERTEX
  8
0
  6
CONTINUOUS
 10
5.412000
 20
3.225200
  0
SEQEND
  8
0
  0
SOLID
  8
0
 62
    15
 10
5.525080
 20
3.138960
 11
6.163520
 21
3.509440
 12
5.574800
 22
3.082640
 13
6.213240
 23
3.453120
  0
POLYLINE
  8
0
  6
CONTINUOUS
 66
     1
 40
0.000000
 41
0.000000
  0
VERTEX
  8
0
  6
CONTINUOUS
 10
5.525080
 20
3.138960
  0
VERTEX
  8
0
  6
CONTINUOUS
 10
6.163520
 20
3.509440
  0
VERTEX
  8
0
  6
CONTINUOUS
 10
6.213240
 20
3.453120
  0
VERTEX
  8
0
  6
CONTINUOUS
 10
5.574800
 20
3.082640
  0
VERTEX
  8
0
  6
CONTINUOUS
 10
5.525080
 20
3.138960
  0
SEQEND
  8
0
  0
SOLID
  8
0
 62
    15
 10
5.574800
 20
3.082640
 11
6.213240
 21
3.453120
 12
5.615720
 22
3.018840
 13
6.253720
 23
3.389320
  0
POLYLINE
  8
0
  6
CONTINUOUS
 66
     1
 40
0.000000
 41
0.000000
  0
VERTEX
  8
0
  6
CONTINUOUS
 10
5.574800
 20
3.082640
  0
VERTEX
  8
0
  6
CONTINUOUS
 10
6.213240
 20
3.453120
  0
VERTEX
  8
0
  6
CONTINUOUS
 10
6.253720
 20
3.389320
  0
VERTEX
  8
0
  6
CONTINUOUS
 10
5.615720
 20
3.018840
  0
VERTEX
  8
0
  6
CONTINUOUS
 10
5.574800
 20
3.082640
  0
SEQEND
  8
0
  0
SOLID
  8
0
 62
    15
 10
5.615720
 20
3.018840
 11
6.253720
 21
3.389320
 12
5.643000
 22
2.949320
 13
6.281440
 23
3.319800
  0
POLYLINE
  8
0
  6
CONTINUOUS
 66
     1
 40
0.000000
 41
0.000000
  0
VERTEX
  8
0
  6
CONTINUOUS
 10
5.615720
 20
3.018840
  0
VERTEX
  8
0
  6
CONTINUOUS
 10
6.253720
 20
3.389320
  0
VERTEX
  8
0
  6
CONTINUOUS
 10
6.281440
 20
3.319800
  0
VERTEX
  8
0
  6
CONTINUOUS
 10
5.643000
 20
2.949320
  0
VERTEX
  8
0
  6
CONTINUOUS
 10
5.615720
 20
3.018840
  0
SEQEND
  8
0
  0
SOLID
  8
0
 62
    15
 10
5.643000
 20
2.949320
 11
6.281440
 21
3.319800
 12
5.654440
 22
2.875400
 13
6.292880
 23
3.245440
  0
POLYLINE
  8
0
  6
CONTINUOUS
 66
     1
 40
0.000000
 41
0.000000
  0
VERTEX
  8
0
  6
CONTINUOUS
 10
5.643000
 20
2.949320
  0
VERTEX
  8
0
  6
CONTINUOUS
 10
6.281440
 20
3.319800
  0
VERTEX
  8
0
  6
CONTINUOUS
 10
6.292880
 20
3.245440
  0
VERTEX
  8
0
  6
CONTINUOUS
 10
5.654440
 20
2.875400
  0
VERTEX
  8
0
  6
CONTINUOUS
 10
5.643000
 20
2.949320
  0
SEQEND
  8
0
  0
SOLID
  8
0
 62
    15
 10
5.654440
 20
2.875400
 11
6.292880
 21
3.245440
 12
5.655320
 22
2.775080
 13
6.293760
 23
3.145120
  0
POLYLINE
  8
0
  6
CONTINUOUS
 66
     1
 40
0.000000
 41
0.000000
  0
VERTEX
  8
0
  6
CONTINUOUS
 10
5.654440
 20
2.875400
  0
VERTEX
  8
0
  6
CONTINUOUS
 10
6.292880
 20
3.245440
  0
VERTEX
  8
0
  6
CONTINUOUS
 10
6.293760
 20
3.145120
  0
VERTEX
  8
0
  6
CONTINUOUS
 10
5.655320
 20
2.775080
  0
VERTEX
  8
0
  6
CONTINUOUS
 10
5.654440
 20
2.875400
  0
SEQEND
  8
0
  0
SOLID
  8
0
 62
    15
 10
5.655320
 20
2.775080
 11
6.293760
 21
3.145120
 12
5.645200
 22
2.691920
 13
6.283640
 23
3.062400
  0
POLYLINE
  8
0
  6
CONTINUOUS
 66
     1
 40
0.000000
 41
0.000000
  0
VERTEX
  8
0
  6
CONTINUOUS
 10
5.655320
 20
2.775080
  0
VERTEX
  8
0
  6
CONTINUOUS
 10
6.293760
 20
3.145120
  0
VERTEX
  8
0
  6
CONTINUOUS
 10
6.283640
 20
3.062400
  0
VERTEX
  8
0
  6
CONTINUOUS
 10
5.645200
 20
2.691920
  0
VERTEX
  8
0
  6
CONTINUOUS
 10
5.655320
 20
2.775080
  0
SEQEND
  8
0
  0
SOLID
  8
0
 62
    15
 10
3.484360
 20
4.007960
 11
4.122800
 21
4.378000
 12
3.593480
 22
4.008400
 13
4.231480
 23
4.378880
  0
POLYLINE
  8
0
  6
CONTINUOUS
 66
     1
 40
0.000000
 41
0.000000
  0
VERTEX
  8
0
  6
CONTINUOUS
 10
3.484360
 20
4.007960
  0
VERTEX
  8
0
  6
CONTINUOUS
 10
4.122800
 20
4.378000
  0
VERTEX
  8
0
  6
CONTINUOUS
 10
4.231480
 20
4.378880
  0
VERTEX
  8
0
  6
CONTINUOUS
 10
3.593480
 20
4.008400
  0
VERTEX
  8
0
  6
CONTINUOUS
 10
3.484360
 20
4.007960
  0
SEQEND
  8
0
  0
SOLID
  8
0
 62
    15
 10
5.625840
 20
2.623720
 11
6.264280
 21
2.993760
 12
5.598560
 22
2.566520
 13
6.236560
 23
2.936560
  0
POLYLINE
  8
0
  6
CONTINUOUS
 66
     1
 40
0.000000
 41
0.000000
  0
VERTEX
  8
0
  6
CONTINUOUS
 10
5.625840
 20
2.623720
  0
VERTEX
  8
0
  6
CONTINUOUS
 10
6.264280
 20
2.993760
  0
VERTEX
  8
0
  6
CONTINUOUS
 10
6.236560
 20
2.936560
  0
VERTEX
  8
0
  6
CONTINUOUS
 10
5.598560
 20
2.566520
  0
VERTEX
  8
0
  6
CONTINUOUS
 10
5.625840
 20
2.623720
  0
SEQEND
  8
0
  0
SOLID
  8
0
 62
    15
 10
5.523760
 20
2.474120
 11
6.161760
 21
2.844600
 12
5.430920
 22
2.390520
 13
6.069360
 23
2.761000
  0
POLYLINE
  8
0
  6
CONTINUOUS
 66
     1
 40
0.000000
 41
0.000000
  0
VERTEX
  8
0
  6
CONTINUOUS
 10
5.523760
 20
2.474120
  0
VERTEX
  8
0
  6
CONTINUOUS
 10
6.161760
 20
2.844600
  0
VERTEX
  8
0
  6
CONTINUOUS
 10
6.069360
 20
2.761000
  0
VERTEX
  8
0
  6
CONTINUOUS
 10
5.430920
 20
2.390520
  0
VERTEX
  8
0
  6
CONTINUOUS
 10
5.523760
 20
2.474120
  0
SEQEND
  8
0
  0
SOLID
  8
0
 62
    15
 10
5.598560
 20
2.566520
 11
6.236560
 21
2.936560
 12
5.523760
 22
2.474120
 13
6.161760
 23
2.844600
  0
POLYLINE
  8
0
  6
CONTINUOUS
 66
     1
 40
0.000000
 41
0.000000
  0
VERTEX
  8
0
  6
CONTINUOUS
 10
5.598560
 20
2.566520
  0
VERTEX
  8
0
  6
CONTINUOUS
 10
6.236560
 20
2.936560
  0
VERTEX
  8
0
  6
CONTINUOUS
 10
6.161760
 20
2.844600
  0
VERTEX
  8
0
  6
CONTINUOUS
 10
5.523760
 20
2.474120
  0
VERTEX
  8
0
  6
CONTINUOUS
 10
5.598560
 20
2.566520
  0
SEQEND
  8
0
  0
SOLID
  8
0
 62
    15
 10
5.330160
 20
2.291080
 11
5.968600
 21
2.661120
 12
5.280000
 22
2.227720
 13
5.918440
 23
2.597760
  0
POLYLINE
  8
0
  6
CONTINUOUS
 66
     1
 40
0.000000
 41
0.000000
  0
VERTEX
  8
0
  6
CONTINUOUS
 10
5.330160
 20
2.291080
  0
VERTEX
  8
0
  6
CONTINUOUS
 10
5.968600
 20
2.661120
  0
VERTEX
  8
0
  6
CONTINUOUS
 10
5.918440
 20
2.597760
  0
VERTEX
  8
0
  6
CONTINUOUS
 10
5.280000
 20
2.227720
  0
VERTEX
  8
0
  6
CONTINUOUS
 10
5.330160
 20
2.291080
  0
SEQEND
  8
0
  0
SOLID
  8
0
 62
    15
 10
5.430920
 20
2.390520
 11
6.069360
 21
2.761000
 12
5.330160
 22
2.291080
 13
5.968600
 23
2.661120
  0
POLYLINE
  8
0
  6
CONTINUOUS
 66
     1
 40
0.000000
 41
0.000000
  0
VERTEX
  8
0
  6
CONTINUOUS
 10
5.430920
 20
2.390520
  0
VERTEX
  8
0
  6
CONTINUOUS
 10
6.069360
 20
2.761000
  0
VERTEX
  8
0
  6
CONTINUOUS
 10
5.968600
 20
2.661120
  0
VERTEX
  8
0
  6
CONTINUOUS
 10
5.330160
 20
2.291080
  0
VERTEX
  8
0
  6
CONTINUOUS
 10
5.430920
 20
2.390520
  0
SEQEND
  8
0
  0
SOLID
  8
0
 62
    15
 10
5.280000
 20
2.227720
 11
5.918440
 21
2.597760
 12
5.232040
 22
2.150720
 13
5.870480
 23
2.521200
  0
POLYLINE
  8
0
  6
CONTINUOUS
 66
     1
 40
0.000000
 41
0.000000
  0
VERTEX
  8
0
  6
CONTINUOUS
 10
5.280000
 20
2.227720
  0
VERTEX
  8
0
  6
CONTINUOUS
 10
5.918440
 20
2.597760
  0
VERTEX
  8
0
  6
CONTINUOUS
 10
5.870480
 20
2.521200
  0
VERTEX
  8
0
  6
CONTINUOUS
 10
5.232040
 20
2.150720
  0
VERTEX
  8
0
  6
CONTINUOUS
 10
5.280000
 20
2.227720
  0
SEQEND
  8
0
  0
SOLID
  8
0
 62
    15
 10
5.232040
 20
2.150720
 11
5.870480
 21
2.521200
 12
5.186720
 22
2.057880
 13
5.825160
 23
2.427920
  0
POLYLINE
  8
0
  6
CONTINUOUS
 66
     1
 40
0.000000
 41
0.000000
  0
VERTEX
  8
0
  6
CONTINUOUS
 10
5.232040
 20
2.150720
  0
VERTEX
  8
0
  6
CONTINUOUS
 10
5.870480
 20
2.521200
  0
VERTEX
  8
0
  6
CONTINUOUS
 10
5.825160
 20
2.427920
  0
VERTEX
  8
0
  6
CONTINUOUS
 10
5.186720
 20
2.057880
  0
VERTEX
  8
0
  6
CONTINUOUS
 10
5.232040
 20
2.150720
  0
SEQEND
  8
0
  0
SOLID
  8
0
 62
    15
 10
5.186720
 20
2.057880
 11
5.825160
 21
2.427920
 12
5.145800
 22
1.945240
 13
5.783800
 23
2.315720
  0
POLYLINE
  8
0
  6
CONTINUOUS
 66
     1
 40
0.000000
 41
0.000000
  0
VERTEX
  8
0
  6
CONTINUOUS
 10
5.186720
 20
2.057880
  0
VERTEX
  8
0
  6
CONTINUOUS
 10
5.825160
 20
2.427920
  0
VERTEX
  8
0
  6
CONTINUOUS
 10
5.783800
 20
2.315720
  0
VERTEX
  8
0
  6
CONTINUOUS
 10
5.145800
 20
1.945240
  0
VERTEX
  8
0
  6
CONTINUOUS
 10
5.186720
 20
2.057880
  0
SEQEND
  8
0
  0
SOLID
  8
0
 62
    15
 10
5.145800
 20
1.945240
 11
5.783800
 21
2.315720
 12
5.110160
 22
1.810600
 13
5.748600
 23
2.180640
  0
POLYLINE
  8
0
  6
CONTINUOUS
 66
     1
 40
0.000000
 41
0.000000
  0
VERTEX
  8
0
  6
CONTINUOUS
 10
5.145800
 20
1.945240
  0
VERTEX
  8
0
  6
CONTINUOUS
 10
5.783800
 20
2.315720
  0
VERTEX
  8
0
  6
CONTINUOUS
 10
5.748600
 20
2.180640
  0
VERTEX
  8
0
  6
CONTINUOUS
 10
5.110160
 20
1.810600
  0
VERTEX
  8
0
  6
CONTINUOUS
 10
5.145800
 20
1.945240
  0
SEQEND
  8
0
  0
SOLID
  8
0
 62
    15
 10
5.110160
 20
1.810600
 11
5.748600
 21
2.180640
 12
5.081120
 22
1.650000
 13
5.719560
 23
2.020040
  0
POLYLINE
  8
0
  6
CONTINUOUS
 66
     1
 40
0.000000
 41
0.000000
  0
VERTEX
  8
0
  6
CONTINUOUS
 10
5.110160
 20
1.810600
  0
VERTEX
  8
0
  6
CONTINUOUS
 10
5.748600
 20
2.180640
  0
VERTEX
  8
0
  6
CONTINUOUS
 10
5.719560
 20
2.020040
  0
VERTEX
  8
0
  6
CONTINUOUS
 10
5.081120
 20
1.650000
  0
VERTEX
  8
0
  6
CONTINUOUS
 10
5.110160
 20
1.810600
  0
SEQEND
  8
0
  0
SOLID
  8
0
 62
    15
 10
5.081120
 20
1.650000
 11
5.719560
 21
2.020040
 12
5.083760
 22
1.646040
 13
5.722200
 23
2.016080
  0
POLYLINE
  8
0
  6
CONTINUOUS
 66
     1
 40
0.000000
 41
0.000000
  0
VERTEX
  8
0
  6
CONTINUOUS
 10
5.081120
 20
1.650000
  0
VERTEX
  8
0
  6
CONTINUOUS
 10
5.719560
 20
2.020040
  0
VERTEX
  8
0
  6
CONTINUOUS
 10
5.722200
 20
2.016080
  0
VERTEX
  8
0
  6
CONTINUOUS
 10
5.083760
 20
1.646040
  0
VERTEX
  8
0
  6
CONTINUOUS
 10
5.081120
 20
1.650000
  0
SEQEND
  8
0
  0
SOLID
  8
0
 62
    15
 10
1.739760
 20
3.229160
 11
2.378200
 21
3.599200
 12
1.796520
 22
3.255560
 13
2.434520
 23
3.626040
  0
POLYLINE
  8
0
  6
CONTINUOUS
 66
     1
 40
0.000000
 41
0.000000
  0
VERTEX
  8
0
  6
CONTINUOUS
 10
1.739760
 20
3.229160
  0
VERTEX
  8
0
  6
CONTINUOUS
 10
2.378200
 20
3.599200
  0
VERTEX
  8
0
  6
CONTINUOUS
 10
2.434520
 20
3.626040
  0
VERTEX
  8
0
  6
CONTINUOUS
 10
1.796520
 20
3.255560
  0
VERTEX
  8
0
  6
CONTINUOUS
 10
1.739760
 20
3.229160
  0
SEQEND
  8
0
  0
SOLID
  8
0
 62
    15
 10
1.796520
 20
3.255560
 11
2.434520
 21
3.626040
 12
1.848000
 22
3.270080
 13
2.486440
 23
3.640120
  0
POLYLINE
  8
0
  6
CONTINUOUS
 66
     1
 40
0.000000
 41
0.000000
  0
VERTEX
  8
0
  6
CONTINUOUS
 10
1.796520
 20
3.255560
  0
VERTEX
  8
0
  6
CONTINUOUS
 10
2.434520
 20
3.626040
  0
VERTEX
  8
0
  6
CONTINUOUS
 10
2.486440
 20
3.640120
  0
VERTEX
  8
0
  6
CONTINUOUS
 10
1.848000
 20
3.270080
  0
VERTEX
  8
0
  6
CONTINUOUS
 10
1.796520
 20
3.255560
  0
SEQEND
  8
0
  0
SOLID
  8
0
 62
    15
 10
1.848000
 20
3.270080
 11
2.486440
 21
3.640120
 12
1.851960
 22
3.268760
 13
2.490400
 23
3.638800
  0
POLYLINE
  8
0
  6
CONTINUOUS
 66
     1
 40
0.000000
 41
0.000000
  0
VERTEX
  8
0
  6
CONTINUOUS
 10
1.848000
 20
3.270080
  0
VERTEX
  8
0
  6
CONTINUOUS
 10
2.486440
 20
3.640120
  0
VERTEX
  8
0
  6
CONTINUOUS
 10
2.490400
 20
3.638800
  0
VERTEX
  8
0
  6
CONTINUOUS
 10
1.851960
 20
3.268760
  0
VERTEX
  8
0
  6
CONTINUOUS
 10
1.848000
 20
3.270080
  0
SEQEND
  8
0
  0
SOLID
  8
0
 62
    15
 10
1.914880
 20
3.415280
 11
2.553320
 21
3.785760
 12
1.999360
 22
3.435080
 13
2.637800
 23
3.805560
  0
POLYLINE
  8
0
  6
CONTINUOUS
 66
     1
 40
0.000000
 41
0.000000
  0
VERTEX
  8
0
  6
CONTINUOUS
 10
1.914880
 20
3.415280
  0
VERTEX
  8
0
  6
CONTINUOUS
 10
2.553320
 20
3.785760
  0
VERTEX
  8
0
  6
CONTINUOUS
 10
2.637800
 20
3.805560
  0
VERTEX
  8
0
  6
CONTINUOUS
 10
1.999360
 20
3.435080
  0
VERTEX
  8
0
  6
CONTINUOUS
 10
1.914880
 20
3.415280
  0
SEQEND
  8
0
  0
SOLID
  8
0
 62
    15
 10
1.999360
 20
3.435080
 11
2.637800
 21
3.805560
 12
2.104080
 22
3.451360
 13
2.742520
 23
3.821400
  0
POLYLINE
  8
0
  6
CONTINUOUS
 66
     1
 40
0.000000
 41
0.000000
  0
VERTEX
  8
0
  6
CONTINUOUS
 10
1.999360
 20
3.435080
  0
VERTEX
  8
0
  6
CONTINUOUS
 10
2.637800
 20
3.805560
  0
VERTEX
  8
0
  6
CONTINUOUS
 10
2.742520
 20
3.821400
  0
VERTEX
  8
0
  6
CONTINUOUS
 10
2.104080
 20
3.451360
  0
VERTEX
  8
0
  6
CONTINUOUS
 10
1.999360
 20
3.435080
  0
SEQEND
  8
0
  0
SOLID
  8
0
 62
    15
 10
2.104080
 20
3.451360
 11
2.742520
 21
3.821400
 12
2.232560
 22
3.490080
 13
2.871000
 23
3.860560
  0
POLYLINE
  8
0
  6
CONTINUOUS
 66
     1
 40
0.000000
 41
0.000000
  0
VERTEX
  8
0
  6
CONTINUOUS
 10
2.104080
 20
3.451360
  0
VERTEX
  8
0
  6
CONTINUOUS
 10
2.742520
 20
3.821400
  0
VERTEX
  8
0
  6
CONTINUOUS
 10
2.871000
 20
3.860560
  0
VERTEX
  8
0
  6
CONTINUOUS
 10
2.232560
 20
3.490080
  0
VERTEX
  8
0
  6
CONTINUOUS
 10
2.104080
 20
3.451360
  0
SEQEND
  8
0
  0
SOLID
  8
0
 62
    15
 10
2.232560
 20
3.490080
 11
2.871000
 21
3.860560
 12
2.349600
 22
3.532760
 13
2.988040
 23
3.902800
  0
POLYLINE
  8
0
  6
CONTINUOUS
 66
     1
 40
0.000000
 41
0.000000
  0
VERTEX
  8
0
  6
CONTINUOUS
 10
2.232560
 20
3.490080
  0
VERTEX
  8
0
  6
CONTINUOUS
 10
2.871000
 20
3.860560
  0
VERTEX
  8
0
  6
CONTINUOUS
 10
2.988040
 20
3.902800
  0
VERTEX
  8
0
  6
CONTINUOUS
 10
2.349600
 20
3.532760
  0
VERTEX
  8
0
  6
CONTINUOUS
 10
2.232560
 20
3.490080
  0
SEQEND
  8
0
  0
SOLID
  8
0
 62
    15
 10
2.349600
 20
3.532760
 11
2.988040
 21
3.902800
 12
2.555080
 22
3.624280
 13
3.193520
 23
3.994760
  0
POLYLINE
  8
0
  6
CONTINUOUS
 66
     1
 40
0.000000
 41
0.000000
  0
VERTEX
  8
0
  6
CONTINUOUS
 10
2.349600
 20
3.532760
  0
VERTEX
  8
0
  6
CONTINUOUS
 10
2.988040
 20
3.902800
  0
VERTEX
  8
0
  6
CONTINUOUS
 10
3.193520
 20
3.994760
  0
VERTEX
  8
0
  6
CONTINUOUS
 10
2.555080
 20
3.624280
  0
VERTEX
  8
0
  6
CONTINUOUS
 10
2.349600
 20
3.532760
  0
SEQEND
  8
0
  0
SOLID
  8
0
 62
    15
 10
2.555080
 20
3.624280
 11
3.193520
 21
3.994760
 12
2.731520
 22
3.719760
 13
3.369960
 23
4.089800
  0
POLYLINE
  8
0
  6
CONTINUOUS
 66
     1
 40
0.000000
 41
0.000000
  0
VERTEX
  8
0
  6
CONTINUOUS
 10
2.555080
 20
3.624280
  0
VERTEX
  8
0
  6
CONTINUOUS
 10
3.193520
 20
3.994760
  0
VERTEX
  8
0
  6
CONTINUOUS
 10
3.369960
 20
4.089800
  0
VERTEX
  8
0
  6
CONTINUOUS
 10
2.731520
 20
3.719760
  0
VERTEX
  8
0
  6
CONTINUOUS
 10
2.555080
 20
3.624280
  0
SEQEND
  8
0
  0
SOLID
  8
0
 62
    15
 10
2.731520
 20
3.719760
 11
3.369960
 21
4.089800
 12
2.891240
 22
3.811280
 13
3.529680
 23
4.181760
  0
POLYLINE
  8
0
  6
CONTINUOUS
 66
     1
 40
0.000000
 41
0.000000
  0
VERTEX
  8
0
  6
CONTINUOUS
 10
2.731520
 20
3.719760
  0
VERTEX
  8
0
  6
CONTINUOUS
 10
3.369960
 20
4.089800
  0
VERTEX
  8
0
  6
CONTINUOUS
 10
3.529680
 20
4.181760
  0
VERTEX
  8
0
  6
CONTINUOUS
 10
2.891240
 20
3.811280
  0
VERTEX
  8
0
  6
CONTINUOUS
 10
2.731520
 20
3.719760
  0
SEQEND
  8
0
  0
SOLID
  8
0
 62
    15
 10
2.891240
 20
3.811280
 11
3.529680
 21
4.181760
 12
3.045240
 22
3.893120
 13
3.683680
 23
4.263160
  0
POLYLINE
  8
0
  6
CONTINUOUS
 66
     1
 40
0.000000
 41
0.000000
  0
VERTEX
  8
0
  6
CONTINUOUS
 10
2.891240
 20
3.811280
  0
VERTEX
  8
0
  6
CONTINUOUS
 10
3.529680
 20
4.181760
  0
VERTEX
  8
0
  6
CONTINUOUS
 10
3.683680
 20
4.263160
  0
VERTEX
  8
0
  6
CONTINUOUS
 10
3.045240
 20
3.893120
  0
VERTEX
  8
0
  6
CONTINUOUS
 10
2.891240
 20
3.811280
  0
SEQEND
  8
0
  0
SOLID
  8
0
 62
    15
 10
3.045240
 20
3.893120
 11
3.683680
 21
4.263160
 12
3.205840
 22
3.957800
 13
3.844280
 23
4.327840
  0
POLYLINE
  8
0
  6
CONTINUOUS
 66
     1
 40
0.000000
 41
0.000000
  0
VERTEX
  8
0
  6
CONTINUOUS
 10
3.045240
 20
3.893120
  0
VERTEX
  8
0
  6
CONTINUOUS
 10
3.683680
 20
4.263160
  0
VERTEX
  8
0
  6
CONTINUOUS
 10
3.844280
 20
4.327840
  0
VERTEX
  8
0
  6
CONTINUOUS
 10
3.205840
 20
3.957800
  0
VERTEX
  8
0
  6
CONTINUOUS
 10
3.045240
 20
3.893120
  0
SEQEND
  8
0
  0
SOLID
  8
0
 62
    15
 10
3.205840
 20
3.957800
 11
3.844280
 21
4.327840
 12
3.384480
 22
3.998280
 13
4.022920
 23
4.368760
  0
POLYLINE
  8
0
  6
CONTINUOUS
 66
     1
 40
0.000000
 41
0.000000
  0
VERTEX
  8
0
  6
CONTINUOUS
 10
3.205840
 20
3.957800
  0
VERTEX
  8
0
  6
CONTINUOUS
 10
3.844280
 20
4.327840
  0
VERTEX
  8
0
  6
CONTINUOUS
 10
4.022920
 20
4.368760
  0
VERTEX
  8
0
  6
CONTINUOUS
 10
3.384480
 20
3.998280
  0
VERTEX
  8
0
  6
CONTINUOUS
 10
3.205840
 20
3.957800
  0
SEQEND
  8
0
  0
SOLID
  8
0
 62
    15
 10
3.384480
 20
3.998280
 11
4.022920
 21
4.368760
 12
3.484360
 22
4.007960
 13
4.122800
 23
4.378000
  0
POLYLINE
  8
0
  6
CONTINUOUS
 66
     1
 40
0.000000
 41
0.000000
  0
VERTEX
  8
0
  6
CONTINUOUS
 10
3.384480
 20
3.998280
  0
VERTEX
  8
0
  6
CONTINUOUS
 10
4.022920
 20
4.368760
  0
VERTEX
  8
0
  6
CONTINUOUS
 10
4.122800
 20
4.378000
  0
VERTEX
  8
0
  6
CONTINUOUS
 10
3.484360
 20
4.007960
  0
VERTEX
  8
0
  6
CONTINUOUS
 10
3.384480
 20
3.998280
  0
SEQEND
  8
0
  0
SOLID
  8
0
 62
    15
 10
3.558720
 20
4.009720
 11
4.197160
 21
4.380200
 12
3.667400
 22
4.009280
 13
4.305840
 23
4.379320
  0
POLYLINE
  8
0
  6
CONTINUOUS
 66
     1
 40
0.000000
 41
0.000000
  0
VERTEX
  8
0
  6
CONTINUOUS
 10
3.558720
 20
4.009720
  0
VERTEX
  8
0
  6
CONTINUOUS
 10
4.197160
 20
4.380200
  0
VERTEX
  8
0
  6
CONTINUOUS
 10
4.305840
 20
4.379320
  0
VERTEX
  8
0
  6
CONTINUOUS
 10
3.667400
 20
4.009280
  0
VERTEX
  8
0
  6
CONTINUOUS
 10
3.558720
 20
4.009720
  0
SEQEND
  8
0
  0
POLYLINE
  8
0
  6
CONTINUOUS
 66
     1
 40
0.000000
 41
0.000000
  0
VERTEX
  8
0
  6
CONTINUOUS
 10
3.558720
 20
4.009720
  0
VERTEX
  8
0
  6
CONTINUOUS
 10
3.667400
 20
4.009280
  0
VERTEX
  8
0
  6
CONTINUOUS
 10
3.767280
 20
3.999600
  0
VERTEX
  8
0
  6
CONTINUOUS
 10
3.945920
 20
3.958240
  0
VERTEX
  8
0
  6
CONTINUOUS
 10
4.106520
 20
3.892680
  0
VERTEX
  8
0
  6
CONTINUOUS
 10
4.260960
 20
3.809960
  0
VERTEX
  8
0
  6
CONTINUOUS
 10
4.420240
 20
3.717120
  0
VERTEX
  8
0
  6
CONTINUOUS
 10
4.596680
 20
3.621200
  0
VERTEX
  8
0
  6
CONTINUOUS
 10
4.802160
 20
3.528800
  0
VERTEX
  8
0
  6
CONTINUOUS
 10
4.919200
 20
3.486120
  0
VERTEX
  8
0
  6
CONTINUOUS
 10
5.048120
 20
3.447400
  0
VERTEX
  8
0
  6
CONTINUOUS
 10
5.152400
 20
3.431120
  0
VERTEX
  8
0
  6
CONTINUOUS
 10
5.236880
 20
3.411320
  0
VERTEX
  8
0
  6
CONTINUOUS
 10
5.268120
 20
3.392400
  0
VERTEX
  8
0
  6
CONTINUOUS
 10
5.289680
 20
3.363800
  0
VERTEX
  8
0
  6
CONTINUOUS
 10
5.301120
 20
3.322000
  0
VERTEX
  8
0
  6
CONTINUOUS
 10
5.299800
 20
3.264360
  0
VERTEX
  8
0
  6
CONTINUOUS
 10
5.303760
 20
3.265680
  0
VERTEX
  8
0
  6
CONTINUOUS
 10
5.355680
 20
3.251600
  0
VERTEX
  8
0
  6
CONTINUOUS
 10
5.412000
 20
3.225200
  0
VERTEX
  8
0
  6
CONTINUOUS
 10
5.525080
 20
3.138960
  0
VERTEX
  8
0
  6
CONTINUOUS
 10
5.574800
 20
3.082640
  0
VERTEX
  8
0
  6
CONTINUOUS
 10
5.615720
 20
3.018840
  0
VERTEX
  8
0
  6
CONTINUOUS
 10
5.643000
 20
2.949320
  0
VERTEX
  8
0
  6
CONTINUOUS
 10
5.654440
 20
2.875400
  0
VERTEX
  8
0
  6
CONTINUOUS
 10
5.655320
 20
2.775080
  0
VERTEX
  8
0
  6
CONTINUOUS
 10
5.645200
 20
2.691920
  0
VERTEX
  8
0
  6
CONTINUOUS
 10
5.625840
 20
2.623720
  0
VERTEX
  8
0
  6
CONTINUOUS
 10
5.598560
 20
2.566520
  0
VERTEX
  8
0
  6
CONTINUOUS
 10
5.523760
 20
2.474120
  0
VERTEX
  8
0
  6
CONTINUOUS
 10
5.430920
 20
2.390520
  0
VERTEX
  8
0
  6
CONTINUOUS
 10
5.330160
 20
2.291080
  0
VERTEX
  8
0
  6
CONTINUOUS
 10
5.280000
 20
2.227720
  0
VERTEX
  8
0
  6
CONTINUOUS
 10
5.232040
 20
2.150720
  0
VERTEX
  8
0
  6
CONTINUOUS
 10
5.186720
 20
2.057880
  0
VERTEX
  8
0
  6
CONTINUOUS
 10
5.145800
 20
1.945240
  0
VERTEX
  8
0
  6
CONTINUOUS
 10
5.110160
 20
1.810600
  0
VERTEX
  8
0
  6
CONTINUOUS
 10
5.081120
 20
1.650000
  0
VERTEX
  8
0
  6
CONTINUOUS
 10
5.083760
 20
1.646040
  0
VERTEX
  8
0
  6
CONTINUOUS
 10
2.068000
 20
1.646040
  0
VERTEX
  8
0
  6
CONTINUOUS
 10
2.070640
 20
1.653960
  0
VERTEX
  8
0
  6
CONTINUOUS
 10
2.041600
 20
1.814560
  0
VERTEX
  8
0
  6
CONTINUOUS
 10
2.006400
 20
1.949200
  0
VERTEX
  8
0
  6
CONTINUOUS
 10
1.965040
 20
2.061840
  0
VERTEX
  8
0
  6
CONTINUOUS
 10
1.919720
 20
2.154680
  0
VERTEX
  8
0
  6
CONTINUOUS
 10
1.871760
 20
2.231680
  0
VERTEX
  8
0
  6
CONTINUOUS
 10
1.821600
 20
2.295040
  0
VERTEX
  8
0
  6
CONTINUOUS
 10
1.720840
 20
2.394480
  0
VERTEX
  8
0
  6
CONTINUOUS
 10
1.628440
 20
2.478080
  0
VERTEX
  8
0
  6
CONTINUOUS
 10
1.553640
 20
2.570480
  0
VERTEX
  8
0
  6
CONTINUOUS
 10
1.525920
 20
2.627680
  0
VERTEX
  8
0
  6
CONTINUOUS
 10
1.506560
 20
2.695880
  0
VERTEX
  8
0
  6
CONTINUOUS
 10
1.496440
 20
2.779040
  0
VERTEX
  8
0
  6
CONTINUOUS
 10
1.497320
 20
2.879360
  0
VERTEX
  8
0
  6
CONTINUOUS
 10
1.508760
 20
2.953280
  0
VERTEX
  8
0
  6
CONTINUOUS
 10
1.536480
 20
3.022800
  0
VERTEX
  8
0
  6
CONTINUOUS
 10
1.576960
 20
3.086600
  0
VERTEX
  8
0
  6
CONTINUOUS
 10
1.626680
 20
3.142920
  0
VERTEX
  8
0
  6
CONTINUOUS
 10
1.739760
 20
3.229160
  0
VERTEX
  8
0
  6
CONTINUOUS
 10
1.796520
 20
3.255560
  0
VERTEX
  8
0
  6
CONTINUOUS
 10
1.848000
 20
3.270080
  0
VERTEX
  8
0
  6
CONTINUOUS
 10
1.851960
 20
3.268760
  0
VERTEX
  8
0
  6
CONTINUOUS
 10
1.851080
 20
3.325960
  0
VERTEX
  8
0
  6
CONTINUOUS
 10
1.862080
 20
3.367760
  0
VERTEX
  8
0
  6
CONTINUOUS
 10
1.883640
 20
3.396800
  0
VERTEX
  8
0
  6
CONTINUOUS
 10
1.914880
 20
3.415280
  0
VERTEX
  8
0
  6
CONTINUOUS
 10
1.999360
 20
3.435080
  0
VERTEX
  8
0
  6
CONTINUOUS
 10
2.104080
 20
3.451360
  0
VERTEX
  8
0
  6
CONTINUOUS
 10
2.232560
 20
3.490080
  0
VERTEX
  8
0
  6
CONTINUOUS
 10
2.349600
 20
3.532760
  0
VERTEX
  8
0
  6
CONTINUOUS
 10
2.555080
 20
3.624280
  0
VERTEX
  8
0
  6
CONTINUOUS
 10
2.731520
 20
3.719760
  0
VERTEX
  8
0
  6
CONTINUOUS
 10
2.891240
 20
3.811280
  0
VERTEX
  8
0
  6
CONTINUOUS
 10
3.045240
 20
3.893120
  0
VERTEX
  8
0
  6
CONTINUOUS
 10
3.205840
 20
3.957800
  0
VERTEX
  8
0
  6
CONTINUOUS
 10
3.384480
 20
3.998280
  0
VERTEX
  8
0
  6
CONTINUOUS
 10
3.484360
 20
4.007960
  0
VERTEX
  8
0
  6
CONTINUOUS
 10
3.593480
 20
4.008400
  0
VERTEX
  8
0
  6
CONTINUOUS
 10
3.558720
 20
4.009720
  0
SEQEND
  8
0
  0
TEXT
  8
0
 10
3.599640
 20
1.394800
 40
0.138264
  1
BA  137
 41
1.000000
  7
SN0
 71
     0
 72
     5
 11
4.190333
 21
1.394800
  0
TEXT
  8
0
 10
3.369960
 20
1.203400
 40
0.138264
  1
2-3/8" x 4-1/8"
 41
1.000000
  7
SN0
 71
     0
 72
     5
 11
4.418244
 21
1.203400
  0
ENDSEC
  0
EOF
