  0
SECTION
  2
HEADER
  9
$ACADVER
  1
AC1006
  9
$EXTMIN
 10
2.454760
 20
1.910040
  9
$EXTMAX
 10
5.641680
 20
4.745840
  9
$LTSCALE
 40
0.044000
  9
$PDMODE
 70
    35
  9
$PDSIZE
 40
0.035200
  0
ENDSEC
  0
SECTION
  2
TABLES
  0
TABLE
  2
LTYPE
 70
     9
  0
LTYPE
  2
CONTINUOUS
 70
    64
  3
Solid line
 72
    65
 73
     0
 40
0.000000
  0
LTYPE
  2
DASHED
 70
    64
  3
__ __ __ __ __ __ __ __ __ __ __ __ __ __ __
 72
    65
 73
     2
 40
0.000330
 49
0.000220
 49
-0.000110
  0
LTYPE
  2
HIDDEN
 70
    64
  3
 _ _ _ _ _ _ _ _ _ _ _ _ _ _ _ _ _ _ _ _ _ _
 72
    65
 73
     2
 40
0.000165
 49
0.000110
 49
-0.000055
  0
LTYPE
  2
CENTER
 70
    64
  3
____ _ ____ _ ____ _ ____ _ ____ _ ____ _ ____
 72
    65
 73
     4
 40
0.000880
 49
0.000550
 49
-0.000110
 49
0.000110
 49
-0.000110
  0
LTYPE
  2
PHANTOM
 70
    64
  3
_____ _ _ _____ _ _ _____ _ _ _____ _ _ ____
 72
    65
 73
     6
 40
0.001100
 49
0.000550
 49
-0.000110
 49
0.000110
 49
-0.000110
 49
0.000110
 49
-0.000110
  0
LTYPE
  2
DOT
 70
    64
  3
...............................................
 72
    65
 73
     2
 40
0.000110
 49
0.000000
 49
-0.000110
  0
LTYPE
  2
DASHDOT
 70
    64
  3
__ . __ . __ . __ . __ . __ . __ . __ . __ . __
 72
    65
 73
     4
 40
0.000440
 49
0.000220
 49
-0.000110
 49
0.000000
 49
-0.000110
  0
LTYPE
  2
BORDER
 70
    64
  3
__ __ . __ __ . __ __ . __ __ . __ __ . __ __
 72
    65
 73
     6
 40
0.000770
 49
0.000220
 49
-0.000110
 49
0.000220
 49
-0.000110
 49
0.000000
 49
-0.000110
  0
LTYPE
  2
DIVIDE
 70
    64
  3
__ . . __ . . __ . . __ . . __ . . __ . . __
 72
    65
 73
     6
 40
0.000550
 49
0.000220
 49
-0.000110
 49
0.000000
 49
-0.000110
 49
0.000000
 49
-0.000110
  0
LTYPE
  2
DOTDOT
 70
    64
  3
 . .  . .  . .  . .  . .  . . 
 72
    65
 73
     5
 40
0.000242
 49
-0.000110
 49
0.000000
 49
-0.000110
 49
0.000000
 49
-0.000110
  0
ENDTAB
  0
TABLE
  2
STYLE
 70
     2
  0
STYLE
 70
     0
  2
SN0
 40
0.000000
 41
0.000440
 50
0.000000
 71
     0
 42
0.000000
  3
ROMAND
  0
STYLE
 70
    68
  2
SV0
 40
0.000000
 41
0.000440
 50
0.000000
 71
     0
 42
0.000000
  3
ROMAND
  0
ENDTAB
  0
TABLE
  2
LAYER
 70
     3
  0
LAYER
  2
FOREGROUND
 70
    64
 62
     7
  6
CONTINUOUS
  0
LAYER
  2
BACKGROUND
 70
    65
 62
    -7
  6
CONTINUOUS
  0
LAYER
  2
0
 70
    64
 62
     7
  6
CONTINUOUS
  0
ENDTAB
  0
ENDSEC
  0
SECTION
  2
ENTITIES
  0
POLYLINE
  8
FOREGROUND
  6
CONTINUOUS
 66
     1
 40
0.000000
 41
0.000000
  0
VERTEX
  8
FOREGROUND
  6
CONTINUOUS
 10
0.000000
 20
6.655880
  0
VERTEX
  8
FOREGROUND
  6
CONTINUOUS
 10
8.499920
 20
6.655880
  0
VERTEX
  8
FOREGROUND
  6
CONTINUOUS
 10
8.499920
 20
-4.344120
  0
VERTEX
  8
FOREGROUND
  6
CONTINUOUS
 10
0.000000
 20
-4.344120
  0
VERTEX
  8
FOREGROUND
  6
CONTINUOUS
 10
0.000000
 20
6.655880
  0
SEQEND
  8
0
  0
POLYLINE
  8
FOREGROUND
  6
CONTINUOUS
 66
     1
 40
0.000000
 41
0.000000
  0
VERTEX
  8
FOREGROUND
  6
CONTINUOUS
 10
0.000000
 20
6.655880
  0
VERTEX
  8
FOREGROUND
  6
CONTINUOUS
 10
8.499920
 20
6.655880
  0
VERTEX
  8
FOREGROUND
  6
CONTINUOUS
 10
8.499920
 20
-4.344120
  0
VERTEX
  8
FOREGROUND
  6
CONTINUOUS
 10
0.000000
 20
-4.344120
  0
VERTEX
  8
FOREGROUND
  6
CONTINUOUS
 10
0.000000
 20
6.655880
  0
SEQEND
  8
0
  0
TEXT
  8
0
 10
3.751880
 20
2.145440
 40
0.138185
  1
BA  136
 41
1.000000
  7
SN0
 71
     0
 72
     5
 11
4.342257
 21
2.145440
  0
TEXT
  8
0
 10
3.596120
 20
1.954040
 40
0.138185
  1
3/4" x 2-1/2"
 41
1.000000
  7
SN0
 71
     0
 72
     5
 11
4.497062
 21
1.954040
  0
SOLID
  8
0
 62
    15
 10
4.515720
 20
2.863520
 11
5.149760
 21
3.235760
 12
4.466440
 22
2.808960
 13
5.100920
 23
3.180760
  0
POLYLINE
  8
0
  6
CONTINUOUS
 66
     1
 40
0.000000
 41
0.000000
  0
VERTEX
  8
0
  6
CONTINUOUS
 10
4.515720
 20
2.863520
  0
VERTEX
  8
0
  6
CONTINUOUS
 10
5.149760
 20
3.235760
  0
VERTEX
  8
0
  6
CONTINUOUS
 10
5.100920
 20
3.180760
  0
VERTEX
  8
0
  6
CONTINUOUS
 10
4.466440
 20
2.808960
  0
VERTEX
  8
0
  6
CONTINUOUS
 10
4.515720
 20
2.863520
  0
SEQEND
  8
0
  0
SOLID
  8
0
 62
    15
 10
2.459160
 20
3.211120
 11
3.093200
 21
3.583360
 12
5.007200
 22
3.211120
 13
5.641240
 23
3.583360
  0
POLYLINE
  8
0
  6
CONTINUOUS
 66
     1
 40
0.000000
 41
0.000000
  0
VERTEX
  8
0
  6
CONTINUOUS
 10
2.459160
 20
3.211120
  0
VERTEX
  8
0
  6
CONTINUOUS
 10
3.093200
 20
3.583360
  0
VERTEX
  8
0
  6
CONTINUOUS
 10
5.641240
 20
3.583360
  0
VERTEX
  8
0
  6
CONTINUOUS
 10
5.007200
 20
3.211120
  0
VERTEX
  8
0
  6
CONTINUOUS
 10
2.459160
 20
3.211120
  0
SEQEND
  8
0
  0
SOLID
  8
0
 62
    15
 10
4.623960
 20
2.951080
 11
5.258000
 21
3.323320
 12
4.568520
 22
2.911040
 13
5.202560
 23
3.282840
  0
POLYLINE
  8
0
  6
CONTINUOUS
 66
     1
 40
0.000000
 41
0.000000
  0
VERTEX
  8
0
  6
CONTINUOUS
 10
4.623960
 20
2.951080
  0
VERTEX
  8
0
  6
CONTINUOUS
 10
5.258000
 20
3.323320
  0
VERTEX
  8
0
  6
CONTINUOUS
 10
5.202560
 20
3.282840
  0
VERTEX
  8
0
  6
CONTINUOUS
 10
4.568520
 20
2.911040
  0
VERTEX
  8
0
  6
CONTINUOUS
 10
4.623960
 20
2.951080
  0
SEQEND
  8
0
  0
SOLID
  8
0
 62
    15
 10
4.680720
 20
2.984520
 11
5.314760
 21
3.356760
 12
4.623960
 22
2.951080
 13
5.258000
 23
3.323320
  0
POLYLINE
  8
0
  6
CONTINUOUS
 66
     1
 40
0.000000
 41
0.000000
  0
VERTEX
  8
0
  6
CONTINUOUS
 10
4.680720
 20
2.984520
  0
VERTEX
  8
0
  6
CONTINUOUS
 10
5.314760
 20
3.356760
  0
VERTEX
  8
0
  6
CONTINUOUS
 10
5.258000
 20
3.323320
  0
VERTEX
  8
0
  6
CONTINUOUS
 10
4.623960
 20
2.951080
  0
VERTEX
  8
0
  6
CONTINUOUS
 10
4.680720
 20
2.984520
  0
SEQEND
  8
0
  0
SOLID
  8
0
 62
    15
 10
4.568520
 20
2.911040
 11
5.202560
 21
3.282840
 12
4.515720
 22
2.863520
 13
5.149760
 23
3.235760
  0
POLYLINE
  8
0
  6
CONTINUOUS
 66
     1
 40
0.000000
 41
0.000000
  0
VERTEX
  8
0
  6
CONTINUOUS
 10
4.568520
 20
2.911040
  0
VERTEX
  8
0
  6
CONTINUOUS
 10
5.202560
 20
3.282840
  0
VERTEX
  8
0
  6
CONTINUOUS
 10
5.149760
 20
3.235760
  0
VERTEX
  8
0
  6
CONTINUOUS
 10
4.515720
 20
2.863520
  0
VERTEX
  8
0
  6
CONTINUOUS
 10
4.568520
 20
2.911040
  0
SEQEND
  8
0
  0
SOLID
  8
0
 62
    15
 10
4.466440
 20
2.808960
 11
5.100920
 21
3.180760
 12
4.422880
 22
2.745600
 13
5.056920
 23
3.117840
  0
POLYLINE
  8
0
  6
CONTINUOUS
 66
     1
 40
0.000000
 41
0.000000
  0
VERTEX
  8
0
  6
CONTINUOUS
 10
4.466440
 20
2.808960
  0
VERTEX
  8
0
  6
CONTINUOUS
 10
5.100920
 20
3.180760
  0
VERTEX
  8
0
  6
CONTINUOUS
 10
5.056920
 20
3.117840
  0
VERTEX
  8
0
  6
CONTINUOUS
 10
4.422880
 20
2.745600
  0
VERTEX
  8
0
  6
CONTINUOUS
 10
4.466440
 20
2.808960
  0
SEQEND
  8
0
  0
SOLID
  8
0
 62
    15
 10
4.323880
 20
2.391840
 11
4.957920
 21
2.763640
 12
4.323880
 22
2.390080
 13
4.957920
 23
2.762320
  0
POLYLINE
  8
0
  6
CONTINUOUS
 66
     1
 40
0.000000
 41
0.000000
  0
VERTEX
  8
0
  6
CONTINUOUS
 10
4.323880
 20
2.391840
  0
VERTEX
  8
0
  6
CONTINUOUS
 10
4.957920
 20
2.763640
  0
VERTEX
  8
0
  6
CONTINUOUS
 10
4.957920
 20
2.762320
  0
VERTEX
  8
0
  6
CONTINUOUS
 10
4.323880
 20
2.390080
  0
VERTEX
  8
0
  6
CONTINUOUS
 10
4.323880
 20
2.391840
  0
SEQEND
  8
0
  0
SOLID
  8
0
 62
    15
 10
4.422880
 20
2.745600
 11
5.056920
 21
3.117840
 12
4.385920
 22
2.673880
 13
5.019960
 23
3.046120
  0
POLYLINE
  8
0
  6
CONTINUOUS
 66
     1
 40
0.000000
 41
0.000000
  0
VERTEX
  8
0
  6
CONTINUOUS
 10
4.422880
 20
2.745600
  0
VERTEX
  8
0
  6
CONTINUOUS
 10
5.056920
 20
3.117840
  0
VERTEX
  8
0
  6
CONTINUOUS
 10
5.019960
 20
3.046120
  0
VERTEX
  8
0
  6
CONTINUOUS
 10
4.385920
 20
2.673880
  0
VERTEX
  8
0
  6
CONTINUOUS
 10
4.422880
 20
2.745600
  0
SEQEND
  8
0
  0
SOLID
  8
0
 62
    15
 10
5.007200
 20
3.211120
 11
5.641240
 21
3.583360
 12
5.007200
 22
3.085720
 13
5.641240
 23
3.457960
  0
POLYLINE
  8
0
  6
CONTINUOUS
 66
     1
 40
0.000000
 41
0.000000
  0
VERTEX
  8
0
  6
CONTINUOUS
 10
5.007200
 20
3.211120
  0
VERTEX
  8
0
  6
CONTINUOUS
 10
5.641240
 20
3.583360
  0
VERTEX
  8
0
  6
CONTINUOUS
 10
5.641240
 20
3.457960
  0
VERTEX
  8
0
  6
CONTINUOUS
 10
5.007200
 20
3.085720
  0
VERTEX
  8
0
  6
CONTINUOUS
 10
5.007200
 20
3.211120
  0
SEQEND
  8
0
  0
SOLID
  8
0
 62
    15
 10
4.385920
 20
2.673880
 11
5.019960
 21
3.046120
 12
4.356880
 22
2.592920
 13
4.990920
 23
2.965160
  0
POLYLINE
  8
0
  6
CONTINUOUS
 66
     1
 40
0.000000
 41
0.000000
  0
VERTEX
  8
0
  6
CONTINUOUS
 10
4.385920
 20
2.673880
  0
VERTEX
  8
0
  6
CONTINUOUS
 10
5.019960
 20
3.046120
  0
VERTEX
  8
0
  6
CONTINUOUS
 10
4.990920
 20
2.965160
  0
VERTEX
  8
0
  6
CONTINUOUS
 10
4.356880
 20
2.592920
  0
VERTEX
  8
0
  6
CONTINUOUS
 10
4.385920
 20
2.673880
  0
SEQEND
  8
0
  0
SOLID
  8
0
 62
    15
 10
4.356880
 20
2.592920
 11
4.990920
 21
2.965160
 12
4.337080
 22
2.502280
 13
4.971120
 23
2.874520
  0
POLYLINE
  8
0
  6
CONTINUOUS
 66
     1
 40
0.000000
 41
0.000000
  0
VERTEX
  8
0
  6
CONTINUOUS
 10
4.356880
 20
2.592920
  0
VERTEX
  8
0
  6
CONTINUOUS
 10
4.990920
 20
2.965160
  0
VERTEX
  8
0
  6
CONTINUOUS
 10
4.971120
 20
2.874520
  0
VERTEX
  8
0
  6
CONTINUOUS
 10
4.337080
 20
2.502280
  0
VERTEX
  8
0
  6
CONTINUOUS
 10
4.356880
 20
2.592920
  0
SEQEND
  8
0
  0
SOLID
  8
0
 62
    15
 10
4.337080
 20
2.502280
 11
4.971120
 21
2.874520
 12
4.327840
 22
2.401080
 13
4.961880
 23
2.772880
  0
POLYLINE
  8
0
  6
CONTINUOUS
 66
     1
 40
0.000000
 41
0.000000
  0
VERTEX
  8
0
  6
CONTINUOUS
 10
4.337080
 20
2.502280
  0
VERTEX
  8
0
  6
CONTINUOUS
 10
4.971120
 20
2.874520
  0
VERTEX
  8
0
  6
CONTINUOUS
 10
4.961880
 20
2.772880
  0
VERTEX
  8
0
  6
CONTINUOUS
 10
4.327840
 20
2.401080
  0
VERTEX
  8
0
  6
CONTINUOUS
 10
4.337080
 20
2.502280
  0
SEQEND
  8
0
  0
SOLID
  8
0
 62
    15
 10
4.327840
 20
2.401080
 11
4.961880
 21
2.772880
 12
4.327840
 22
2.391840
 13
4.961880
 23
2.763640
  0
POLYLINE
  8
0
  6
CONTINUOUS
 66
     1
 40
0.000000
 41
0.000000
  0
VERTEX
  8
0
  6
CONTINUOUS
 10
4.327840
 20
2.401080
  0
VERTEX
  8
0
  6
CONTINUOUS
 10
4.961880
 20
2.772880
  0
VERTEX
  8
0
  6
CONTINUOUS
 10
4.961880
 20
2.763640
  0
VERTEX
  8
0
  6
CONTINUOUS
 10
4.327840
 20
2.391840
  0
VERTEX
  8
0
  6
CONTINUOUS
 10
4.327840
 20
2.401080
  0
SEQEND
  8
0
  0
POLYLINE
  8
0
  6
CONTINUOUS
 66
     1
 40
0.000000
 41
0.000000
  0
VERTEX
  8
0
  6
CONTINUOUS
 10
4.327840
 20
2.391840
  0
VERTEX
  8
0
  6
CONTINUOUS
 10
4.323880
 20
2.391840
  0
VERTEX
  8
0
  6
CONTINUOUS
 10
4.323880
 20
2.390080
  0
VERTEX
  8
0
  6
CONTINUOUS
 10
2.455200
 20
2.390080
  0
VERTEX
  8
0
  6
CONTINUOUS
 10
2.455200
 20
3.207160
  0
VERTEX
  8
0
  6
CONTINUOUS
 10
2.459160
 20
3.211120
  0
VERTEX
  8
0
  6
CONTINUOUS
 10
5.007200
 20
3.211120
  0
VERTEX
  8
0
  6
CONTINUOUS
 10
5.007200
 20
3.085720
  0
VERTEX
  8
0
  6
CONTINUOUS
 10
5.003240
 20
3.085720
  0
VERTEX
  8
0
  6
CONTINUOUS
 10
4.974640
 20
3.081760
  0
VERTEX
  8
0
  6
CONTINUOUS
 10
4.938120
 20
3.075160
  0
VERTEX
  8
0
  6
CONTINUOUS
 10
4.894560
 20
3.065920
  0
VERTEX
  8
0
  6
CONTINUOUS
 10
4.845720
 20
3.052280
  0
VERTEX
  8
0
  6
CONTINUOUS
 10
4.792920
 20
3.034680
  0
VERTEX
  8
0
  6
CONTINUOUS
 10
4.737480
 20
3.012240
  0
VERTEX
  8
0
  6
CONTINUOUS
 10
4.680720
 20
2.984520
  0
VERTEX
  8
0
  6
CONTINUOUS
 10
4.623960
 20
2.951080
  0
VERTEX
  8
0
  6
CONTINUOUS
 10
4.568520
 20
2.911040
  0
VERTEX
  8
0
  6
CONTINUOUS
 10
4.515720
 20
2.863520
  0
VERTEX
  8
0
  6
CONTINUOUS
 10
4.466440
 20
2.808960
  0
VERTEX
  8
0
  6
CONTINUOUS
 10
4.422880
 20
2.745600
  0
VERTEX
  8
0
  6
CONTINUOUS
 10
4.385920
 20
2.673880
  0
VERTEX
  8
0
  6
CONTINUOUS
 10
4.356880
 20
2.592920
  0
VERTEX
  8
0
  6
CONTINUOUS
 10
4.337080
 20
2.502280
  0
VERTEX
  8
0
  6
CONTINUOUS
 10
4.327840
 20
2.401080
  0
VERTEX
  8
0
  6
CONTINUOUS
 10
4.327840
 20
2.391840
  0
SEQEND
  8
0
  0
POLYLINE
  8
0
  6
CONTINUOUS
 66
     1
 40
0.014080
 41
0.014080
  0
VERTEX
  8
0
  6
CONTINUOUS
 10
4.667960
 20
4.727360
  0
VERTEX
  8
0
  6
CONTINUOUS
 10
4.669280
 20
4.700960
  0
VERTEX
  8
0
  6
CONTINUOUS
 10
4.671040
 20
4.675440
  0
VERTEX
  8
0
  6
CONTINUOUS
 10
4.673680
 20
4.650360
  0
VERTEX
  8
0
  6
CONTINUOUS
 10
4.677200
 20
4.626160
  0
VERTEX
  8
0
  6
CONTINUOUS
 10
4.681160
 20
4.602400
  0
VERTEX
  8
0
  6
CONTINUOUS
 10
4.686000
 20
4.579520
  0
VERTEX
  8
0
  6
CONTINUOUS
 10
4.691280
 20
4.557080
  0
VERTEX
  8
0
  6
CONTINUOUS
 10
4.697000
 20
4.535520
  0
VERTEX
  8
0
  6
CONTINUOUS
 10
4.703600
 20
4.514400
  0
VERTEX
  8
0
  6
CONTINUOUS
 10
4.710640
 20
4.493720
  0
VERTEX
  8
0
  6
CONTINUOUS
 10
4.718120
 20
4.473920
  0
VERTEX
  8
0
  6
CONTINUOUS
 10
4.726480
 20
4.454560
  0
VERTEX
  8
0
  6
CONTINUOUS
 10
4.734840
 20
4.435640
  0
VERTEX
  8
0
  6
CONTINUOUS
 10
4.753320
 20
4.399560
  0
VERTEX
  8
0
  6
CONTINUOUS
 10
4.773560
 20
4.366120
  0
VERTEX
  8
0
  6
CONTINUOUS
 10
4.795560
 20
4.334440
  0
VERTEX
  8
0
  6
CONTINUOUS
 10
4.807000
 20
4.319480
  0
VERTEX
  8
0
  6
CONTINUOUS
 10
4.830760
 20
4.291320
  0
VERTEX
  8
0
  6
CONTINUOUS
 10
4.855840
 20
4.264920
  0
VERTEX
  8
0
  6
CONTINUOUS
 10
4.882240
 20
4.240280
  0
VERTEX
  8
0
  6
CONTINUOUS
 10
4.909080
 20
4.217840
  0
VERTEX
  8
0
  6
CONTINUOUS
 10
4.936360
 20
4.196720
  0
VERTEX
  8
0
  6
CONTINUOUS
 10
4.964520
 20
4.177360
  0
VERTEX
  8
0
  6
CONTINUOUS
 10
4.992680
 20
4.159760
  0
VERTEX
  8
0
  6
CONTINUOUS
 10
5.021280
 20
4.143920
  0
VERTEX
  8
0
  6
CONTINUOUS
 10
5.049880
 20
4.129400
  0
VERTEX
  8
0
  6
CONTINUOUS
 10
5.078040
 20
4.116200
  0
VERTEX
  8
0
  6
CONTINUOUS
 10
5.106200
 20
4.104320
  0
VERTEX
  8
0
  6
CONTINUOUS
 10
5.133480
 20
4.093760
  0
VERTEX
  8
0
  6
CONTINUOUS
 10
5.160320
 20
4.084080
  0
VERTEX
  8
0
  6
CONTINUOUS
 10
5.186280
 20
4.076160
  0
VERTEX
  8
0
  6
CONTINUOUS
 10
5.211360
 20
4.069120
  0
VERTEX
  8
0
  6
CONTINUOUS
 10
5.235120
 20
4.062960
  0
VERTEX
  8
0
  6
CONTINUOUS
 10
5.257560
 20
4.057680
  0
VERTEX
  8
0
  6
CONTINUOUS
 10
5.278240
 20
4.053280
  0
VERTEX
  8
0
  6
CONTINUOUS
 10
5.297600
 20
4.049320
  0
VERTEX
  8
0
  6
CONTINUOUS
 10
5.315200
 20
4.046680
  0
VERTEX
  8
0
  6
CONTINUOUS
 10
5.330600
 20
4.044480
  0
VERTEX
  8
0
  6
CONTINUOUS
 10
5.343800
 20
4.042720
  0
VERTEX
  8
0
  6
CONTINUOUS
 10
5.347760
 20
4.042720
  0
VERTEX
  8
0
  6
CONTINUOUS
 10
5.347760
 20
3.917320
  0
VERTEX
  8
0
  6
CONTINUOUS
 10
2.799720
 20
3.917320
  0
VERTEX
  8
0
  6
CONTINUOUS
 10
2.795760
 20
3.921280
  0
VERTEX
  8
0
  6
CONTINUOUS
 10
2.795760
 20
4.738360
  0
VERTEX
  8
0
  6
CONTINUOUS
 10
4.664000
 20
4.738360
  0
VERTEX
  8
0
  6
CONTINUOUS
 10
4.664000
 20
4.737040
  0
VERTEX
  8
0
  6
CONTINUOUS
 10
4.667960
 20
4.737040
  0
VERTEX
  8
0
  6
CONTINUOUS
 10
4.667960
 20
4.727360
  0
SEQEND
  8
0
  0
TEXT
  8
0
 10
3.586440
 20
4.250400
 40
0.138185
  1
BA  136
 41
1.000000
  7
SN0
 71
     0
 72
     5
 11
4.176817
 21
4.250400
  0
TEXT
  8
0
 10
3.430680
 20
4.059000
 40
0.138185
  1
3/4" x 2-1/2"
 41
1.000000
  7
SN0
 71
     0
 72
     5
 11
4.331622
 21
4.059000
  0
ENDSEC
  0
EOF
