  0
SECTION
  2
HEADER
  9
$ACADVER
  1
AC1006
  9
$EXTMIN
 10
1.759560
 20
1.147520
  9
$EXTMAX
 10
6.259880
 20
3.829320
  9
$LTSCALE
 40
0.044000
  9
$PDMODE
 70
    35
  9
$PDSIZE
 40
0.035200
  0
ENDSEC
  0
SECTION
  2
TABLES
  0
TABLE
  2
LTYPE
 70
     9
  0
LTYPE
  2
CONTINUOUS
 70
    64
  3
Solid line
 72
    65
 73
     0
 40
0.000000
  0
LTYPE
  2
DASHED
 70
    64
  3
__ __ __ __ __ __ __ __ __ __ __ __ __ __ __
 72
    65
 73
     2
 40
0.000330
 49
0.000220
 49
-0.000110
  0
LTYPE
  2
HIDDEN
 70
    64
  3
 _ _ _ _ _ _ _ _ _ _ _ _ _ _ _ _ _ _ _ _ _ _
 72
    65
 73
     2
 40
0.000165
 49
0.000110
 49
-0.000055
  0
LTYPE
  2
CENTER
 70
    64
  3
____ _ ____ _ ____ _ ____ _ ____ _ ____ _ ____
 72
    65
 73
     4
 40
0.000880
 49
0.000550
 49
-0.000110
 49
0.000110
 49
-0.000110
  0
LTYPE
  2
PHANTOM
 70
    64
  3
_____ _ _ _____ _ _ _____ _ _ _____ _ _ ____
 72
    65
 73
     6
 40
0.001100
 49
0.000550
 49
-0.000110
 49
0.000110
 49
-0.000110
 49
0.000110
 49
-0.000110
  0
LTYPE
  2
DOT
 70
    64
  3
...............................................
 72
    65
 73
     2
 40
0.000110
 49
0.000000
 49
-0.000110
  0
LTYPE
  2
DASHDOT
 70
    64
  3
__ . __ . __ . __ . __ . __ . __ . __ . __ . __
 72
    65
 73
     4
 40
0.000440
 49
0.000220
 49
-0.000110
 49
0.000000
 49
-0.000110
  0
LTYPE
  2
BORDER
 70
    64
  3
__ __ . __ __ . __ __ . __ __ . __ __ . __ __
 72
    65
 73
     6
 40
0.000770
 49
0.000220
 49
-0.000110
 49
0.000220
 49
-0.000110
 49
0.000000
 49
-0.000110
  0
LTYPE
  2
DIVIDE
 70
    64
  3
__ . . __ . . __ . . __ . . __ . . __ . . __
 72
    65
 73
     6
 40
0.000550
 49
0.000220
 49
-0.000110
 49
0.000000
 49
-0.000110
 49
0.000000
 49
-0.000110
  0
LTYPE
  2
DOTDOT
 70
    64
  3
 . .  . .  . .  . .  . .  . . 
 72
    65
 73
     5
 40
0.000242
 49
-0.000110
 49
0.000000
 49
-0.000110
 49
0.000000
 49
-0.000110
  0
ENDTAB
  0
TABLE
  2
STYLE
 70
     2
  0
STYLE
 70
     0
  2
SN0
 40
0.000000
 41
0.000440
 50
0.000000
 71
     0
 42
0.000000
  3
ROMAND
  0
STYLE
 70
    68
  2
SV0
 40
0.000000
 41
0.000440
 50
0.000000
 71
     0
 42
0.000000
  3
ROMAND
  0
ENDTAB
  0
TABLE
  2
LAYER
 70
     3
  0
LAYER
  2
FOREGROUND
 70
    64
 62
     7
  6
CONTINUOUS
  0
LAYER
  2
BACKGROUND
 70
    65
 62
    -7
  6
CONTINUOUS
  0
LAYER
  2
0
 70
    64
 62
     7
  6
CONTINUOUS
  0
ENDTAB
  0
ENDSEC
  0
SECTION
  2
ENTITIES
  0
POLYLINE
  8
FOREGROUND
  6
CONTINUOUS
 66
     1
 40
0.000000
 41
0.000000
  0
VERTEX
  8
FOREGROUND
  6
CONTINUOUS
 10
0.000000
 20
4.976840
  0
VERTEX
  8
FOREGROUND
  6
CONTINUOUS
 10
8.499920
 20
4.976840
  0
VERTEX
  8
FOREGROUND
  6
CONTINUOUS
 10
8.499920
 20
-6.023160
  0
VERTEX
  8
FOREGROUND
  6
CONTINUOUS
 10
0.000000
 20
-6.023160
  0
VERTEX
  8
FOREGROUND
  6
CONTINUOUS
 10
0.000000
 20
4.976840
  0
SEQEND
  8
0
  0
POLYLINE
  8
FOREGROUND
  6
CONTINUOUS
 66
     1
 40
0.000000
 41
0.000000
  0
VERTEX
  8
FOREGROUND
  6
CONTINUOUS
 10
0.000000
 20
4.976840
  0
VERTEX
  8
FOREGROUND
  6
CONTINUOUS
 10
8.499920
 20
4.976840
  0
VERTEX
  8
FOREGROUND
  6
CONTINUOUS
 10
8.499920
 20
-6.023160
  0
VERTEX
  8
FOREGROUND
  6
CONTINUOUS
 10
0.000000
 20
-6.023160
  0
VERTEX
  8
FOREGROUND
  6
CONTINUOUS
 10
0.000000
 20
4.976840
  0
SEQEND
  8
0
  0
POLYLINE
  8
0
  6
CONTINUOUS
 66
     1
 40
0.014080
 41
0.014080
  0
VERTEX
  8
0
  6
CONTINUOUS
 10
2.038960
 20
3.014000
  0
VERTEX
  8
0
  6
CONTINUOUS
 10
2.038960
 20
3.821840
  0
VERTEX
  8
0
  6
CONTINUOUS
 10
5.226760
 20
3.821840
  0
VERTEX
  8
0
  6
CONTINUOUS
 10
5.226760
 20
3.656840
  0
VERTEX
  8
0
  6
CONTINUOUS
 10
5.229400
 20
3.655520
  0
VERTEX
  8
0
  6
CONTINUOUS
 10
5.252720
 20
3.655520
  0
VERTEX
  8
0
  6
CONTINUOUS
 10
5.275160
 20
3.655080
  0
VERTEX
  8
0
  6
CONTINUOUS
 10
5.297600
 20
3.653760
  0
VERTEX
  8
0
  6
CONTINUOUS
 10
5.319160
 20
3.652000
  0
VERTEX
  8
0
  6
CONTINUOUS
 10
5.340720
 20
3.649800
  0
VERTEX
  8
0
  6
CONTINUOUS
 10
5.361840
 20
3.646720
  0
VERTEX
  8
0
  6
CONTINUOUS
 10
5.382520
 20
3.643200
  0
VERTEX
  8
0
  6
CONTINUOUS
 10
5.402320
 20
3.639240
  0
VERTEX
  8
0
  6
CONTINUOUS
 10
5.422120
 20
3.634840
  0
VERTEX
  8
0
  6
CONTINUOUS
 10
5.441480
 20
3.629560
  0
VERTEX
  8
0
  6
CONTINUOUS
 10
5.460400
 20
3.624280
  0
VERTEX
  8
0
  6
CONTINUOUS
 10
5.478880
 20
3.618120
  0
VERTEX
  8
0
  6
CONTINUOUS
 10
5.514960
 20
3.604480
  0
VERTEX
  8
0
  6
CONTINUOUS
 10
5.548840
 20
3.589080
  0
VERTEX
  8
0
  6
CONTINUOUS
 10
5.581400
 20
3.571920
  0
VERTEX
  8
0
  6
CONTINUOUS
 10
5.612200
 20
3.553440
  0
VERTEX
  8
0
  6
CONTINUOUS
 10
5.641680
 20
3.533640
  0
VERTEX
  8
0
  6
CONTINUOUS
 10
5.669400
 20
3.512520
  0
VERTEX
  8
0
  6
CONTINUOUS
 10
5.695360
 20
3.490520
  0
VERTEX
  8
0
  6
CONTINUOUS
 10
5.720000
 20
3.467200
  0
VERTEX
  8
0
  6
CONTINUOUS
 10
5.742880
 20
3.442560
  0
VERTEX
  8
0
  6
CONTINUOUS
 10
5.764440
 20
3.417920
  0
VERTEX
  8
0
  6
CONTINUOUS
 10
5.784240
 20
3.391960
  0
VERTEX
  8
0
  6
CONTINUOUS
 10
5.802720
 20
3.366000
  0
VERTEX
  8
0
  6
CONTINUOUS
 10
5.819440
 20
3.339160
  0
VERTEX
  8
0
  6
CONTINUOUS
 10
5.834840
 20
3.312320
  0
VERTEX
  8
0
  6
CONTINUOUS
 10
5.848480
 20
3.285480
  0
VERTEX
  8
0
  6
CONTINUOUS
 10
5.860800
 20
3.258200
  0
VERTEX
  8
0
  6
CONTINUOUS
 10
5.871360
 20
3.230920
  0
VERTEX
  8
0
  6
CONTINUOUS
 10
5.880600
 20
3.204080
  0
VERTEX
  8
0
  6
CONTINUOUS
 10
5.888520
 20
3.177680
  0
VERTEX
  8
0
  6
CONTINUOUS
 10
5.895120
 20
3.151720
  0
VERTEX
  8
0
  6
CONTINUOUS
 10
5.899960
 20
3.126200
  0
VERTEX
  8
0
  6
CONTINUOUS
 10
5.903480
 20
3.101120
  0
VERTEX
  8
0
  6
CONTINUOUS
 10
5.905240
 20
3.077360
  0
VERTEX
  8
0
  6
CONTINUOUS
 10
5.906120
 20
3.054040
  0
VERTEX
  8
0
  6
CONTINUOUS
 10
5.905240
 20
3.032040
  0
VERTEX
  8
0
  6
CONTINUOUS
 10
5.903040
 20
3.011360
  0
VERTEX
  8
0
  6
CONTINUOUS
 10
5.903040
 20
3.007400
  0
VERTEX
  8
0
  6
CONTINUOUS
 10
2.038960
 20
3.007400
  0
VERTEX
  8
0
  6
CONTINUOUS
 10
2.038960
 20
3.014000
  0
SEQEND
  8
0
  0
SOLID
  8
0
 62
    15
 10
5.441040
 20
2.108920
 11
6.073760
 21
2.468400
 12
5.485480
 22
2.059640
 13
6.118200
 23
2.419120
  0
POLYLINE
  8
0
  6
CONTINUOUS
 66
     1
 40
0.000000
 41
0.000000
  0
VERTEX
  8
0
  6
CONTINUOUS
 10
5.441040
 20
2.108920
  0
VERTEX
  8
0
  6
CONTINUOUS
 10
6.073760
 20
2.468400
  0
VERTEX
  8
0
  6
CONTINUOUS
 10
6.118200
 20
2.419120
  0
VERTEX
  8
0
  6
CONTINUOUS
 10
5.485480
 20
2.059640
  0
VERTEX
  8
0
  6
CONTINUOUS
 10
5.441040
 20
2.108920
  0
SEQEND
  8
0
  0
SOLID
  8
0
 62
    15
 10
4.948240
 20
2.463560
 11
5.580520
 21
2.823040
 12
4.948240
 22
2.298560
 13
5.580520
 23
2.658040
  0
POLYLINE
  8
0
  6
CONTINUOUS
 66
     1
 40
0.000000
 41
0.000000
  0
VERTEX
  8
0
  6
CONTINUOUS
 10
4.948240
 20
2.463560
  0
VERTEX
  8
0
  6
CONTINUOUS
 10
5.580520
 20
2.823040
  0
VERTEX
  8
0
  6
CONTINUOUS
 10
5.580520
 20
2.658040
  0
VERTEX
  8
0
  6
CONTINUOUS
 10
4.948240
 20
2.298560
  0
VERTEX
  8
0
  6
CONTINUOUS
 10
4.948240
 20
2.463560
  0
SEQEND
  8
0
  0
SOLID
  8
0
 62
    15
 10
4.948240
 20
2.298560
 11
5.580520
 21
2.658040
 12
4.950880
 22
2.297240
 13
5.583160
 23
2.656720
  0
POLYLINE
  8
0
  6
CONTINUOUS
 66
     1
 40
0.000000
 41
0.000000
  0
VERTEX
  8
0
  6
CONTINUOUS
 10
4.948240
 20
2.298560
  0
VERTEX
  8
0
  6
CONTINUOUS
 10
5.580520
 20
2.658040
  0
VERTEX
  8
0
  6
CONTINUOUS
 10
5.583160
 20
2.656720
  0
VERTEX
  8
0
  6
CONTINUOUS
 10
4.950880
 20
2.297240
  0
VERTEX
  8
0
  6
CONTINUOUS
 10
4.948240
 20
2.298560
  0
SEQEND
  8
0
  0
SOLID
  8
0
 62
    15
 10
4.950880
 20
2.297240
 11
5.583160
 21
2.656720
 12
5.040640
 22
2.293720
 13
5.672920
 23
2.653200
  0
POLYLINE
  8
0
  6
CONTINUOUS
 66
     1
 40
0.000000
 41
0.000000
  0
VERTEX
  8
0
  6
CONTINUOUS
 10
4.950880
 20
2.297240
  0
VERTEX
  8
0
  6
CONTINUOUS
 10
5.583160
 20
2.656720
  0
VERTEX
  8
0
  6
CONTINUOUS
 10
5.672920
 20
2.653200
  0
VERTEX
  8
0
  6
CONTINUOUS
 10
5.040640
 20
2.293720
  0
VERTEX
  8
0
  6
CONTINUOUS
 10
4.950880
 20
2.297240
  0
SEQEND
  8
0
  0
SOLID
  8
0
 62
    15
 10
5.040640
 20
2.293720
 11
5.672920
 21
2.653200
 12
5.123800
 22
2.280960
 13
5.756080
 23
2.640440
  0
POLYLINE
  8
0
  6
CONTINUOUS
 66
     1
 40
0.000000
 41
0.000000
  0
VERTEX
  8
0
  6
CONTINUOUS
 10
5.040640
 20
2.293720
  0
VERTEX
  8
0
  6
CONTINUOUS
 10
5.672920
 20
2.653200
  0
VERTEX
  8
0
  6
CONTINUOUS
 10
5.756080
 20
2.640440
  0
VERTEX
  8
0
  6
CONTINUOUS
 10
5.123800
 20
2.280960
  0
VERTEX
  8
0
  6
CONTINUOUS
 10
5.040640
 20
2.293720
  0
SEQEND
  8
0
  0
SOLID
  8
0
 62
    15
 10
5.123800
 20
2.280960
 11
5.756080
 21
2.640440
 12
5.200360
 22
2.259840
 13
5.832640
 23
2.619320
  0
POLYLINE
  8
0
  6
CONTINUOUS
 66
     1
 40
0.000000
 41
0.000000
  0
VERTEX
  8
0
  6
CONTINUOUS
 10
5.123800
 20
2.280960
  0
VERTEX
  8
0
  6
CONTINUOUS
 10
5.756080
 20
2.640440
  0
VERTEX
  8
0
  6
CONTINUOUS
 10
5.832640
 20
2.619320
  0
VERTEX
  8
0
  6
CONTINUOUS
 10
5.200360
 20
2.259840
  0
VERTEX
  8
0
  6
CONTINUOUS
 10
5.123800
 20
2.280960
  0
SEQEND
  8
0
  0
SOLID
  8
0
 62
    15
 10
5.200360
 20
2.259840
 11
5.832640
 21
2.619320
 12
5.270320
 22
2.230800
 13
5.902600
 23
2.590280
  0
POLYLINE
  8
0
  6
CONTINUOUS
 66
     1
 40
0.000000
 41
0.000000
  0
VERTEX
  8
0
  6
CONTINUOUS
 10
5.200360
 20
2.259840
  0
VERTEX
  8
0
  6
CONTINUOUS
 10
5.832640
 20
2.619320
  0
VERTEX
  8
0
  6
CONTINUOUS
 10
5.902600
 20
2.590280
  0
VERTEX
  8
0
  6
CONTINUOUS
 10
5.270320
 20
2.230800
  0
VERTEX
  8
0
  6
CONTINUOUS
 10
5.200360
 20
2.259840
  0
SEQEND
  8
0
  0
SOLID
  8
0
 62
    15
 10
5.270320
 20
2.230800
 11
5.902600
 21
2.590280
 12
5.333680
 22
2.195600
 13
5.965960
 23
2.555080
  0
POLYLINE
  8
0
  6
CONTINUOUS
 66
     1
 40
0.000000
 41
0.000000
  0
VERTEX
  8
0
  6
CONTINUOUS
 10
5.270320
 20
2.230800
  0
VERTEX
  8
0
  6
CONTINUOUS
 10
5.902600
 20
2.590280
  0
VERTEX
  8
0
  6
CONTINUOUS
 10
5.965960
 20
2.555080
  0
VERTEX
  8
0
  6
CONTINUOUS
 10
5.333680
 20
2.195600
  0
VERTEX
  8
0
  6
CONTINUOUS
 10
5.270320
 20
2.230800
  0
SEQEND
  8
0
  0
SOLID
  8
0
 62
    15
 10
5.333680
 20
2.195600
 11
5.965960
 21
2.555080
 12
5.390440
 22
2.154240
 13
6.023160
 23
2.513720
  0
POLYLINE
  8
0
  6
CONTINUOUS
 66
     1
 40
0.000000
 41
0.000000
  0
VERTEX
  8
0
  6
CONTINUOUS
 10
5.333680
 20
2.195600
  0
VERTEX
  8
0
  6
CONTINUOUS
 10
5.965960
 20
2.555080
  0
VERTEX
  8
0
  6
CONTINUOUS
 10
6.023160
 20
2.513720
  0
VERTEX
  8
0
  6
CONTINUOUS
 10
5.390440
 20
2.154240
  0
VERTEX
  8
0
  6
CONTINUOUS
 10
5.333680
 20
2.195600
  0
SEQEND
  8
0
  0
SOLID
  8
0
 62
    15
 10
5.390440
 20
2.154240
 11
6.023160
 21
2.513720
 12
5.441040
 22
2.108920
 13
6.073760
 23
2.468400
  0
POLYLINE
  8
0
  6
CONTINUOUS
 66
     1
 40
0.000000
 41
0.000000
  0
VERTEX
  8
0
  6
CONTINUOUS
 10
5.390440
 20
2.154240
  0
VERTEX
  8
0
  6
CONTINUOUS
 10
6.023160
 20
2.513720
  0
VERTEX
  8
0
  6
CONTINUOUS
 10
6.073760
 20
2.468400
  0
VERTEX
  8
0
  6
CONTINUOUS
 10
5.441040
 20
2.108920
  0
VERTEX
  8
0
  6
CONTINUOUS
 10
5.390440
 20
2.154240
  0
SEQEND
  8
0
  0
SOLID
  8
0
 62
    15
 10
1.760440
 20
2.463560
 11
2.392720
 21
2.823040
 12
4.948240
 22
2.463560
 13
5.580520
 23
2.823040
  0
POLYLINE
  8
0
  6
CONTINUOUS
 66
     1
 40
0.000000
 41
0.000000
  0
VERTEX
  8
0
  6
CONTINUOUS
 10
1.760440
 20
2.463560
  0
VERTEX
  8
0
  6
CONTINUOUS
 10
2.392720
 20
2.823040
  0
VERTEX
  8
0
  6
CONTINUOUS
 10
5.580520
 20
2.823040
  0
VERTEX
  8
0
  6
CONTINUOUS
 10
4.948240
 20
2.463560
  0
VERTEX
  8
0
  6
CONTINUOUS
 10
1.760440
 20
2.463560
  0
SEQEND
  8
0
  0
SOLID
  8
0
 62
    15
 10
5.485480
 20
2.059640
 11
6.118200
 21
2.419120
 12
5.523760
 22
2.007720
 13
6.156040
 23
2.367200
  0
POLYLINE
  8
0
  6
CONTINUOUS
 66
     1
 40
0.000000
 41
0.000000
  0
VERTEX
  8
0
  6
CONTINUOUS
 10
5.485480
 20
2.059640
  0
VERTEX
  8
0
  6
CONTINUOUS
 10
6.118200
 20
2.419120
  0
VERTEX
  8
0
  6
CONTINUOUS
 10
6.156040
 20
2.367200
  0
VERTEX
  8
0
  6
CONTINUOUS
 10
5.523760
 20
2.007720
  0
VERTEX
  8
0
  6
CONTINUOUS
 10
5.485480
 20
2.059640
  0
SEQEND
  8
0
  0
SOLID
  8
0
 62
    15
 10
5.523760
 20
2.007720
 11
6.156040
 21
2.367200
 12
5.555880
 22
1.954040
 13
6.188160
 23
2.313520
  0
POLYLINE
  8
0
  6
CONTINUOUS
 66
     1
 40
0.000000
 41
0.000000
  0
VERTEX
  8
0
  6
CONTINUOUS
 10
5.523760
 20
2.007720
  0
VERTEX
  8
0
  6
CONTINUOUS
 10
6.156040
 20
2.367200
  0
VERTEX
  8
0
  6
CONTINUOUS
 10
6.188160
 20
2.313520
  0
VERTEX
  8
0
  6
CONTINUOUS
 10
5.555880
 20
1.954040
  0
VERTEX
  8
0
  6
CONTINUOUS
 10
5.523760
 20
2.007720
  0
SEQEND
  8
0
  0
SOLID
  8
0
 62
    15
 10
5.555880
 20
1.954040
 11
6.188160
 21
2.313520
 12
5.581840
 22
1.899920
 13
6.214120
 23
2.259400
  0
POLYLINE
  8
0
  6
CONTINUOUS
 66
     1
 40
0.000000
 41
0.000000
  0
VERTEX
  8
0
  6
CONTINUOUS
 10
5.555880
 20
1.954040
  0
VERTEX
  8
0
  6
CONTINUOUS
 10
6.188160
 20
2.313520
  0
VERTEX
  8
0
  6
CONTINUOUS
 10
6.214120
 20
2.259400
  0
VERTEX
  8
0
  6
CONTINUOUS
 10
5.581840
 20
1.899920
  0
VERTEX
  8
0
  6
CONTINUOUS
 10
5.555880
 20
1.954040
  0
SEQEND
  8
0
  0
SOLID
  8
0
 62
    15
 10
5.581840
 20
1.899920
 11
6.214120
 21
2.259400
 12
5.602080
 22
1.845800
 13
6.234360
 23
2.205720
  0
POLYLINE
  8
0
  6
CONTINUOUS
 66
     1
 40
0.000000
 41
0.000000
  0
VERTEX
  8
0
  6
CONTINUOUS
 10
5.581840
 20
1.899920
  0
VERTEX
  8
0
  6
CONTINUOUS
 10
6.214120
 20
2.259400
  0
VERTEX
  8
0
  6
CONTINUOUS
 10
6.234360
 20
2.205720
  0
VERTEX
  8
0
  6
CONTINUOUS
 10
5.602080
 20
1.845800
  0
VERTEX
  8
0
  6
CONTINUOUS
 10
5.581840
 20
1.899920
  0
SEQEND
  8
0
  0
SOLID
  8
0
 62
    15
 10
5.602080
 20
1.845800
 11
6.234360
 21
2.205720
 12
5.616160
 22
1.793440
 13
6.248440
 23
2.152920
  0
POLYLINE
  8
0
  6
CONTINUOUS
 66
     1
 40
0.000000
 41
0.000000
  0
VERTEX
  8
0
  6
CONTINUOUS
 10
5.602080
 20
1.845800
  0
VERTEX
  8
0
  6
CONTINUOUS
 10
6.234360
 20
2.205720
  0
VERTEX
  8
0
  6
CONTINUOUS
 10
6.248440
 20
2.152920
  0
VERTEX
  8
0
  6
CONTINUOUS
 10
5.616160
 20
1.793440
  0
VERTEX
  8
0
  6
CONTINUOUS
 10
5.602080
 20
1.845800
  0
SEQEND
  8
0
  0
SOLID
  8
0
 62
    15
 10
5.616160
 20
1.793440
 11
6.248440
 21
2.152920
 12
5.624520
 22
1.742840
 13
6.257240
 23
2.102320
  0
POLYLINE
  8
0
  6
CONTINUOUS
 66
     1
 40
0.000000
 41
0.000000
  0
VERTEX
  8
0
  6
CONTINUOUS
 10
5.616160
 20
1.793440
  0
VERTEX
  8
0
  6
CONTINUOUS
 10
6.248440
 20
2.152920
  0
VERTEX
  8
0
  6
CONTINUOUS
 10
6.257240
 20
2.102320
  0
VERTEX
  8
0
  6
CONTINUOUS
 10
5.624520
 20
1.742840
  0
VERTEX
  8
0
  6
CONTINUOUS
 10
5.616160
 20
1.793440
  0
SEQEND
  8
0
  0
SOLID
  8
0
 62
    15
 10
5.624520
 20
1.742840
 11
6.257240
 21
2.102320
 12
5.627160
 22
1.695760
 13
6.259880
 23
2.055240
  0
POLYLINE
  8
0
  6
CONTINUOUS
 66
     1
 40
0.000000
 41
0.000000
  0
VERTEX
  8
0
  6
CONTINUOUS
 10
5.624520
 20
1.742840
  0
VERTEX
  8
0
  6
CONTINUOUS
 10
6.257240
 20
2.102320
  0
VERTEX
  8
0
  6
CONTINUOUS
 10
6.259880
 20
2.055240
  0
VERTEX
  8
0
  6
CONTINUOUS
 10
5.627160
 20
1.695760
  0
VERTEX
  8
0
  6
CONTINUOUS
 10
5.624520
 20
1.742840
  0
SEQEND
  8
0
  0
SOLID
  8
0
 62
    15
 10
5.627160
 20
1.695760
 11
6.259880
 21
2.055240
 12
5.624080
 22
1.653080
 13
6.256800
 23
2.012560
  0
POLYLINE
  8
0
  6
CONTINUOUS
 66
     1
 40
0.000000
 41
0.000000
  0
VERTEX
  8
0
  6
CONTINUOUS
 10
5.627160
 20
1.695760
  0
VERTEX
  8
0
  6
CONTINUOUS
 10
6.259880
 20
2.055240
  0
VERTEX
  8
0
  6
CONTINUOUS
 10
6.256800
 20
2.012560
  0
VERTEX
  8
0
  6
CONTINUOUS
 10
5.624080
 20
1.653080
  0
VERTEX
  8
0
  6
CONTINUOUS
 10
5.627160
 20
1.695760
  0
SEQEND
  8
0
  0
SOLID
  8
0
 62
    15
 10
5.624080
 20
1.653080
 11
6.256800
 21
2.012560
 12
5.624080
 22
1.649120
 13
6.256800
 23
2.008600
  0
POLYLINE
  8
0
  6
CONTINUOUS
 66
     1
 40
0.000000
 41
0.000000
  0
VERTEX
  8
0
  6
CONTINUOUS
 10
5.624080
 20
1.653080
  0
VERTEX
  8
0
  6
CONTINUOUS
 10
6.256800
 20
2.012560
  0
VERTEX
  8
0
  6
CONTINUOUS
 10
6.256800
 20
2.008600
  0
VERTEX
  8
0
  6
CONTINUOUS
 10
5.624080
 20
1.649120
  0
VERTEX
  8
0
  6
CONTINUOUS
 10
5.624080
 20
1.653080
  0
SEQEND
  8
0
  0
POLYLINE
  8
0
  6
CONTINUOUS
 66
     1
 40
0.000000
 41
0.000000
  0
VERTEX
  8
0
  6
CONTINUOUS
 10
1.760440
 20
1.655720
  0
VERTEX
  8
0
  6
CONTINUOUS
 10
1.760440
 20
2.463560
  0
VERTEX
  8
0
  6
CONTINUOUS
 10
4.948240
 20
2.463560
  0
VERTEX
  8
0
  6
CONTINUOUS
 10
4.948240
 20
2.298560
  0
VERTEX
  8
0
  6
CONTINUOUS
 10
4.950880
 20
2.297240
  0
VERTEX
  8
0
  6
CONTINUOUS
 10
5.040640
 20
2.293720
  0
VERTEX
  8
0
  6
CONTINUOUS
 10
5.123800
 20
2.280960
  0
VERTEX
  8
0
  6
CONTINUOUS
 10
5.200360
 20
2.259840
  0
VERTEX
  8
0
  6
CONTINUOUS
 10
5.270320
 20
2.230800
  0
VERTEX
  8
0
  6
CONTINUOUS
 10
5.333680
 20
2.195600
  0
VERTEX
  8
0
  6
CONTINUOUS
 10
5.390440
 20
2.154240
  0
VERTEX
  8
0
  6
CONTINUOUS
 10
5.441040
 20
2.108920
  0
VERTEX
  8
0
  6
CONTINUOUS
 10
5.485480
 20
2.059640
  0
VERTEX
  8
0
  6
CONTINUOUS
 10
5.523760
 20
2.007720
  0
VERTEX
  8
0
  6
CONTINUOUS
 10
5.555880
 20
1.954040
  0
VERTEX
  8
0
  6
CONTINUOUS
 10
5.581840
 20
1.899920
  0
VERTEX
  8
0
  6
CONTINUOUS
 10
5.602080
 20
1.845800
  0
VERTEX
  8
0
  6
CONTINUOUS
 10
5.616160
 20
1.793440
  0
VERTEX
  8
0
  6
CONTINUOUS
 10
5.624520
 20
1.742840
  0
VERTEX
  8
0
  6
CONTINUOUS
 10
5.627160
 20
1.695760
  0
VERTEX
  8
0
  6
CONTINUOUS
 10
5.624080
 20
1.653080
  0
VERTEX
  8
0
  6
CONTINUOUS
 10
5.624080
 20
1.649120
  0
VERTEX
  8
0
  6
CONTINUOUS
 10
1.760440
 20
1.649120
  0
VERTEX
  8
0
  6
CONTINUOUS
 10
1.760440
 20
1.655720
  0
SEQEND
  8
0
  0
TEXT
  8
0
 10
3.715360
 20
1.383360
 40
0.138202
  1
BA  135
 41
1.000000
  7
SN0
 71
     0
 72
     5
 11
4.307152
 21
1.383360
  0
TEXT
  8
0
 10
3.559600
 20
1.191960
 40
0.138202
  1
3/4" x 3-7/8"
 41
1.000000
  7
SN0
 71
     0
 72
     5
 11
4.462814
 21
1.191960
  0
ENDSEC
  0
EOF
