  0
SECTION
  2
HEADER
  9
$ACADVER
  1
AC1006
  9
$EXTMIN
 10
4.055920
 20
0.434280
  9
$EXTMAX
 10
6.997760
 20
4.094640
  9
$LTSCALE
 40
0.044000
  9
$PDMODE
 70
    35
  9
$PDSIZE
 40
0.035200
  0
ENDSEC
  0
SECTION
  2
TABLES
  0
TABLE
  2
LTYPE
 70
     9
  0
LTYPE
  2
CONTINUOUS
 70
    64
  3
Solid line
 72
    65
 73
     0
 40
0.000000
  0
LTYPE
  2
DASHED
 70
    64
  3
__ __ __ __ __ __ __ __ __ __ __ __ __ __ __
 72
    65
 73
     2
 40
0.000330
 49
0.000220
 49
-0.000110
  0
LTYPE
  2
HIDDEN
 70
    64
  3
 _ _ _ _ _ _ _ _ _ _ _ _ _ _ _ _ _ _ _ _ _ _
 72
    65
 73
     2
 40
0.000165
 49
0.000110
 49
-0.000055
  0
LTYPE
  2
CENTER
 70
    64
  3
____ _ ____ _ ____ _ ____ _ ____ _ ____ _ ____
 72
    65
 73
     4
 40
0.000880
 49
0.000550
 49
-0.000110
 49
0.000110
 49
-0.000110
  0
LTYPE
  2
PHANTOM
 70
    64
  3
_____ _ _ _____ _ _ _____ _ _ _____ _ _ ____
 72
    65
 73
     6
 40
0.001100
 49
0.000550
 49
-0.000110
 49
0.000110
 49
-0.000110
 49
0.000110
 49
-0.000110
  0
LTYPE
  2
DOT
 70
    64
  3
...............................................
 72
    65
 73
     2
 40
0.000110
 49
0.000000
 49
-0.000110
  0
LTYPE
  2
DASHDOT
 70
    64
  3
__ . __ . __ . __ . __ . __ . __ . __ . __ . __
 72
    65
 73
     4
 40
0.000440
 49
0.000220
 49
-0.000110
 49
0.000000
 49
-0.000110
  0
LTYPE
  2
BORDER
 70
    64
  3
__ __ . __ __ . __ __ . __ __ . __ __ . __ __
 72
    65
 73
     6
 40
0.000770
 49
0.000220
 49
-0.000110
 49
0.000220
 49
-0.000110
 49
0.000000
 49
-0.000110
  0
LTYPE
  2
DIVIDE
 70
    64
  3
__ . . __ . . __ . . __ . . __ . . __ . . __
 72
    65
 73
     6
 40
0.000550
 49
0.000220
 49
-0.000110
 49
0.000000
 49
-0.000110
 49
0.000000
 49
-0.000110
  0
LTYPE
  2
DOTDOT
 70
    64
  3
 . .  . .  . .  . .  . .  . . 
 72
    65
 73
     5
 40
0.000242
 49
-0.000110
 49
0.000000
 49
-0.000110
 49
0.000000
 49
-0.000110
  0
ENDTAB
  0
TABLE
  2
STYLE
 70
     2
  0
STYLE
 70
     0
  2
SN0
 40
0.000000
 41
0.000440
 50
0.000000
 71
     0
 42
0.000000
  3
ROMAND
  0
STYLE
 70
    68
  2
SV0
 40
0.000000
 41
0.000440
 50
0.000000
 71
     0
 42
0.000000
  3
ROMAND
  0
ENDTAB
  0
TABLE
  2
LAYER
 70
     3
  0
LAYER
  2
FOREGROUND
 70
    64
 62
     7
  6
CONTINUOUS
  0
LAYER
  2
BACKGROUND
 70
    65
 62
    -7
  6
CONTINUOUS
  0
LAYER
  2
0
 70
    64
 62
     7
  6
CONTINUOUS
  0
ENDTAB
  0
ENDSEC
  0
SECTION
  2
ENTITIES
  0
POLYLINE
  8
FOREGROUND
  6
CONTINUOUS
 66
     1
 40
0.000000
 41
0.000000
  0
VERTEX
  8
FOREGROUND
  6
CONTINUOUS
 10
0.000000
 20
4.528920
  0
VERTEX
  8
FOREGROUND
  6
CONTINUOUS
 10
8.499920
 20
4.528920
  0
VERTEX
  8
FOREGROUND
  6
CONTINUOUS
 10
8.499920
 20
-6.471080
  0
VERTEX
  8
FOREGROUND
  6
CONTINUOUS
 10
0.000000
 20
-6.471080
  0
VERTEX
  8
FOREGROUND
  6
CONTINUOUS
 10
0.000000
 20
4.528920
  0
SEQEND
  8
0
  0
POLYLINE
  8
FOREGROUND
  6
CONTINUOUS
 66
     1
 40
0.000000
 41
0.000000
  0
VERTEX
  8
FOREGROUND
  6
CONTINUOUS
 10
0.000000
 20
4.528920
  0
VERTEX
  8
FOREGROUND
  6
CONTINUOUS
 10
8.499920
 20
4.528920
  0
VERTEX
  8
FOREGROUND
  6
CONTINUOUS
 10
8.499920
 20
-6.471080
  0
VERTEX
  8
FOREGROUND
  6
CONTINUOUS
 10
0.000000
 20
-6.471080
  0
VERTEX
  8
FOREGROUND
  6
CONTINUOUS
 10
0.000000
 20
4.528920
  0
SEQEND
  8
0
  0
POLYLINE
  8
0
  6
CONTINUOUS
 66
     1
 40
0.014080
 41
0.014080
  0
VERTEX
  8
0
  6
CONTINUOUS
 10
6.680080
 20
1.399640
  0
VERTEX
  8
0
  6
CONTINUOUS
 10
6.680080
 20
1.146200
  0
VERTEX
  8
0
  6
CONTINUOUS
 10
6.156040
 20
1.146200
  0
VERTEX
  8
0
  6
CONTINUOUS
 10
6.156040
 20
3.939760
  0
VERTEX
  8
0
  6
CONTINUOUS
 10
6.204440
 20
3.932720
  0
VERTEX
  8
0
  6
CONTINUOUS
 10
6.225120
 20
3.927440
  0
VERTEX
  8
0
  6
CONTINUOUS
 10
6.260320
 20
3.913360
  0
VERTEX
  8
0
  6
CONTINUOUS
 10
6.288040
 20
3.895320
  0
VERTEX
  8
0
  6
CONTINUOUS
 10
6.310040
 20
3.873760
  0
VERTEX
  8
0
  6
CONTINUOUS
 10
6.326760
 20
3.849560
  0
VERTEX
  8
0
  6
CONTINUOUS
 10
6.345680
 20
3.809080
  0
VERTEX
  8
0
  6
CONTINUOUS
 10
6.381320
 20
3.705240
  0
VERTEX
  8
0
  6
CONTINUOUS
 10
6.394960
 20
3.675320
  0
VERTEX
  8
0
  6
CONTINUOUS
 10
6.412560
 20
3.647160
  0
VERTEX
  8
0
  6
CONTINUOUS
 10
6.435000
 20
3.619880
  0
VERTEX
  8
0
  6
CONTINUOUS
 10
6.463600
 20
3.595240
  0
VERTEX
  8
0
  6
CONTINUOUS
 10
6.480760
 20
3.583800
  0
VERTEX
  8
0
  6
CONTINUOUS
 10
6.521240
 20
3.563560
  0
VERTEX
  8
0
  6
CONTINUOUS
 10
6.521240
 20
3.387560
  0
VERTEX
  8
0
  6
CONTINUOUS
 10
6.543680
 20
3.386240
  0
VERTEX
  8
0
  6
CONTINUOUS
 10
6.565240
 20
3.383160
  0
VERTEX
  8
0
  6
CONTINUOUS
 10
6.585920
 20
3.377880
  0
VERTEX
  8
0
  6
CONTINUOUS
 10
6.605720
 20
3.370400
  0
VERTEX
  8
0
  6
CONTINUOUS
 10
6.625080
 20
3.361160
  0
VERTEX
  8
0
  6
CONTINUOUS
 10
6.642680
 20
3.350160
  0
VERTEX
  8
0
  6
CONTINUOUS
 10
6.659400
 20
3.337400
  0
VERTEX
  8
0
  6
CONTINUOUS
 10
6.674800
 20
3.323320
  0
VERTEX
  8
0
  6
CONTINUOUS
 10
6.688880
 20
3.307920
  0
VERTEX
  8
0
  6
CONTINUOUS
 10
6.701640
 20
3.290760
  0
VERTEX
  8
0
  6
CONTINUOUS
 10
6.721440
 20
3.253800
  0
VERTEX
  8
0
  6
CONTINUOUS
 10
6.728920
 20
3.233560
  0
VERTEX
  8
0
  6
CONTINUOUS
 10
6.734200
 20
3.212880
  0
VERTEX
  8
0
  6
CONTINUOUS
 10
6.737280
 20
3.191320
  0
VERTEX
  8
0
  6
CONTINUOUS
 10
6.738600
 20
3.168880
  0
VERTEX
  8
0
  6
CONTINUOUS
 10
6.737280
 20
3.146440
  0
VERTEX
  8
0
  6
CONTINUOUS
 10
6.733760
 20
3.124880
  0
VERTEX
  8
0
  6
CONTINUOUS
 10
6.728040
 20
3.104200
  0
VERTEX
  8
0
  6
CONTINUOUS
 10
6.720560
 20
3.083960
  0
VERTEX
  8
0
  6
CONTINUOUS
 10
6.710880
 20
3.065040
  0
VERTEX
  8
0
  6
CONTINUOUS
 10
6.699440
 20
3.047000
  0
VERTEX
  8
0
  6
CONTINUOUS
 10
6.686240
 20
3.029840
  0
VERTEX
  8
0
  6
CONTINUOUS
 10
6.671720
 20
3.014440
  0
VERTEX
  8
0
  6
CONTINUOUS
 10
6.638280
 20
2.987600
  0
VERTEX
  8
0
  6
CONTINUOUS
 10
6.619800
 20
2.976600
  0
VERTEX
  8
0
  6
CONTINUOUS
 10
6.600440
 20
2.967360
  0
VERTEX
  8
0
  6
CONTINUOUS
 10
6.579760
 20
2.959880
  0
VERTEX
  8
0
  6
CONTINUOUS
 10
6.558640
 20
2.954600
  0
VERTEX
  8
0
  6
CONTINUOUS
 10
6.537080
 20
2.951520
  0
VERTEX
  8
0
  6
CONTINUOUS
 10
6.514640
 20
2.950200
  0
VERTEX
  8
0
  6
CONTINUOUS
 10
6.511120
 20
2.891680
  0
VERTEX
  8
0
  6
CONTINUOUS
 10
6.511120
 20
2.810720
  0
VERTEX
  8
0
  6
CONTINUOUS
 10
6.514640
 20
2.761000
  0
VERTEX
  8
0
  6
CONTINUOUS
 10
6.520360
 20
2.714800
  0
VERTEX
  8
0
  6
CONTINUOUS
 10
6.533560
 20
2.650120
  0
VERTEX
  8
0
  6
CONTINUOUS
 10
6.552040
 20
2.591600
  0
VERTEX
  8
0
  6
CONTINUOUS
 10
6.574480
 20
2.537920
  0
VERTEX
  8
0
  6
CONTINUOUS
 10
6.592080
 20
2.504480
  0
VERTEX
  8
0
  6
CONTINUOUS
 10
6.611440
 20
2.472360
  0
VERTEX
  8
0
  6
CONTINUOUS
 10
6.654120
 20
2.412520
  0
VERTEX
  8
0
  6
CONTINUOUS
 10
6.702080
 20
2.356200
  0
VERTEX
  8
0
  6
CONTINUOUS
 10
6.728040
 20
2.328920
  0
VERTEX
  8
0
  6
CONTINUOUS
 10
6.809880
 20
2.252360
  0
VERTEX
  8
0
  6
CONTINUOUS
 10
6.860920
 20
2.196920
  0
VERTEX
  8
0
  6
CONTINUOUS
 10
6.890400
 20
2.159960
  0
VERTEX
  8
0
  6
CONTINUOUS
 10
6.927360
 20
2.104080
  0
VERTEX
  8
0
  6
CONTINUOUS
 10
6.947160
 20
2.066680
  0
VERTEX
  8
0
  6
CONTINUOUS
 10
6.963440
 20
2.028400
  0
VERTEX
  8
0
  6
CONTINUOUS
 10
6.975760
 20
1.989680
  0
VERTEX
  8
0
  6
CONTINUOUS
 10
6.984120
 20
1.949640
  0
VERTEX
  8
0
  6
CONTINUOUS
 10
6.989400
 20
1.908280
  0
VERTEX
  8
0
  6
CONTINUOUS
 10
6.990280
 20
1.865600
  0
VERTEX
  8
0
  6
CONTINUOUS
 10
6.988080
 20
1.820720
  0
VERTEX
  8
0
  6
CONTINUOUS
 10
6.981920
 20
1.774080
  0
VERTEX
  8
0
  6
CONTINUOUS
 10
6.972240
 20
1.725240
  0
VERTEX
  8
0
  6
CONTINUOUS
 10
6.958600
 20
1.674200
  0
VERTEX
  8
0
  6
CONTINUOUS
 10
6.928240
 20
1.614800
  0
VERTEX
  8
0
  6
CONTINUOUS
 10
6.905360
 20
1.576960
  0
VERTEX
  8
0
  6
CONTINUOUS
 10
6.864440
 20
1.523280
  0
VERTEX
  8
0
  6
CONTINUOUS
 10
6.830120
 20
1.489840
  0
VERTEX
  8
0
  6
CONTINUOUS
 10
6.789640
 20
1.458160
  0
VERTEX
  8
0
  6
CONTINUOUS
 10
6.740800
 20
1.429120
  0
VERTEX
  8
0
  6
CONTINUOUS
 10
6.682720
 20
1.402280
  0
VERTEX
  8
0
  6
CONTINUOUS
 10
6.680080
 20
1.399640
  0
SEQEND
  8
0
  0
SOLID
  8
0
 62
    15
 10
4.411880
 20
2.679160
 11
5.047240
 21
3.046120
 12
4.411000
 22
2.624160
 13
5.046360
 23
2.991120
  0
POLYLINE
  8
0
  6
CONTINUOUS
 66
     1
 40
0.000000
 41
0.000000
  0
VERTEX
  8
0
  6
CONTINUOUS
 10
4.411880
 20
2.679160
  0
VERTEX
  8
0
  6
CONTINUOUS
 10
5.047240
 20
3.046120
  0
VERTEX
  8
0
  6
CONTINUOUS
 10
5.046360
 20
2.991120
  0
VERTEX
  8
0
  6
CONTINUOUS
 10
4.411000
 20
2.624160
  0
VERTEX
  8
0
  6
CONTINUOUS
 10
4.411880
 20
2.679160
  0
SEQEND
  8
0
  0
SOLID
  8
0
 62
    15
 10
4.056800
 20
3.726800
 11
4.692160
 21
4.094200
 12
4.105200
 22
3.719760
 13
4.740560
 23
4.087160
  0
POLYLINE
  8
0
  6
CONTINUOUS
 66
     1
 40
0.000000
 41
0.000000
  0
VERTEX
  8
0
  6
CONTINUOUS
 10
4.056800
 20
3.726800
  0
VERTEX
  8
0
  6
CONTINUOUS
 10
4.692160
 20
4.094200
  0
VERTEX
  8
0
  6
CONTINUOUS
 10
4.740560
 20
4.087160
  0
VERTEX
  8
0
  6
CONTINUOUS
 10
4.105200
 20
3.719760
  0
VERTEX
  8
0
  6
CONTINUOUS
 10
4.056800
 20
3.726800
  0
SEQEND
  8
0
  0
SOLID
  8
0
 62
    15
 10
4.105200
 20
3.719760
 11
4.740560
 21
4.087160
 12
4.144360
 22
3.707880
 13
4.779720
 23
4.075280
  0
POLYLINE
  8
0
  6
CONTINUOUS
 66
     1
 40
0.000000
 41
0.000000
  0
VERTEX
  8
0
  6
CONTINUOUS
 10
4.105200
 20
3.719760
  0
VERTEX
  8
0
  6
CONTINUOUS
 10
4.740560
 20
4.087160
  0
VERTEX
  8
0
  6
CONTINUOUS
 10
4.779720
 20
4.075280
  0
VERTEX
  8
0
  6
CONTINUOUS
 10
4.144360
 20
3.707880
  0
VERTEX
  8
0
  6
CONTINUOUS
 10
4.105200
 20
3.719760
  0
SEQEND
  8
0
  0
SOLID
  8
0
 62
    15
 10
4.144360
 20
3.707880
 11
4.779720
 21
4.075280
 12
4.175600
 22
3.692040
 13
4.810960
 23
4.059000
  0
POLYLINE
  8
0
  6
CONTINUOUS
 66
     1
 40
0.000000
 41
0.000000
  0
VERTEX
  8
0
  6
CONTINUOUS
 10
4.144360
 20
3.707880
  0
VERTEX
  8
0
  6
CONTINUOUS
 10
4.779720
 20
4.075280
  0
VERTEX
  8
0
  6
CONTINUOUS
 10
4.810960
 20
4.059000
  0
VERTEX
  8
0
  6
CONTINUOUS
 10
4.175600
 20
3.692040
  0
VERTEX
  8
0
  6
CONTINUOUS
 10
4.144360
 20
3.707880
  0
SEQEND
  8
0
  0
SOLID
  8
0
 62
    15
 10
4.175600
 20
3.692040
 11
4.810960
 21
4.059000
 12
4.200240
 22
3.672240
 13
4.835600
 23
4.039200
  0
POLYLINE
  8
0
  6
CONTINUOUS
 66
     1
 40
0.000000
 41
0.000000
  0
VERTEX
  8
0
  6
CONTINUOUS
 10
4.175600
 20
3.692040
  0
VERTEX
  8
0
  6
CONTINUOUS
 10
4.810960
 20
4.059000
  0
VERTEX
  8
0
  6
CONTINUOUS
 10
4.835600
 20
4.039200
  0
VERTEX
  8
0
  6
CONTINUOUS
 10
4.200240
 20
3.672240
  0
VERTEX
  8
0
  6
CONTINUOUS
 10
4.175600
 20
3.692040
  0
SEQEND
  8
0
  0
SOLID
  8
0
 62
    15
 10
4.200240
 20
3.672240
 11
4.835600
 21
4.039200
 12
4.219600
 22
3.649360
 13
4.854520
 23
4.016320
  0
POLYLINE
  8
0
  6
CONTINUOUS
 66
     1
 40
0.000000
 41
0.000000
  0
VERTEX
  8
0
  6
CONTINUOUS
 10
4.200240
 20
3.672240
  0
VERTEX
  8
0
  6
CONTINUOUS
 10
4.835600
 20
4.039200
  0
VERTEX
  8
0
  6
CONTINUOUS
 10
4.854520
 20
4.016320
  0
VERTEX
  8
0
  6
CONTINUOUS
 10
4.219600
 20
3.649360
  0
VERTEX
  8
0
  6
CONTINUOUS
 10
4.200240
 20
3.672240
  0
SEQEND
  8
0
  0
SOLID
  8
0
 62
    15
 10
4.219600
 20
3.649360
 11
4.854520
 21
4.016320
 12
4.234560
 22
3.623840
 13
4.869480
 23
3.990800
  0
POLYLINE
  8
0
  6
CONTINUOUS
 66
     1
 40
0.000000
 41
0.000000
  0
VERTEX
  8
0
  6
CONTINUOUS
 10
4.219600
 20
3.649360
  0
VERTEX
  8
0
  6
CONTINUOUS
 10
4.854520
 20
4.016320
  0
VERTEX
  8
0
  6
CONTINUOUS
 10
4.869480
 20
3.990800
  0
VERTEX
  8
0
  6
CONTINUOUS
 10
4.234560
 20
3.623840
  0
VERTEX
  8
0
  6
CONTINUOUS
 10
4.219600
 20
3.649360
  0
SEQEND
  8
0
  0
SOLID
  8
0
 62
    15
 10
4.234560
 20
3.623840
 11
4.869480
 21
3.990800
 12
4.256120
 22
3.567520
 13
4.891480
 23
3.934480
  0
POLYLINE
  8
0
  6
CONTINUOUS
 66
     1
 40
0.000000
 41
0.000000
  0
VERTEX
  8
0
  6
CONTINUOUS
 10
4.234560
 20
3.623840
  0
VERTEX
  8
0
  6
CONTINUOUS
 10
4.869480
 20
3.990800
  0
VERTEX
  8
0
  6
CONTINUOUS
 10
4.891480
 20
3.934480
  0
VERTEX
  8
0
  6
CONTINUOUS
 10
4.256120
 20
3.567520
  0
VERTEX
  8
0
  6
CONTINUOUS
 10
4.234560
 20
3.623840
  0
SEQEND
  8
0
  0
SOLID
  8
0
 62
    15
 10
4.256120
 20
3.567520
 11
4.891480
 21
3.934480
 12
4.276360
 22
3.507680
 13
4.911280
 23
3.874640
  0
POLYLINE
  8
0
  6
CONTINUOUS
 66
     1
 40
0.000000
 41
0.000000
  0
VERTEX
  8
0
  6
CONTINUOUS
 10
4.256120
 20
3.567520
  0
VERTEX
  8
0
  6
CONTINUOUS
 10
4.891480
 20
3.934480
  0
VERTEX
  8
0
  6
CONTINUOUS
 10
4.911280
 20
3.874640
  0
VERTEX
  8
0
  6
CONTINUOUS
 10
4.276360
 20
3.507680
  0
VERTEX
  8
0
  6
CONTINUOUS
 10
4.256120
 20
3.567520
  0
SEQEND
  8
0
  0
SOLID
  8
0
 62
    15
 10
4.276360
 20
3.507680
 11
4.911280
 21
3.874640
 12
4.303640
 22
3.448720
 13
4.939000
 23
3.815680
  0
POLYLINE
  8
0
  6
CONTINUOUS
 66
     1
 40
0.000000
 41
0.000000
  0
VERTEX
  8
0
  6
CONTINUOUS
 10
4.276360
 20
3.507680
  0
VERTEX
  8
0
  6
CONTINUOUS
 10
4.911280
 20
3.874640
  0
VERTEX
  8
0
  6
CONTINUOUS
 10
4.939000
 20
3.815680
  0
VERTEX
  8
0
  6
CONTINUOUS
 10
4.303640
 20
3.448720
  0
VERTEX
  8
0
  6
CONTINUOUS
 10
4.276360
 20
3.507680
  0
SEQEND
  8
0
  0
SOLID
  8
0
 62
    15
 10
4.303640
 20
3.448720
 11
4.939000
 21
3.815680
 12
4.323440
 22
3.420560
 13
4.958800
 23
3.787960
  0
POLYLINE
  8
0
  6
CONTINUOUS
 66
     1
 40
0.000000
 41
0.000000
  0
VERTEX
  8
0
  6
CONTINUOUS
 10
4.303640
 20
3.448720
  0
VERTEX
  8
0
  6
CONTINUOUS
 10
4.939000
 20
3.815680
  0
VERTEX
  8
0
  6
CONTINUOUS
 10
4.958800
 20
3.787960
  0
VERTEX
  8
0
  6
CONTINUOUS
 10
4.323440
 20
3.420560
  0
VERTEX
  8
0
  6
CONTINUOUS
 10
4.303640
 20
3.448720
  0
SEQEND
  8
0
  0
SOLID
  8
0
 62
    15
 10
4.323440
 20
3.420560
 11
4.958800
 21
3.787960
 12
4.348960
 22
3.395040
 13
4.984320
 23
3.762000
  0
POLYLINE
  8
0
  6
CONTINUOUS
 66
     1
 40
0.000000
 41
0.000000
  0
VERTEX
  8
0
  6
CONTINUOUS
 10
4.323440
 20
3.420560
  0
VERTEX
  8
0
  6
CONTINUOUS
 10
4.958800
 20
3.787960
  0
VERTEX
  8
0
  6
CONTINUOUS
 10
4.984320
 20
3.762000
  0
VERTEX
  8
0
  6
CONTINUOUS
 10
4.348960
 20
3.395040
  0
VERTEX
  8
0
  6
CONTINUOUS
 10
4.323440
 20
3.420560
  0
SEQEND
  8
0
  0
SOLID
  8
0
 62
    15
 10
4.348960
 20
3.395040
 11
4.984320
 21
3.762000
 12
4.381520
 22
3.371280
 13
5.016880
 23
3.738680
  0
POLYLINE
  8
0
  6
CONTINUOUS
 66
     1
 40
0.000000
 41
0.000000
  0
VERTEX
  8
0
  6
CONTINUOUS
 10
4.348960
 20
3.395040
  0
VERTEX
  8
0
  6
CONTINUOUS
 10
4.984320
 20
3.762000
  0
VERTEX
  8
0
  6
CONTINUOUS
 10
5.016880
 20
3.738680
  0
VERTEX
  8
0
  6
CONTINUOUS
 10
4.381520
 20
3.371280
  0
VERTEX
  8
0
  6
CONTINUOUS
 10
4.348960
 20
3.395040
  0
SEQEND
  8
0
  0
SOLID
  8
0
 62
    15
 10
4.381520
 20
3.371280
 11
5.016880
 21
3.738680
 12
4.422000
 22
3.351040
 13
5.057360
 23
3.718000
  0
POLYLINE
  8
0
  6
CONTINUOUS
 66
     1
 40
0.000000
 41
0.000000
  0
VERTEX
  8
0
  6
CONTINUOUS
 10
4.381520
 20
3.371280
  0
VERTEX
  8
0
  6
CONTINUOUS
 10
5.016880
 20
3.738680
  0
VERTEX
  8
0
  6
CONTINUOUS
 10
5.057360
 20
3.718000
  0
VERTEX
  8
0
  6
CONTINUOUS
 10
4.422000
 20
3.351040
  0
VERTEX
  8
0
  6
CONTINUOUS
 10
4.381520
 20
3.371280
  0
SEQEND
  8
0
  0
SOLID
  8
0
 62
    15
 10
4.422000
 20
3.351040
 11
5.057360
 21
3.718000
 12
4.422000
 22
3.175040
 13
5.057360
 23
3.542000
  0
POLYLINE
  8
0
  6
CONTINUOUS
 66
     1
 40
0.000000
 41
0.000000
  0
VERTEX
  8
0
  6
CONTINUOUS
 10
4.422000
 20
3.351040
  0
VERTEX
  8
0
  6
CONTINUOUS
 10
5.057360
 20
3.718000
  0
VERTEX
  8
0
  6
CONTINUOUS
 10
5.057360
 20
3.542000
  0
VERTEX
  8
0
  6
CONTINUOUS
 10
4.422000
 20
3.175040
  0
VERTEX
  8
0
  6
CONTINUOUS
 10
4.422000
 20
3.351040
  0
SEQEND
  8
0
  0
SOLID
  8
0
 62
    15
 10
4.422000
 20
3.175040
 11
5.057360
 21
3.542000
 12
4.466000
 22
3.170200
 13
5.100920
 23
3.537600
  0
POLYLINE
  8
0
  6
CONTINUOUS
 66
     1
 40
0.000000
 41
0.000000
  0
VERTEX
  8
0
  6
CONTINUOUS
 10
4.422000
 20
3.175040
  0
VERTEX
  8
0
  6
CONTINUOUS
 10
5.057360
 20
3.542000
  0
VERTEX
  8
0
  6
CONTINUOUS
 10
5.100920
 20
3.537600
  0
VERTEX
  8
0
  6
CONTINUOUS
 10
4.466000
 20
3.170200
  0
VERTEX
  8
0
  6
CONTINUOUS
 10
4.422000
 20
3.175040
  0
SEQEND
  8
0
  0
SOLID
  8
0
 62
    15
 10
4.466000
 20
3.170200
 11
5.100920
 21
3.537600
 12
4.506480
 22
3.157440
 13
5.141840
 23
3.524840
  0
POLYLINE
  8
0
  6
CONTINUOUS
 66
     1
 40
0.000000
 41
0.000000
  0
VERTEX
  8
0
  6
CONTINUOUS
 10
4.466000
 20
3.170200
  0
VERTEX
  8
0
  6
CONTINUOUS
 10
5.100920
 20
3.537600
  0
VERTEX
  8
0
  6
CONTINUOUS
 10
5.141840
 20
3.524840
  0
VERTEX
  8
0
  6
CONTINUOUS
 10
4.506480
 20
3.157440
  0
VERTEX
  8
0
  6
CONTINUOUS
 10
4.466000
 20
3.170200
  0
SEQEND
  8
0
  0
SOLID
  8
0
 62
    15
 10
4.506480
 20
3.157440
 11
5.141840
 21
3.524840
 12
4.543440
 22
3.137200
 13
5.178800
 23
3.504600
  0
POLYLINE
  8
0
  6
CONTINUOUS
 66
     1
 40
0.000000
 41
0.000000
  0
VERTEX
  8
0
  6
CONTINUOUS
 10
4.506480
 20
3.157440
  0
VERTEX
  8
0
  6
CONTINUOUS
 10
5.141840
 20
3.524840
  0
VERTEX
  8
0
  6
CONTINUOUS
 10
5.178800
 20
3.504600
  0
VERTEX
  8
0
  6
CONTINUOUS
 10
4.543440
 20
3.137200
  0
VERTEX
  8
0
  6
CONTINUOUS
 10
4.506480
 20
3.157440
  0
SEQEND
  8
0
  0
SOLID
  8
0
 62
    15
 10
4.543440
 20
3.137200
 11
5.178800
 21
3.504600
 12
4.575560
 22
3.110360
 13
5.210920
 23
3.477760
  0
POLYLINE
  8
0
  6
CONTINUOUS
 66
     1
 40
0.000000
 41
0.000000
  0
VERTEX
  8
0
  6
CONTINUOUS
 10
4.543440
 20
3.137200
  0
VERTEX
  8
0
  6
CONTINUOUS
 10
5.178800
 20
3.504600
  0
VERTEX
  8
0
  6
CONTINUOUS
 10
5.210920
 20
3.477760
  0
VERTEX
  8
0
  6
CONTINUOUS
 10
4.575560
 20
3.110360
  0
VERTEX
  8
0
  6
CONTINUOUS
 10
4.543440
 20
3.137200
  0
SEQEND
  8
0
  0
SOLID
  8
0
 62
    15
 10
4.575560
 20
3.110360
 11
5.210920
 21
3.477760
 12
4.602400
 22
3.078240
 13
5.237320
 23
3.445200
  0
POLYLINE
  8
0
  6
CONTINUOUS
 66
     1
 40
0.000000
 41
0.000000
  0
VERTEX
  8
0
  6
CONTINUOUS
 10
4.575560
 20
3.110360
  0
VERTEX
  8
0
  6
CONTINUOUS
 10
5.210920
 20
3.477760
  0
VERTEX
  8
0
  6
CONTINUOUS
 10
5.237320
 20
3.445200
  0
VERTEX
  8
0
  6
CONTINUOUS
 10
4.602400
 20
3.078240
  0
VERTEX
  8
0
  6
CONTINUOUS
 10
4.575560
 20
3.110360
  0
SEQEND
  8
0
  0
SOLID
  8
0
 62
    15
 10
4.602400
 20
3.078240
 11
5.237320
 21
3.445200
 12
4.622200
 22
3.040840
 13
5.257560
 23
3.408240
  0
POLYLINE
  8
0
  6
CONTINUOUS
 66
     1
 40
0.000000
 41
0.000000
  0
VERTEX
  8
0
  6
CONTINUOUS
 10
4.602400
 20
3.078240
  0
VERTEX
  8
0
  6
CONTINUOUS
 10
5.237320
 20
3.445200
  0
VERTEX
  8
0
  6
CONTINUOUS
 10
5.257560
 20
3.408240
  0
VERTEX
  8
0
  6
CONTINUOUS
 10
4.622200
 20
3.040840
  0
VERTEX
  8
0
  6
CONTINUOUS
 10
4.602400
 20
3.078240
  0
SEQEND
  8
0
  0
SOLID
  8
0
 62
    15
 10
4.622200
 20
3.040840
 11
5.257560
 21
3.408240
 12
4.634960
 22
2.999920
 13
5.270320
 23
3.367320
  0
POLYLINE
  8
0
  6
CONTINUOUS
 66
     1
 40
0.000000
 41
0.000000
  0
VERTEX
  8
0
  6
CONTINUOUS
 10
4.622200
 20
3.040840
  0
VERTEX
  8
0
  6
CONTINUOUS
 10
5.257560
 20
3.408240
  0
VERTEX
  8
0
  6
CONTINUOUS
 10
5.270320
 20
3.367320
  0
VERTEX
  8
0
  6
CONTINUOUS
 10
4.634960
 20
2.999920
  0
VERTEX
  8
0
  6
CONTINUOUS
 10
4.622200
 20
3.040840
  0
SEQEND
  8
0
  0
SOLID
  8
0
 62
    15
 10
4.634960
 20
2.999920
 11
5.270320
 21
3.367320
 12
4.639360
 22
2.956360
 13
5.274720
 23
3.323320
  0
POLYLINE
  8
0
  6
CONTINUOUS
 66
     1
 40
0.000000
 41
0.000000
  0
VERTEX
  8
0
  6
CONTINUOUS
 10
4.634960
 20
2.999920
  0
VERTEX
  8
0
  6
CONTINUOUS
 10
5.270320
 20
3.367320
  0
VERTEX
  8
0
  6
CONTINUOUS
 10
5.274720
 20
3.323320
  0
VERTEX
  8
0
  6
CONTINUOUS
 10
4.639360
 20
2.956360
  0
VERTEX
  8
0
  6
CONTINUOUS
 10
4.634960
 20
2.999920
  0
SEQEND
  8
0
  0
SOLID
  8
0
 62
    15
 10
4.639360
 20
2.956360
 11
5.274720
 21
3.323320
 12
4.634520
 22
2.912360
 13
5.269880
 23
3.279320
  0
POLYLINE
  8
0
  6
CONTINUOUS
 66
     1
 40
0.000000
 41
0.000000
  0
VERTEX
  8
0
  6
CONTINUOUS
 10
4.639360
 20
2.956360
  0
VERTEX
  8
0
  6
CONTINUOUS
 10
5.274720
 20
3.323320
  0
VERTEX
  8
0
  6
CONTINUOUS
 10
5.269880
 20
3.279320
  0
VERTEX
  8
0
  6
CONTINUOUS
 10
4.634520
 20
2.912360
  0
VERTEX
  8
0
  6
CONTINUOUS
 10
4.639360
 20
2.956360
  0
SEQEND
  8
0
  0
SOLID
  8
0
 62
    15
 10
4.634520
 20
2.912360
 11
5.269880
 21
3.279320
 12
4.621320
 22
2.871440
 13
5.256680
 23
3.238400
  0
POLYLINE
  8
0
  6
CONTINUOUS
 66
     1
 40
0.000000
 41
0.000000
  0
VERTEX
  8
0
  6
CONTINUOUS
 10
4.634520
 20
2.912360
  0
VERTEX
  8
0
  6
CONTINUOUS
 10
5.269880
 20
3.279320
  0
VERTEX
  8
0
  6
CONTINUOUS
 10
5.256680
 20
3.238400
  0
VERTEX
  8
0
  6
CONTINUOUS
 10
4.621320
 20
2.871440
  0
VERTEX
  8
0
  6
CONTINUOUS
 10
4.634520
 20
2.912360
  0
SEQEND
  8
0
  0
SOLID
  8
0
 62
    15
 10
4.415400
 20
2.737680
 11
5.050760
 21
3.104640
 12
4.411880
 22
2.679160
 13
5.047240
 23
3.046120
  0
POLYLINE
  8
0
  6
CONTINUOUS
 66
     1
 40
0.000000
 41
0.000000
  0
VERTEX
  8
0
  6
CONTINUOUS
 10
4.415400
 20
2.737680
  0
VERTEX
  8
0
  6
CONTINUOUS
 10
5.050760
 20
3.104640
  0
VERTEX
  8
0
  6
CONTINUOUS
 10
5.047240
 20
3.046120
  0
VERTEX
  8
0
  6
CONTINUOUS
 10
4.411880
 20
2.679160
  0
VERTEX
  8
0
  6
CONTINUOUS
 10
4.415400
 20
2.737680
  0
SEQEND
  8
0
  0
SOLID
  8
0
 62
    15
 10
4.600200
 20
2.834480
 11
5.235560
 21
3.201440
 12
4.572480
 22
2.801920
 13
5.207840
 23
3.168880
  0
POLYLINE
  8
0
  6
CONTINUOUS
 66
     1
 40
0.000000
 41
0.000000
  0
VERTEX
  8
0
  6
CONTINUOUS
 10
4.600200
 20
2.834480
  0
VERTEX
  8
0
  6
CONTINUOUS
 10
5.235560
 20
3.201440
  0
VERTEX
  8
0
  6
CONTINUOUS
 10
5.207840
 20
3.168880
  0
VERTEX
  8
0
  6
CONTINUOUS
 10
4.572480
 20
2.801920
  0
VERTEX
  8
0
  6
CONTINUOUS
 10
4.600200
 20
2.834480
  0
SEQEND
  8
0
  0
SOLID
  8
0
 62
    15
 10
4.572480
 20
2.801920
 11
5.207840
 21
3.168880
 12
4.539040
 22
2.775080
 13
5.174400
 23
3.142040
  0
POLYLINE
  8
0
  6
CONTINUOUS
 66
     1
 40
0.000000
 41
0.000000
  0
VERTEX
  8
0
  6
CONTINUOUS
 10
4.572480
 20
2.801920
  0
VERTEX
  8
0
  6
CONTINUOUS
 10
5.207840
 20
3.168880
  0
VERTEX
  8
0
  6
CONTINUOUS
 10
5.174400
 20
3.142040
  0
VERTEX
  8
0
  6
CONTINUOUS
 10
4.539040
 20
2.775080
  0
VERTEX
  8
0
  6
CONTINUOUS
 10
4.572480
 20
2.801920
  0
SEQEND
  8
0
  0
SOLID
  8
0
 62
    15
 10
4.621320
 20
2.871440
 11
5.256680
 21
3.238400
 12
4.600200
 22
2.834480
 13
5.235560
 23
3.201440
  0
POLYLINE
  8
0
  6
CONTINUOUS
 66
     1
 40
0.000000
 41
0.000000
  0
VERTEX
  8
0
  6
CONTINUOUS
 10
4.621320
 20
2.871440
  0
VERTEX
  8
0
  6
CONTINUOUS
 10
5.256680
 20
3.238400
  0
VERTEX
  8
0
  6
CONTINUOUS
 10
5.235560
 20
3.201440
  0
VERTEX
  8
0
  6
CONTINUOUS
 10
4.600200
 20
2.834480
  0
VERTEX
  8
0
  6
CONTINUOUS
 10
4.621320
 20
2.871440
  0
SEQEND
  8
0
  0
SOLID
  8
0
 62
    15
 10
4.580840
 20
1.186680
 11
5.215760
 21
1.554080
 12
4.580840
 22
0.933680
 13
5.215760
 23
1.300640
  0
POLYLINE
  8
0
  6
CONTINUOUS
 66
     1
 40
0.000000
 41
0.000000
  0
VERTEX
  8
0
  6
CONTINUOUS
 10
4.580840
 20
1.186680
  0
VERTEX
  8
0
  6
CONTINUOUS
 10
5.215760
 20
1.554080
  0
VERTEX
  8
0
  6
CONTINUOUS
 10
5.215760
 20
1.300640
  0
VERTEX
  8
0
  6
CONTINUOUS
 10
4.580840
 20
0.933680
  0
VERTEX
  8
0
  6
CONTINUOUS
 10
4.580840
 20
1.186680
  0
SEQEND
  8
0
  0
SOLID
  8
0
 62
    15
 10
4.411000
 20
2.624160
 11
5.046360
 21
2.991120
 12
4.413200
 22
2.572680
 13
5.048560
 23
2.940080
  0
POLYLINE
  8
0
  6
CONTINUOUS
 66
     1
 40
0.000000
 41
0.000000
  0
VERTEX
  8
0
  6
CONTINUOUS
 10
4.411000
 20
2.624160
  0
VERTEX
  8
0
  6
CONTINUOUS
 10
5.046360
 20
2.991120
  0
VERTEX
  8
0
  6
CONTINUOUS
 10
5.048560
 20
2.940080
  0
VERTEX
  8
0
  6
CONTINUOUS
 10
4.413200
 20
2.572680
  0
VERTEX
  8
0
  6
CONTINUOUS
 10
4.411000
 20
2.624160
  0
SEQEND
  8
0
  0
SOLID
  8
0
 62
    15
 10
4.413200
 20
2.572680
 11
5.048560
 21
2.940080
 12
4.417600
 22
2.524720
 13
5.052960
 23
2.892120
  0
POLYLINE
  8
0
  6
CONTINUOUS
 66
     1
 40
0.000000
 41
0.000000
  0
VERTEX
  8
0
  6
CONTINUOUS
 10
4.413200
 20
2.572680
  0
VERTEX
  8
0
  6
CONTINUOUS
 10
5.048560
 20
2.940080
  0
VERTEX
  8
0
  6
CONTINUOUS
 10
5.052960
 20
2.892120
  0
VERTEX
  8
0
  6
CONTINUOUS
 10
4.417600
 20
2.524720
  0
VERTEX
  8
0
  6
CONTINUOUS
 10
4.413200
 20
2.572680
  0
SEQEND
  8
0
  0
SOLID
  8
0
 62
    15
 10
4.417600
 20
2.524720
 11
5.052960
 21
2.892120
 12
4.434320
 22
2.437600
 13
5.069680
 23
2.804560
  0
POLYLINE
  8
0
  6
CONTINUOUS
 66
     1
 40
0.000000
 41
0.000000
  0
VERTEX
  8
0
  6
CONTINUOUS
 10
4.417600
 20
2.524720
  0
VERTEX
  8
0
  6
CONTINUOUS
 10
5.052960
 20
2.892120
  0
VERTEX
  8
0
  6
CONTINUOUS
 10
5.069680
 20
2.804560
  0
VERTEX
  8
0
  6
CONTINUOUS
 10
4.434320
 20
2.437600
  0
VERTEX
  8
0
  6
CONTINUOUS
 10
4.417600
 20
2.524720
  0
SEQEND
  8
0
  0
SOLID
  8
0
 62
    15
 10
4.434320
 20
2.437600
 11
5.069680
 21
2.804560
 12
4.459400
 22
2.360600
 13
5.094760
 23
2.727560
  0
POLYLINE
  8
0
  6
CONTINUOUS
 66
     1
 40
0.000000
 41
0.000000
  0
VERTEX
  8
0
  6
CONTINUOUS
 10
4.434320
 20
2.437600
  0
VERTEX
  8
0
  6
CONTINUOUS
 10
5.069680
 20
2.804560
  0
VERTEX
  8
0
  6
CONTINUOUS
 10
5.094760
 20
2.727560
  0
VERTEX
  8
0
  6
CONTINUOUS
 10
4.459400
 20
2.360600
  0
VERTEX
  8
0
  6
CONTINUOUS
 10
4.434320
 20
2.437600
  0
SEQEND
  8
0
  0
SOLID
  8
0
 62
    15
 10
4.459400
 20
2.360600
 11
5.094760
 21
2.727560
 12
4.492840
 22
2.291520
 13
5.127760
 23
2.658920
  0
POLYLINE
  8
0
  6
CONTINUOUS
 66
     1
 40
0.000000
 41
0.000000
  0
VERTEX
  8
0
  6
CONTINUOUS
 10
4.459400
 20
2.360600
  0
VERTEX
  8
0
  6
CONTINUOUS
 10
5.094760
 20
2.727560
  0
VERTEX
  8
0
  6
CONTINUOUS
 10
5.127760
 20
2.658920
  0
VERTEX
  8
0
  6
CONTINUOUS
 10
4.492840
 20
2.291520
  0
VERTEX
  8
0
  6
CONTINUOUS
 10
4.459400
 20
2.360600
  0
SEQEND
  8
0
  0
SOLID
  8
0
 62
    15
 10
4.492840
 20
2.291520
 11
5.127760
 21
2.658920
 12
4.532440
 22
2.229480
 13
5.167800
 23
2.596440
  0
POLYLINE
  8
0
  6
CONTINUOUS
 66
     1
 40
0.000000
 41
0.000000
  0
VERTEX
  8
0
  6
CONTINUOUS
 10
4.492840
 20
2.291520
  0
VERTEX
  8
0
  6
CONTINUOUS
 10
5.127760
 20
2.658920
  0
VERTEX
  8
0
  6
CONTINUOUS
 10
5.167800
 20
2.596440
  0
VERTEX
  8
0
  6
CONTINUOUS
 10
4.532440
 20
2.229480
  0
VERTEX
  8
0
  6
CONTINUOUS
 10
4.492840
 20
2.291520
  0
SEQEND
  8
0
  0
SOLID
  8
0
 62
    15
 10
4.532440
 20
2.229480
 11
5.167800
 21
2.596440
 12
4.578200
 22
2.171400
 13
5.213560
 23
2.538360
  0
POLYLINE
  8
0
  6
CONTINUOUS
 66
     1
 40
0.000000
 41
0.000000
  0
VERTEX
  8
0
  6
CONTINUOUS
 10
4.532440
 20
2.229480
  0
VERTEX
  8
0
  6
CONTINUOUS
 10
5.167800
 20
2.596440
  0
VERTEX
  8
0
  6
CONTINUOUS
 10
5.213560
 20
2.538360
  0
VERTEX
  8
0
  6
CONTINUOUS
 10
4.578200
 20
2.171400
  0
VERTEX
  8
0
  6
CONTINUOUS
 10
4.532440
 20
2.229480
  0
SEQEND
  8
0
  0
SOLID
  8
0
 62
    15
 10
4.578200
 20
2.171400
 11
5.213560
 21
2.538360
 12
4.628800
 22
2.116400
 13
5.264160
 23
2.483360
  0
POLYLINE
  8
0
  6
CONTINUOUS
 66
     1
 40
0.000000
 41
0.000000
  0
VERTEX
  8
0
  6
CONTINUOUS
 10
4.578200
 20
2.171400
  0
VERTEX
  8
0
  6
CONTINUOUS
 10
5.213560
 20
2.538360
  0
VERTEX
  8
0
  6
CONTINUOUS
 10
5.264160
 20
2.483360
  0
VERTEX
  8
0
  6
CONTINUOUS
 10
4.628800
 20
2.116400
  0
VERTEX
  8
0
  6
CONTINUOUS
 10
4.578200
 20
2.171400
  0
SEQEND
  8
0
  0
SOLID
  8
0
 62
    15
 10
4.628800
 20
2.116400
 11
5.264160
 21
2.483360
 12
4.671480
 22
2.077680
 13
5.306840
 23
2.444640
  0
POLYLINE
  8
0
  6
CONTINUOUS
 66
     1
 40
0.000000
 41
0.000000
  0
VERTEX
  8
0
  6
CONTINUOUS
 10
4.628800
 20
2.116400
  0
VERTEX
  8
0
  6
CONTINUOUS
 10
5.264160
 20
2.483360
  0
VERTEX
  8
0
  6
CONTINUOUS
 10
5.306840
 20
2.444640
  0
VERTEX
  8
0
  6
CONTINUOUS
 10
4.671480
 20
2.077680
  0
VERTEX
  8
0
  6
CONTINUOUS
 10
4.628800
 20
2.116400
  0
SEQEND
  8
0
  0
SOLID
  8
0
 62
    15
 10
4.671480
 20
2.077680
 11
5.306840
 21
2.444640
 12
4.710640
 22
2.039840
 13
5.345560
 23
2.406800
  0
POLYLINE
  8
0
  6
CONTINUOUS
 66
     1
 40
0.000000
 41
0.000000
  0
VERTEX
  8
0
  6
CONTINUOUS
 10
4.671480
 20
2.077680
  0
VERTEX
  8
0
  6
CONTINUOUS
 10
5.306840
 20
2.444640
  0
VERTEX
  8
0
  6
CONTINUOUS
 10
5.345560
 20
2.406800
  0
VERTEX
  8
0
  6
CONTINUOUS
 10
4.710640
 20
2.039840
  0
VERTEX
  8
0
  6
CONTINUOUS
 10
4.671480
 20
2.077680
  0
SEQEND
  8
0
  0
SOLID
  8
0
 62
    15
 10
4.710640
 20
2.039840
 11
5.345560
 21
2.406800
 12
4.776640
 22
1.965480
 13
5.412000
 23
2.332880
  0
POLYLINE
  8
0
  6
CONTINUOUS
 66
     1
 40
0.000000
 41
0.000000
  0
VERTEX
  8
0
  6
CONTINUOUS
 10
4.710640
 20
2.039840
  0
VERTEX
  8
0
  6
CONTINUOUS
 10
5.345560
 20
2.406800
  0
VERTEX
  8
0
  6
CONTINUOUS
 10
5.412000
 20
2.332880
  0
VERTEX
  8
0
  6
CONTINUOUS
 10
4.776640
 20
1.965480
  0
VERTEX
  8
0
  6
CONTINUOUS
 10
4.710640
 20
2.039840
  0
SEQEND
  8
0
  0
SOLID
  8
0
 62
    15
 10
4.776640
 20
1.965480
 11
5.412000
 21
2.332880
 12
4.828120
 22
1.891560
 13
5.463480
 23
2.258520
  0
POLYLINE
  8
0
  6
CONTINUOUS
 66
     1
 40
0.000000
 41
0.000000
  0
VERTEX
  8
0
  6
CONTINUOUS
 10
4.776640
 20
1.965480
  0
VERTEX
  8
0
  6
CONTINUOUS
 10
5.412000
 20
2.332880
  0
VERTEX
  8
0
  6
CONTINUOUS
 10
5.463480
 20
2.258520
  0
VERTEX
  8
0
  6
CONTINUOUS
 10
4.828120
 20
1.891560
  0
VERTEX
  8
0
  6
CONTINUOUS
 10
4.776640
 20
1.965480
  0
SEQEND
  8
0
  0
SOLID
  8
0
 62
    15
 10
4.828120
 20
1.891560
 11
5.463480
 21
2.258520
 12
4.864200
 22
1.815880
 13
5.499120
 23
2.182840
  0
POLYLINE
  8
0
  6
CONTINUOUS
 66
     1
 40
0.000000
 41
0.000000
  0
VERTEX
  8
0
  6
CONTINUOUS
 10
4.828120
 20
1.891560
  0
VERTEX
  8
0
  6
CONTINUOUS
 10
5.463480
 20
2.258520
  0
VERTEX
  8
0
  6
CONTINUOUS
 10
5.499120
 20
2.182840
  0
VERTEX
  8
0
  6
CONTINUOUS
 10
4.864200
 20
1.815880
  0
VERTEX
  8
0
  6
CONTINUOUS
 10
4.828120
 20
1.891560
  0
SEQEND
  8
0
  0
SOLID
  8
0
 62
    15
 10
4.864200
 20
1.815880
 11
5.499120
 21
2.182840
 12
4.876520
 22
1.777160
 13
5.511440
 23
2.144120
  0
POLYLINE
  8
0
  6
CONTINUOUS
 66
     1
 40
0.000000
 41
0.000000
  0
VERTEX
  8
0
  6
CONTINUOUS
 10
4.864200
 20
1.815880
  0
VERTEX
  8
0
  6
CONTINUOUS
 10
5.499120
 20
2.182840
  0
VERTEX
  8
0
  6
CONTINUOUS
 10
5.511440
 20
2.144120
  0
VERTEX
  8
0
  6
CONTINUOUS
 10
4.876520
 20
1.777160
  0
VERTEX
  8
0
  6
CONTINUOUS
 10
4.864200
 20
1.815880
  0
SEQEND
  8
0
  0
SOLID
  8
0
 62
    15
 10
4.876520
 20
1.777160
 11
5.511440
 21
2.144120
 12
4.884880
 22
1.737120
 13
5.520240
 23
2.104080
  0
POLYLINE
  8
0
  6
CONTINUOUS
 66
     1
 40
0.000000
 41
0.000000
  0
VERTEX
  8
0
  6
CONTINUOUS
 10
4.876520
 20
1.777160
  0
VERTEX
  8
0
  6
CONTINUOUS
 10
5.511440
 20
2.144120
  0
VERTEX
  8
0
  6
CONTINUOUS
 10
5.520240
 20
2.104080
  0
VERTEX
  8
0
  6
CONTINUOUS
 10
4.884880
 20
1.737120
  0
VERTEX
  8
0
  6
CONTINUOUS
 10
4.876520
 20
1.777160
  0
SEQEND
  8
0
  0
SOLID
  8
0
 62
    15
 10
4.884880
 20
1.737120
 11
5.520240
 21
2.104080
 12
4.890160
 22
1.695760
 13
5.525080
 23
2.062720
  0
POLYLINE
  8
0
  6
CONTINUOUS
 66
     1
 40
0.000000
 41
0.000000
  0
VERTEX
  8
0
  6
CONTINUOUS
 10
4.884880
 20
1.737120
  0
VERTEX
  8
0
  6
CONTINUOUS
 10
5.520240
 20
2.104080
  0
VERTEX
  8
0
  6
CONTINUOUS
 10
5.525080
 20
2.062720
  0
VERTEX
  8
0
  6
CONTINUOUS
 10
4.890160
 20
1.695760
  0
VERTEX
  8
0
  6
CONTINUOUS
 10
4.884880
 20
1.737120
  0
SEQEND
  8
0
  0
SOLID
  8
0
 62
    15
 10
4.890160
 20
1.695760
 11
5.525080
 21
2.062720
 12
4.891040
 22
1.652640
 13
5.526400
 23
2.020040
  0
POLYLINE
  8
0
  6
CONTINUOUS
 66
     1
 40
0.000000
 41
0.000000
  0
VERTEX
  8
0
  6
CONTINUOUS
 10
4.890160
 20
1.695760
  0
VERTEX
  8
0
  6
CONTINUOUS
 10
5.525080
 20
2.062720
  0
VERTEX
  8
0
  6
CONTINUOUS
 10
5.526400
 20
2.020040
  0
VERTEX
  8
0
  6
CONTINUOUS
 10
4.891040
 20
1.652640
  0
VERTEX
  8
0
  6
CONTINUOUS
 10
4.890160
 20
1.695760
  0
SEQEND
  8
0
  0
SOLID
  8
0
 62
    15
 10
4.891040
 20
1.652640
 11
5.526400
 21
2.020040
 12
4.888840
 22
1.608200
 13
5.524200
 23
1.975160
  0
POLYLINE
  8
0
  6
CONTINUOUS
 66
     1
 40
0.000000
 41
0.000000
  0
VERTEX
  8
0
  6
CONTINUOUS
 10
4.891040
 20
1.652640
  0
VERTEX
  8
0
  6
CONTINUOUS
 10
5.526400
 20
2.020040
  0
VERTEX
  8
0
  6
CONTINUOUS
 10
5.524200
 20
1.975160
  0
VERTEX
  8
0
  6
CONTINUOUS
 10
4.888840
 20
1.608200
  0
VERTEX
  8
0
  6
CONTINUOUS
 10
4.891040
 20
1.652640
  0
SEQEND
  8
0
  0
SOLID
  8
0
 62
    15
 10
4.888840
 20
1.608200
 11
5.524200
 21
1.975160
 12
4.882680
 22
1.561560
 13
5.518040
 23
1.928520
  0
POLYLINE
  8
0
  6
CONTINUOUS
 66
     1
 40
0.000000
 41
0.000000
  0
VERTEX
  8
0
  6
CONTINUOUS
 10
4.888840
 20
1.608200
  0
VERTEX
  8
0
  6
CONTINUOUS
 10
5.524200
 20
1.975160
  0
VERTEX
  8
0
  6
CONTINUOUS
 10
5.518040
 20
1.928520
  0
VERTEX
  8
0
  6
CONTINUOUS
 10
4.882680
 20
1.561560
  0
VERTEX
  8
0
  6
CONTINUOUS
 10
4.888840
 20
1.608200
  0
SEQEND
  8
0
  0
SOLID
  8
0
 62
    15
 10
4.882680
 20
1.561560
 11
5.518040
 21
1.928520
 12
4.873000
 22
1.512720
 13
5.507920
 23
1.880120
  0
POLYLINE
  8
0
  6
CONTINUOUS
 66
     1
 40
0.000000
 41
0.000000
  0
VERTEX
  8
0
  6
CONTINUOUS
 10
4.882680
 20
1.561560
  0
VERTEX
  8
0
  6
CONTINUOUS
 10
5.518040
 20
1.928520
  0
VERTEX
  8
0
  6
CONTINUOUS
 10
5.507920
 20
1.880120
  0
VERTEX
  8
0
  6
CONTINUOUS
 10
4.873000
 20
1.512720
  0
VERTEX
  8
0
  6
CONTINUOUS
 10
4.882680
 20
1.561560
  0
SEQEND
  8
0
  0
SOLID
  8
0
 62
    15
 10
4.873000
 20
1.512720
 11
5.507920
 21
1.880120
 12
4.859360
 22
1.461680
 13
5.494720
 23
1.828640
  0
POLYLINE
  8
0
  6
CONTINUOUS
 66
     1
 40
0.000000
 41
0.000000
  0
VERTEX
  8
0
  6
CONTINUOUS
 10
4.873000
 20
1.512720
  0
VERTEX
  8
0
  6
CONTINUOUS
 10
5.507920
 20
1.880120
  0
VERTEX
  8
0
  6
CONTINUOUS
 10
5.494720
 20
1.828640
  0
VERTEX
  8
0
  6
CONTINUOUS
 10
4.859360
 20
1.461680
  0
VERTEX
  8
0
  6
CONTINUOUS
 10
4.873000
 20
1.512720
  0
SEQEND
  8
0
  0
SOLID
  8
0
 62
    15
 10
4.859360
 20
1.461680
 11
5.494720
 21
1.828640
 12
4.818000
 22
1.382920
 13
5.453360
 23
1.750320
  0
POLYLINE
  8
0
  6
CONTINUOUS
 66
     1
 40
0.000000
 41
0.000000
  0
VERTEX
  8
0
  6
CONTINUOUS
 10
4.859360
 20
1.461680
  0
VERTEX
  8
0
  6
CONTINUOUS
 10
5.494720
 20
1.828640
  0
VERTEX
  8
0
  6
CONTINUOUS
 10
5.453360
 20
1.750320
  0
VERTEX
  8
0
  6
CONTINUOUS
 10
4.818000
 20
1.382920
  0
VERTEX
  8
0
  6
CONTINUOUS
 10
4.859360
 20
1.461680
  0
SEQEND
  8
0
  0
SOLID
  8
0
 62
    15
 10
4.818000
 20
1.382920
 11
5.453360
 21
1.750320
 12
4.793360
 22
1.345960
 13
5.428720
 23
1.712920
  0
POLYLINE
  8
0
  6
CONTINUOUS
 66
     1
 40
0.000000
 41
0.000000
  0
VERTEX
  8
0
  6
CONTINUOUS
 10
4.818000
 20
1.382920
  0
VERTEX
  8
0
  6
CONTINUOUS
 10
5.453360
 20
1.750320
  0
VERTEX
  8
0
  6
CONTINUOUS
 10
5.428720
 20
1.712920
  0
VERTEX
  8
0
  6
CONTINUOUS
 10
4.793360
 20
1.345960
  0
VERTEX
  8
0
  6
CONTINUOUS
 10
4.818000
 20
1.382920
  0
SEQEND
  8
0
  0
SOLID
  8
0
 62
    15
 10
4.793360
 20
1.345960
 11
5.428720
 21
1.712920
 12
4.764760
 22
1.310760
 13
5.400120
 23
1.677720
  0
POLYLINE
  8
0
  6
CONTINUOUS
 66
     1
 40
0.000000
 41
0.000000
  0
VERTEX
  8
0
  6
CONTINUOUS
 10
4.793360
 20
1.345960
  0
VERTEX
  8
0
  6
CONTINUOUS
 10
5.428720
 20
1.712920
  0
VERTEX
  8
0
  6
CONTINUOUS
 10
5.400120
 20
1.677720
  0
VERTEX
  8
0
  6
CONTINUOUS
 10
4.764760
 20
1.310760
  0
VERTEX
  8
0
  6
CONTINUOUS
 10
4.793360
 20
1.345960
  0
SEQEND
  8
0
  0
SOLID
  8
0
 62
    15
 10
4.764760
 20
1.310760
 11
5.400120
 21
1.677720
 12
4.730880
 22
1.276880
 13
5.366240
 23
1.644280
  0
POLYLINE
  8
0
  6
CONTINUOUS
 66
     1
 40
0.000000
 41
0.000000
  0
VERTEX
  8
0
  6
CONTINUOUS
 10
4.764760
 20
1.310760
  0
VERTEX
  8
0
  6
CONTINUOUS
 10
5.400120
 20
1.677720
  0
VERTEX
  8
0
  6
CONTINUOUS
 10
5.366240
 20
1.644280
  0
VERTEX
  8
0
  6
CONTINUOUS
 10
4.730880
 20
1.276880
  0
VERTEX
  8
0
  6
CONTINUOUS
 10
4.764760
 20
1.310760
  0
SEQEND
  8
0
  0
SOLID
  8
0
 62
    15
 10
4.689960
 20
1.245640
 11
5.325320
 21
1.612600
 12
4.641120
 22
1.216160
 13
5.276480
 23
1.583560
  0
POLYLINE
  8
0
  6
CONTINUOUS
 66
     1
 40
0.000000
 41
0.000000
  0
VERTEX
  8
0
  6
CONTINUOUS
 10
4.689960
 20
1.245640
  0
VERTEX
  8
0
  6
CONTINUOUS
 10
5.325320
 20
1.612600
  0
VERTEX
  8
0
  6
CONTINUOUS
 10
5.276480
 20
1.583560
  0
VERTEX
  8
0
  6
CONTINUOUS
 10
4.641120
 20
1.216160
  0
VERTEX
  8
0
  6
CONTINUOUS
 10
4.689960
 20
1.245640
  0
SEQEND
  8
0
  0
SOLID
  8
0
 62
    15
 10
4.583480
 20
1.189760
 11
5.218840
 21
1.556720
 12
4.580840
 22
1.186680
 13
5.215760
 23
1.554080
  0
POLYLINE
  8
0
  6
CONTINUOUS
 66
     1
 40
0.000000
 41
0.000000
  0
VERTEX
  8
0
  6
CONTINUOUS
 10
4.583480
 20
1.189760
  0
VERTEX
  8
0
  6
CONTINUOUS
 10
5.218840
 20
1.556720
  0
VERTEX
  8
0
  6
CONTINUOUS
 10
5.215760
 20
1.554080
  0
VERTEX
  8
0
  6
CONTINUOUS
 10
4.580840
 20
1.186680
  0
VERTEX
  8
0
  6
CONTINUOUS
 10
4.583480
 20
1.189760
  0
SEQEND
  8
0
  0
SOLID
  8
0
 62
    15
 10
4.730880
 20
1.276880
 11
5.366240
 21
1.644280
 12
4.689960
 22
1.245640
 13
5.325320
 23
1.612600
  0
POLYLINE
  8
0
  6
CONTINUOUS
 66
     1
 40
0.000000
 41
0.000000
  0
VERTEX
  8
0
  6
CONTINUOUS
 10
4.730880
 20
1.276880
  0
VERTEX
  8
0
  6
CONTINUOUS
 10
5.366240
 20
1.644280
  0
VERTEX
  8
0
  6
CONTINUOUS
 10
5.325320
 20
1.612600
  0
VERTEX
  8
0
  6
CONTINUOUS
 10
4.689960
 20
1.245640
  0
VERTEX
  8
0
  6
CONTINUOUS
 10
4.730880
 20
1.276880
  0
SEQEND
  8
0
  0
POLYLINE
  8
0
  6
CONTINUOUS
 66
     1
 40
0.000000
 41
0.000000
  0
VERTEX
  8
0
  6
CONTINUOUS
 10
4.580840
 20
1.186680
  0
VERTEX
  8
0
  6
CONTINUOUS
 10
4.580840
 20
0.933680
  0
VERTEX
  8
0
  6
CONTINUOUS
 10
4.056800
 20
0.933680
  0
VERTEX
  8
0
  6
CONTINUOUS
 10
4.056800
 20
3.726800
  0
VERTEX
  8
0
  6
CONTINUOUS
 10
4.105200
 20
3.719760
  0
VERTEX
  8
0
  6
CONTINUOUS
 10
4.144360
 20
3.707880
  0
VERTEX
  8
0
  6
CONTINUOUS
 10
4.175600
 20
3.692040
  0
VERTEX
  8
0
  6
CONTINUOUS
 10
4.200240
 20
3.672240
  0
VERTEX
  8
0
  6
CONTINUOUS
 10
4.219600
 20
3.649360
  0
VERTEX
  8
0
  6
CONTINUOUS
 10
4.234560
 20
3.623840
  0
VERTEX
  8
0
  6
CONTINUOUS
 10
4.256120
 20
3.567520
  0
VERTEX
  8
0
  6
CONTINUOUS
 10
4.276360
 20
3.507680
  0
VERTEX
  8
0
  6
CONTINUOUS
 10
4.303640
 20
3.448720
  0
VERTEX
  8
0
  6
CONTINUOUS
 10
4.323440
 20
3.420560
  0
VERTEX
  8
0
  6
CONTINUOUS
 10
4.348960
 20
3.395040
  0
VERTEX
  8
0
  6
CONTINUOUS
 10
4.381520
 20
3.371280
  0
VERTEX
  8
0
  6
CONTINUOUS
 10
4.422000
 20
3.351040
  0
VERTEX
  8
0
  6
CONTINUOUS
 10
4.422000
 20
3.175040
  0
VERTEX
  8
0
  6
CONTINUOUS
 10
4.466000
 20
3.170200
  0
VERTEX
  8
0
  6
CONTINUOUS
 10
4.506480
 20
3.157440
  0
VERTEX
  8
0
  6
CONTINUOUS
 10
4.543440
 20
3.137200
  0
VERTEX
  8
0
  6
CONTINUOUS
 10
4.575560
 20
3.110360
  0
VERTEX
  8
0
  6
CONTINUOUS
 10
4.602400
 20
3.078240
  0
VERTEX
  8
0
  6
CONTINUOUS
 10
4.622200
 20
3.040840
  0
VERTEX
  8
0
  6
CONTINUOUS
 10
4.634960
 20
2.999920
  0
VERTEX
  8
0
  6
CONTINUOUS
 10
4.639360
 20
2.956360
  0
VERTEX
  8
0
  6
CONTINUOUS
 10
4.634520
 20
2.912360
  0
VERTEX
  8
0
  6
CONTINUOUS
 10
4.621320
 20
2.871440
  0
VERTEX
  8
0
  6
CONTINUOUS
 10
4.600200
 20
2.834480
  0
VERTEX
  8
0
  6
CONTINUOUS
 10
4.572480
 20
2.801920
  0
VERTEX
  8
0
  6
CONTINUOUS
 10
4.539040
 20
2.775080
  0
VERTEX
  8
0
  6
CONTINUOUS
 10
4.501200
 20
2.754840
  0
VERTEX
  8
0
  6
CONTINUOUS
 10
4.459400
 20
2.742080
  0
VERTEX
  8
0
  6
CONTINUOUS
 10
4.415400
 20
2.737680
  0
VERTEX
  8
0
  6
CONTINUOUS
 10
4.411880
 20
2.679160
  0
VERTEX
  8
0
  6
CONTINUOUS
 10
4.411000
 20
2.624160
  0
VERTEX
  8
0
  6
CONTINUOUS
 10
4.413200
 20
2.572680
  0
VERTEX
  8
0
  6
CONTINUOUS
 10
4.417600
 20
2.524720
  0
VERTEX
  8
0
  6
CONTINUOUS
 10
4.434320
 20
2.437600
  0
VERTEX
  8
0
  6
CONTINUOUS
 10
4.459400
 20
2.360600
  0
VERTEX
  8
0
  6
CONTINUOUS
 10
4.492840
 20
2.291520
  0
VERTEX
  8
0
  6
CONTINUOUS
 10
4.532440
 20
2.229480
  0
VERTEX
  8
0
  6
CONTINUOUS
 10
4.578200
 20
2.171400
  0
VERTEX
  8
0
  6
CONTINUOUS
 10
4.628800
 20
2.116400
  0
VERTEX
  8
0
  6
CONTINUOUS
 10
4.710640
 20
2.039840
  0
VERTEX
  8
0
  6
CONTINUOUS
 10
4.776640
 20
1.965480
  0
VERTEX
  8
0
  6
CONTINUOUS
 10
4.828120
 20
1.891560
  0
VERTEX
  8
0
  6
CONTINUOUS
 10
4.864200
 20
1.815880
  0
VERTEX
  8
0
  6
CONTINUOUS
 10
4.876520
 20
1.777160
  0
VERTEX
  8
0
  6
CONTINUOUS
 10
4.884880
 20
1.737120
  0
VERTEX
  8
0
  6
CONTINUOUS
 10
4.890160
 20
1.695760
  0
VERTEX
  8
0
  6
CONTINUOUS
 10
4.891040
 20
1.652640
  0
VERTEX
  8
0
  6
CONTINUOUS
 10
4.888840
 20
1.608200
  0
VERTEX
  8
0
  6
CONTINUOUS
 10
4.882680
 20
1.561560
  0
VERTEX
  8
0
  6
CONTINUOUS
 10
4.873000
 20
1.512720
  0
VERTEX
  8
0
  6
CONTINUOUS
 10
4.859360
 20
1.461680
  0
VERTEX
  8
0
  6
CONTINUOUS
 10
4.818000
 20
1.382920
  0
VERTEX
  8
0
  6
CONTINUOUS
 10
4.793360
 20
1.345960
  0
VERTEX
  8
0
  6
CONTINUOUS
 10
4.764760
 20
1.310760
  0
VERTEX
  8
0
  6
CONTINUOUS
 10
4.730880
 20
1.276880
  0
VERTEX
  8
0
  6
CONTINUOUS
 10
4.689960
 20
1.245640
  0
VERTEX
  8
0
  6
CONTINUOUS
 10
4.641120
 20
1.216160
  0
VERTEX
  8
0
  6
CONTINUOUS
 10
4.583480
 20
1.189760
  0
VERTEX
  8
0
  6
CONTINUOUS
 10
4.580840
 20
1.186680
  0
SEQEND
  8
0
  0
TEXT
  8
0
 10
4.495040
 20
0.670120
 40
0.138077
  1
BA  132
 41
1.000000
  7
SN0
 71
     0
 72
     5
 11
5.085090
 21
0.670120
  0
TEXT
  8
0
 10
4.339280
 20
0.478280
 40
0.138077
  1
3/4" x 2-3/4"
 41
1.000000
  7
SN0
 71
     0
 72
     5
 11
5.240095
 21
0.478280
  0
ENDSEC
  0
EOF
