  0
SECTION
  2
HEADER
  9
$ACADVER
  1
AC1006
  9
$EXTMIN
 10
2.344320
 20
2.013440
  9
$EXTMAX
 10
5.964200
 20
6.292880
  9
$LTSCALE
 40
0.044000
  9
$PDMODE
 70
    35
  9
$PDSIZE
 40
0.035200
  0
ENDSEC
  0
SECTION
  2
TABLES
  0
TABLE
  2
LTYPE
 70
     9
  0
LTYPE
  2
CONTINUOUS
 70
    64
  3
Solid line
 72
    65
 73
     0
 40
0.000000
  0
LTYPE
  2
DASHED
 70
    64
  3
__ __ __ __ __ __ __ __ __ __ __ __ __ __ __
 72
    65
 73
     2
 40
0.000330
 49
0.000220
 49
-0.000110
  0
LTYPE
  2
HIDDEN
 70
    64
  3
 _ _ _ _ _ _ _ _ _ _ _ _ _ _ _ _ _ _ _ _ _ _
 72
    65
 73
     2
 40
0.000165
 49
0.000110
 49
-0.000055
  0
LTYPE
  2
CENTER
 70
    64
  3
____ _ ____ _ ____ _ ____ _ ____ _ ____ _ ____
 72
    65
 73
     4
 40
0.000880
 49
0.000550
 49
-0.000110
 49
0.000110
 49
-0.000110
  0
LTYPE
  2
PHANTOM
 70
    64
  3
_____ _ _ _____ _ _ _____ _ _ _____ _ _ ____
 72
    65
 73
     6
 40
0.001100
 49
0.000550
 49
-0.000110
 49
0.000110
 49
-0.000110
 49
0.000110
 49
-0.000110
  0
LTYPE
  2
DOT
 70
    64
  3
...............................................
 72
    65
 73
     2
 40
0.000110
 49
0.000000
 49
-0.000110
  0
LTYPE
  2
DASHDOT
 70
    64
  3
__ . __ . __ . __ . __ . __ . __ . __ . __ . __
 72
    65
 73
     4
 40
0.000440
 49
0.000220
 49
-0.000110
 49
0.000000
 49
-0.000110
  0
LTYPE
  2
BORDER
 70
    64
  3
__ __ . __ __ . __ __ . __ __ . __ __ . __ __
 72
    65
 73
     6
 40
0.000770
 49
0.000220
 49
-0.000110
 49
0.000220
 49
-0.000110
 49
0.000000
 49
-0.000110
  0
LTYPE
  2
DIVIDE
 70
    64
  3
__ . . __ . . __ . . __ . . __ . . __ . . __
 72
    65
 73
     6
 40
0.000550
 49
0.000220
 49
-0.000110
 49
0.000000
 49
-0.000110
 49
0.000000
 49
-0.000110
  0
LTYPE
  2
DOTDOT
 70
    64
  3
 . .  . .  . .  . .  . .  . . 
 72
    65
 73
     5
 40
0.000242
 49
-0.000110
 49
0.000000
 49
-0.000110
 49
0.000000
 49
-0.000110
  0
ENDTAB
  0
TABLE
  2
STYLE
 70
     2
  0
STYLE
 70
     0
  2
SN0
 40
0.000000
 41
0.000440
 50
0.000000
 71
     0
 42
0.000000
  3
ROMAND
  0
STYLE
 70
    68
  2
SV0
 40
0.000000
 41
0.000440
 50
0.000000
 71
     0
 42
0.000000
  3
ROMAND
  0
ENDTAB
  0
TABLE
  2
LAYER
 70
     3
  0
LAYER
  2
FOREGROUND
 70
    64
 62
     7
  6
CONTINUOUS
  0
LAYER
  2
BACKGROUND
 70
    65
 62
    -7
  6
CONTINUOUS
  0
LAYER
  2
0
 70
    64
 62
     7
  6
CONTINUOUS
  0
ENDTAB
  0
ENDSEC
  0
SECTION
  2
ENTITIES
  0
POLYLINE
  8
FOREGROUND
  6
CONTINUOUS
 66
     1
 40
0.000000
 41
0.000000
  0
VERTEX
  8
FOREGROUND
  6
CONTINUOUS
 10
0.000000
 20
8.306320
  0
VERTEX
  8
FOREGROUND
  6
CONTINUOUS
 10
8.499920
 20
8.306320
  0
VERTEX
  8
FOREGROUND
  6
CONTINUOUS
 10
8.499920
 20
-2.693680
  0
VERTEX
  8
FOREGROUND
  6
CONTINUOUS
 10
0.000000
 20
-2.693680
  0
VERTEX
  8
FOREGROUND
  6
CONTINUOUS
 10
0.000000
 20
8.306320
  0
SEQEND
  8
0
  0
POLYLINE
  8
FOREGROUND
  6
CONTINUOUS
 66
     1
 40
0.000000
 41
0.000000
  0
VERTEX
  8
FOREGROUND
  6
CONTINUOUS
 10
0.000000
 20
8.306320
  0
VERTEX
  8
FOREGROUND
  6
CONTINUOUS
 10
8.499920
 20
8.306320
  0
VERTEX
  8
FOREGROUND
  6
CONTINUOUS
 10
8.499920
 20
-2.693680
  0
VERTEX
  8
FOREGROUND
  6
CONTINUOUS
 10
0.000000
 20
-2.693680
  0
VERTEX
  8
FOREGROUND
  6
CONTINUOUS
 10
0.000000
 20
8.306320
  0
SEQEND
  8
0
  0
POLYLINE
  8
0
  6
CONTINUOUS
 66
     1
 40
0.014080
 41
0.014080
  0
VERTEX
  8
0
  6
CONTINUOUS
 10
5.904800
 20
5.888960
  0
VERTEX
  8
0
  6
CONTINUOUS
 10
5.515400
 20
6.282320
  0
VERTEX
  8
0
  6
CONTINUOUS
 10
5.232480
 20
6.003800
  0
VERTEX
  8
0
  6
CONTINUOUS
 10
5.228520
 20
6.005120
  0
VERTEX
  8
0
  6
CONTINUOUS
 10
5.218400
 20
6.022280
  0
VERTEX
  8
0
  6
CONTINUOUS
 10
5.205640
 20
6.039000
  0
VERTEX
  8
0
  6
CONTINUOUS
 10
5.174400
 20
6.070240
  0
VERTEX
  8
0
  6
CONTINUOUS
 10
5.135680
 20
6.098840
  0
VERTEX
  8
0
  6
CONTINUOUS
 10
5.089920
 20
6.123480
  0
VERTEX
  8
0
  6
CONTINUOUS
 10
5.038880
 20
6.145040
  0
VERTEX
  8
0
  6
CONTINUOUS
 10
4.983000
 20
6.162200
  0
VERTEX
  8
0
  6
CONTINUOUS
 10
4.923600
 20
6.174520
  0
VERTEX
  8
0
  6
CONTINUOUS
 10
4.862000
 20
6.182000
  0
VERTEX
  8
0
  6
CONTINUOUS
 10
4.798640
 20
6.184200
  0
VERTEX
  8
0
  6
CONTINUOUS
 10
4.766960
 20
6.183320
  0
VERTEX
  8
0
  6
CONTINUOUS
 10
4.703160
 20
6.176720
  0
VERTEX
  8
0
  6
CONTINUOUS
 10
4.671920
 20
6.171000
  0
VERTEX
  8
0
  6
CONTINUOUS
 10
4.640680
 20
6.163520
  0
VERTEX
  8
0
  6
CONTINUOUS
 10
4.580400
 20
6.143720
  0
VERTEX
  8
0
  6
CONTINUOUS
 10
4.551360
 20
6.130960
  0
VERTEX
  8
0
  6
CONTINUOUS
 10
4.523200
 20
6.116440
  0
VERTEX
  8
0
  6
CONTINUOUS
 10
4.495920
 20
6.100160
  0
VERTEX
  8
0
  6
CONTINUOUS
 10
4.469960
 20
6.081680
  0
VERTEX
  8
0
  6
CONTINUOUS
 10
4.433440
 20
6.050440
  0
VERTEX
  8
0
  6
CONTINUOUS
 10
4.400440
 20
6.014360
  0
VERTEX
  8
0
  6
CONTINUOUS
 10
4.397800
 20
6.014360
  0
VERTEX
  8
0
  6
CONTINUOUS
 10
4.182640
 20
6.231720
  0
VERTEX
  8
0
  6
CONTINUOUS
 10
4.177800
 20
6.231720
  0
VERTEX
  8
0
  6
CONTINUOUS
 10
4.148320
 20
6.198720
  0
VERTEX
  8
0
  6
CONTINUOUS
 10
4.116640
 20
6.167040
  0
VERTEX
  8
0
  6
CONTINUOUS
 10
4.083640
 20
6.137120
  0
VERTEX
  8
0
  6
CONTINUOUS
 10
4.049320
 20
6.108520
  0
VERTEX
  8
0
  6
CONTINUOUS
 10
4.013240
 20
6.081680
  0
VERTEX
  8
0
  6
CONTINUOUS
 10
3.975840
 20
6.056160
  0
VERTEX
  8
0
  6
CONTINUOUS
 10
3.937120
 20
6.032400
  0
VERTEX
  8
0
  6
CONTINUOUS
 10
3.897080
 20
6.010400
  0
VERTEX
  8
0
  6
CONTINUOUS
 10
3.814360
 20
5.972120
  0
VERTEX
  8
0
  6
CONTINUOUS
 10
3.771240
 20
5.955840
  0
VERTEX
  8
0
  6
CONTINUOUS
 10
3.727240
 20
5.941320
  0
VERTEX
  8
0
  6
CONTINUOUS
 10
3.682800
 20
5.929000
  0
VERTEX
  8
0
  6
CONTINUOUS
 10
3.637480
 20
5.918440
  0
VERTEX
  8
0
  6
CONTINUOUS
 10
3.591720
 20
5.910080
  0
VERTEX
  8
0
  6
CONTINUOUS
 10
3.545520
 20
5.904360
  0
VERTEX
  8
0
  6
CONTINUOUS
 10
3.498440
 20
5.900400
  0
VERTEX
  8
0
  6
CONTINUOUS
 10
3.451360
 20
5.899080
  0
VERTEX
  8
0
  6
CONTINUOUS
 10
3.403840
 20
5.899960
  0
VERTEX
  8
0
  6
CONTINUOUS
 10
3.356320
 20
5.903040
  0
VERTEX
  8
0
  6
CONTINUOUS
 10
3.308800
 20
5.908760
  0
VERTEX
  8
0
  6
CONTINUOUS
 10
3.237520
 20
5.922400
  0
VERTEX
  8
0
  6
CONTINUOUS
 10
3.166680
 20
5.941760
  0
VERTEX
  8
0
  6
CONTINUOUS
 10
3.142920
 20
5.949240
  0
VERTEX
  8
0
  6
CONTINUOUS
 10
3.072960
 20
5.976960
  0
VERTEX
  8
0
  6
CONTINUOUS
 10
3.003880
 20
6.010400
  0
VERTEX
  8
0
  6
CONTINUOUS
 10
2.936120
 20
6.050880
  0
VERTEX
  8
0
  6
CONTINUOUS
 10
2.870120
 20
6.097960
  0
VERTEX
  8
0
  6
CONTINUOUS
 10
2.827000
 20
6.132720
  0
VERTEX
  8
0
  6
CONTINUOUS
 10
2.805880
 20
6.151640
  0
VERTEX
  8
0
  6
CONTINUOUS
 10
2.361920
 20
5.718240
  0
VERTEX
  8
0
  6
CONTINUOUS
 10
2.361920
 20
5.714280
  0
VERTEX
  8
0
  6
CONTINUOUS
 10
2.651000
 20
5.412880
  0
VERTEX
  8
0
  6
CONTINUOUS
 10
5.437520
 20
5.412880
  0
VERTEX
  8
0
  6
CONTINUOUS
 10
5.908320
 20
5.891600
  0
VERTEX
  8
0
  6
CONTINUOUS
 10
5.904800
 20
5.888960
  0
SEQEND
  8
0
  0
SOLID
  8
0
 62
    15
 10
4.303200
 20
3.411760
 11
4.934160
 21
3.050520
 12
3.997400
 22
3.409560
 13
4.627920
 23
3.048320
  0
POLYLINE
  8
0
  6
CONTINUOUS
 66
     1
 40
0.000000
 41
0.000000
  0
VERTEX
  8
0
  6
CONTINUOUS
 10
4.303200
 20
3.411760
  0
VERTEX
  8
0
  6
CONTINUOUS
 10
4.934160
 20
3.050520
  0
VERTEX
  8
0
  6
CONTINUOUS
 10
4.627920
 20
3.048320
  0
VERTEX
  8
0
  6
CONTINUOUS
 10
3.997400
 20
3.409560
  0
VERTEX
  8
0
  6
CONTINUOUS
 10
4.303200
 20
3.411760
  0
SEQEND
  8
0
  0
SOLID
  8
0
 62
    15
 10
5.204320
 20
5.076280
 11
5.835280
 21
4.715040
 12
5.207400
 22
5.073640
 13
5.838360
 23
4.712400
  0
POLYLINE
  8
0
  6
CONTINUOUS
 66
     1
 40
0.000000
 41
0.000000
  0
VERTEX
  8
0
  6
CONTINUOUS
 10
5.204320
 20
5.076280
  0
VERTEX
  8
0
  6
CONTINUOUS
 10
5.835280
 20
4.715040
  0
VERTEX
  8
0
  6
CONTINUOUS
 10
5.838360
 20
4.712400
  0
VERTEX
  8
0
  6
CONTINUOUS
 10
5.207400
 20
5.073640
  0
VERTEX
  8
0
  6
CONTINUOUS
 10
5.204320
 20
5.076280
  0
SEQEND
  8
0
  0
SOLID
  8
0
 62
    15
 10
5.207400
 20
4.453240
 11
5.838360
 21
4.092000
 12
5.096960
 22
4.440480
 13
5.727920
 23
4.079240
  0
POLYLINE
  8
0
  6
CONTINUOUS
 66
     1
 40
0.000000
 41
0.000000
  0
VERTEX
  8
0
  6
CONTINUOUS
 10
5.207400
 20
4.453240
  0
VERTEX
  8
0
  6
CONTINUOUS
 10
5.838360
 20
4.092000
  0
VERTEX
  8
0
  6
CONTINUOUS
 10
5.727920
 20
4.079240
  0
VERTEX
  8
0
  6
CONTINUOUS
 10
5.096960
 20
4.440480
  0
VERTEX
  8
0
  6
CONTINUOUS
 10
5.207400
 20
4.453240
  0
SEQEND
  8
0
  0
SOLID
  8
0
 62
    15
 10
5.096960
 20
4.440480
 11
5.727920
 21
4.079240
 12
4.993120
 22
4.417160
 13
5.623640
 23
4.055920
  0
POLYLINE
  8
0
  6
CONTINUOUS
 66
     1
 40
0.000000
 41
0.000000
  0
VERTEX
  8
0
  6
CONTINUOUS
 10
5.096960
 20
4.440480
  0
VERTEX
  8
0
  6
CONTINUOUS
 10
5.727920
 20
4.079240
  0
VERTEX
  8
0
  6
CONTINUOUS
 10
5.623640
 20
4.055920
  0
VERTEX
  8
0
  6
CONTINUOUS
 10
4.993120
 20
4.417160
  0
VERTEX
  8
0
  6
CONTINUOUS
 10
5.096960
 20
4.440480
  0
SEQEND
  8
0
  0
SOLID
  8
0
 62
    15
 10
4.993120
 20
4.417160
 11
5.623640
 21
4.055920
 12
4.895440
 22
4.384160
 13
5.526400
 23
4.022920
  0
POLYLINE
  8
0
  6
CONTINUOUS
 66
     1
 40
0.000000
 41
0.000000
  0
VERTEX
  8
0
  6
CONTINUOUS
 10
4.993120
 20
4.417160
  0
VERTEX
  8
0
  6
CONTINUOUS
 10
5.623640
 20
4.055920
  0
VERTEX
  8
0
  6
CONTINUOUS
 10
5.526400
 20
4.022920
  0
VERTEX
  8
0
  6
CONTINUOUS
 10
4.895440
 20
4.384160
  0
VERTEX
  8
0
  6
CONTINUOUS
 10
4.993120
 20
4.417160
  0
SEQEND
  8
0
  0
SOLID
  8
0
 62
    15
 10
4.895440
 20
4.384160
 11
5.526400
 21
4.022920
 12
4.805240
 22
4.341480
 13
5.435760
 23
3.980240
  0
POLYLINE
  8
0
  6
CONTINUOUS
 66
     1
 40
0.000000
 41
0.000000
  0
VERTEX
  8
0
  6
CONTINUOUS
 10
4.895440
 20
4.384160
  0
VERTEX
  8
0
  6
CONTINUOUS
 10
5.526400
 20
4.022920
  0
VERTEX
  8
0
  6
CONTINUOUS
 10
5.435760
 20
3.980240
  0
VERTEX
  8
0
  6
CONTINUOUS
 10
4.805240
 20
4.341480
  0
VERTEX
  8
0
  6
CONTINUOUS
 10
4.895440
 20
4.384160
  0
SEQEND
  8
0
  0
SOLID
  8
0
 62
    15
 10
4.805240
 20
4.341480
 11
5.435760
 21
3.980240
 12
4.645080
 22
4.232800
 13
5.275600
 23
3.871120
  0
POLYLINE
  8
0
  6
CONTINUOUS
 66
     1
 40
0.000000
 41
0.000000
  0
VERTEX
  8
0
  6
CONTINUOUS
 10
4.805240
 20
4.341480
  0
VERTEX
  8
0
  6
CONTINUOUS
 10
5.435760
 20
3.980240
  0
VERTEX
  8
0
  6
CONTINUOUS
 10
5.275600
 20
3.871120
  0
VERTEX
  8
0
  6
CONTINUOUS
 10
4.645080
 20
4.232800
  0
VERTEX
  8
0
  6
CONTINUOUS
 10
4.805240
 20
4.341480
  0
SEQEND
  8
0
  0
SOLID
  8
0
 62
    15
 10
4.645080
 20
4.232800
 11
5.275600
 21
3.871120
 12
4.513960
 22
4.096840
 13
5.144480
 23
3.735600
  0
POLYLINE
  8
0
  6
CONTINUOUS
 66
     1
 40
0.000000
 41
0.000000
  0
VERTEX
  8
0
  6
CONTINUOUS
 10
4.645080
 20
4.232800
  0
VERTEX
  8
0
  6
CONTINUOUS
 10
5.275600
 20
3.871120
  0
VERTEX
  8
0
  6
CONTINUOUS
 10
5.144480
 20
3.735600
  0
VERTEX
  8
0
  6
CONTINUOUS
 10
4.513960
 20
4.096840
  0
VERTEX
  8
0
  6
CONTINUOUS
 10
4.645080
 20
4.232800
  0
SEQEND
  8
0
  0
SOLID
  8
0
 62
    15
 10
4.513960
 20
4.096840
 11
5.144480
 21
3.735600
 12
4.413200
 22
3.940640
 13
5.044160
 23
3.579400
  0
POLYLINE
  8
0
  6
CONTINUOUS
 66
     1
 40
0.000000
 41
0.000000
  0
VERTEX
  8
0
  6
CONTINUOUS
 10
4.513960
 20
4.096840
  0
VERTEX
  8
0
  6
CONTINUOUS
 10
5.144480
 20
3.735600
  0
VERTEX
  8
0
  6
CONTINUOUS
 10
5.044160
 20
3.579400
  0
VERTEX
  8
0
  6
CONTINUOUS
 10
4.413200
 20
3.940640
  0
VERTEX
  8
0
  6
CONTINUOUS
 10
4.513960
 20
4.096840
  0
SEQEND
  8
0
  0
SOLID
  8
0
 62
    15
 10
4.413200
 20
3.940640
 11
5.044160
 21
3.579400
 12
4.344120
 22
3.770800
 13
4.975080
 23
3.409560
  0
POLYLINE
  8
0
  6
CONTINUOUS
 66
     1
 40
0.000000
 41
0.000000
  0
VERTEX
  8
0
  6
CONTINUOUS
 10
4.413200
 20
3.940640
  0
VERTEX
  8
0
  6
CONTINUOUS
 10
5.044160
 20
3.579400
  0
VERTEX
  8
0
  6
CONTINUOUS
 10
4.975080
 20
3.409560
  0
VERTEX
  8
0
  6
CONTINUOUS
 10
4.344120
 20
3.770800
  0
VERTEX
  8
0
  6
CONTINUOUS
 10
4.413200
 20
3.940640
  0
SEQEND
  8
0
  0
SOLID
  8
0
 62
    15
 10
4.344120
 20
3.770800
 11
4.975080
 21
3.409560
 12
4.308040
 22
3.593480
 13
4.939000
 23
3.232240
  0
POLYLINE
  8
0
  6
CONTINUOUS
 66
     1
 40
0.000000
 41
0.000000
  0
VERTEX
  8
0
  6
CONTINUOUS
 10
4.344120
 20
3.770800
  0
VERTEX
  8
0
  6
CONTINUOUS
 10
4.975080
 20
3.409560
  0
VERTEX
  8
0
  6
CONTINUOUS
 10
4.939000
 20
3.232240
  0
VERTEX
  8
0
  6
CONTINUOUS
 10
4.308040
 20
3.593480
  0
VERTEX
  8
0
  6
CONTINUOUS
 10
4.344120
 20
3.770800
  0
SEQEND
  8
0
  0
SOLID
  8
0
 62
    15
 10
4.308040
 20
3.593480
 11
4.939000
 21
3.232240
 12
4.306280
 22
3.415280
 13
4.937240
 23
3.054040
  0
POLYLINE
  8
0
  6
CONTINUOUS
 66
     1
 40
0.000000
 41
0.000000
  0
VERTEX
  8
0
  6
CONTINUOUS
 10
4.308040
 20
3.593480
  0
VERTEX
  8
0
  6
CONTINUOUS
 10
4.939000
 20
3.232240
  0
VERTEX
  8
0
  6
CONTINUOUS
 10
4.937240
 20
3.054040
  0
VERTEX
  8
0
  6
CONTINUOUS
 10
4.306280
 20
3.415280
  0
VERTEX
  8
0
  6
CONTINUOUS
 10
4.308040
 20
3.593480
  0
SEQEND
  8
0
  0
SOLID
  8
0
 62
    15
 10
4.306280
 20
3.415280
 11
4.937240
 21
3.054040
 12
4.303200
 22
3.411760
 13
4.934160
 23
3.050520
  0
POLYLINE
  8
0
  6
CONTINUOUS
 66
     1
 40
0.000000
 41
0.000000
  0
VERTEX
  8
0
  6
CONTINUOUS
 10
4.306280
 20
3.415280
  0
VERTEX
  8
0
  6
CONTINUOUS
 10
4.937240
 20
3.054040
  0
VERTEX
  8
0
  6
CONTINUOUS
 10
4.934160
 20
3.050520
  0
VERTEX
  8
0
  6
CONTINUOUS
 10
4.303200
 20
3.411760
  0
VERTEX
  8
0
  6
CONTINUOUS
 10
4.306280
 20
3.415280
  0
SEQEND
  8
0
  0
SOLID
  8
0
 62
    15
 10
5.207400
 20
5.073640
 11
5.838360
 21
4.712400
 12
5.207400
 22
4.453240
 13
5.838360
 23
4.092000
  0
POLYLINE
  8
0
  6
CONTINUOUS
 66
     1
 40
0.000000
 41
0.000000
  0
VERTEX
  8
0
  6
CONTINUOUS
 10
5.207400
 20
5.073640
  0
VERTEX
  8
0
  6
CONTINUOUS
 10
5.838360
 20
4.712400
  0
VERTEX
  8
0
  6
CONTINUOUS
 10
5.838360
 20
4.092000
  0
VERTEX
  8
0
  6
CONTINUOUS
 10
5.207400
 20
4.453240
  0
VERTEX
  8
0
  6
CONTINUOUS
 10
5.207400
 20
5.073640
  0
SEQEND
  8
0
  0
SOLID
  8
0
 62
    15
 10
3.997400
 20
3.409560
 11
4.627920
 21
3.048320
 12
3.995640
 22
3.407800
 13
4.626160
 23
3.046560
  0
POLYLINE
  8
0
  6
CONTINUOUS
 66
     1
 40
0.000000
 41
0.000000
  0
VERTEX
  8
0
  6
CONTINUOUS
 10
3.997400
 20
3.409560
  0
VERTEX
  8
0
  6
CONTINUOUS
 10
4.627920
 20
3.048320
  0
VERTEX
  8
0
  6
CONTINUOUS
 10
4.626160
 20
3.046560
  0
VERTEX
  8
0
  6
CONTINUOUS
 10
3.995640
 20
3.407800
  0
VERTEX
  8
0
  6
CONTINUOUS
 10
3.997400
 20
3.409560
  0
SEQEND
  8
0
  0
SOLID
  8
0
 62
    15
 10
3.995640
 20
3.407800
 11
4.626160
 21
3.046560
 12
3.989920
 22
3.279320
 13
4.620880
 23
2.918080
  0
POLYLINE
  8
0
  6
CONTINUOUS
 66
     1
 40
0.000000
 41
0.000000
  0
VERTEX
  8
0
  6
CONTINUOUS
 10
3.995640
 20
3.407800
  0
VERTEX
  8
0
  6
CONTINUOUS
 10
4.626160
 20
3.046560
  0
VERTEX
  8
0
  6
CONTINUOUS
 10
4.620880
 20
2.918080
  0
VERTEX
  8
0
  6
CONTINUOUS
 10
3.989920
 20
3.279320
  0
VERTEX
  8
0
  6
CONTINUOUS
 10
3.995640
 20
3.407800
  0
SEQEND
  8
0
  0
SOLID
  8
0
 62
    15
 10
3.989920
 20
3.279320
 11
4.620880
 21
2.918080
 12
3.949000
 22
3.159640
 13
4.579960
 23
2.798400
  0
POLYLINE
  8
0
  6
CONTINUOUS
 66
     1
 40
0.000000
 41
0.000000
  0
VERTEX
  8
0
  6
CONTINUOUS
 10
3.989920
 20
3.279320
  0
VERTEX
  8
0
  6
CONTINUOUS
 10
4.620880
 20
2.918080
  0
VERTEX
  8
0
  6
CONTINUOUS
 10
4.579960
 20
2.798400
  0
VERTEX
  8
0
  6
CONTINUOUS
 10
3.949000
 20
3.159640
  0
VERTEX
  8
0
  6
CONTINUOUS
 10
3.989920
 20
3.279320
  0
SEQEND
  8
0
  0
SOLID
  8
0
 62
    15
 10
3.949000
 20
3.159640
 11
4.579960
 21
2.798400
 12
3.880800
 22
3.052280
 13
4.511760
 23
2.691040
  0
POLYLINE
  8
0
  6
CONTINUOUS
 66
     1
 40
0.000000
 41
0.000000
  0
VERTEX
  8
0
  6
CONTINUOUS
 10
3.949000
 20
3.159640
  0
VERTEX
  8
0
  6
CONTINUOUS
 10
4.579960
 20
2.798400
  0
VERTEX
  8
0
  6
CONTINUOUS
 10
4.511760
 20
2.691040
  0
VERTEX
  8
0
  6
CONTINUOUS
 10
3.880800
 20
3.052280
  0
VERTEX
  8
0
  6
CONTINUOUS
 10
3.949000
 20
3.159640
  0
SEQEND
  8
0
  0
SOLID
  8
0
 62
    15
 10
3.880800
 20
3.052280
 11
4.511760
 21
2.691040
 12
3.793240
 22
2.960320
 13
4.424200
 23
2.599080
  0
POLYLINE
  8
0
  6
CONTINUOUS
 66
     1
 40
0.000000
 41
0.000000
  0
VERTEX
  8
0
  6
CONTINUOUS
 10
3.880800
 20
3.052280
  0
VERTEX
  8
0
  6
CONTINUOUS
 10
4.511760
 20
2.691040
  0
VERTEX
  8
0
  6
CONTINUOUS
 10
4.424200
 20
2.599080
  0
VERTEX
  8
0
  6
CONTINUOUS
 10
3.793240
 20
2.960320
  0
VERTEX
  8
0
  6
CONTINUOUS
 10
3.880800
 20
3.052280
  0
SEQEND
  8
0
  0
SOLID
  8
0
 62
    15
 10
3.793240
 20
2.960320
 11
4.424200
 21
2.599080
 12
3.694240
 22
2.887720
 13
4.325200
 23
2.526480
  0
POLYLINE
  8
0
  6
CONTINUOUS
 66
     1
 40
0.000000
 41
0.000000
  0
VERTEX
  8
0
  6
CONTINUOUS
 10
3.793240
 20
2.960320
  0
VERTEX
  8
0
  6
CONTINUOUS
 10
4.424200
 20
2.599080
  0
VERTEX
  8
0
  6
CONTINUOUS
 10
4.325200
 20
2.526480
  0
VERTEX
  8
0
  6
CONTINUOUS
 10
3.694240
 20
2.887720
  0
VERTEX
  8
0
  6
CONTINUOUS
 10
3.793240
 20
2.960320
  0
SEQEND
  8
0
  0
SOLID
  8
0
 62
    15
 10
3.694240
 20
2.887720
 11
4.325200
 21
2.526480
 12
3.592160
 22
2.838000
 13
4.223120
 23
2.476760
  0
POLYLINE
  8
0
  6
CONTINUOUS
 66
     1
 40
0.000000
 41
0.000000
  0
VERTEX
  8
0
  6
CONTINUOUS
 10
3.694240
 20
2.887720
  0
VERTEX
  8
0
  6
CONTINUOUS
 10
4.325200
 20
2.526480
  0
VERTEX
  8
0
  6
CONTINUOUS
 10
4.223120
 20
2.476760
  0
VERTEX
  8
0
  6
CONTINUOUS
 10
3.592160
 20
2.838000
  0
VERTEX
  8
0
  6
CONTINUOUS
 10
3.694240
 20
2.887720
  0
SEQEND
  8
0
  0
SOLID
  8
0
 62
    15
 10
3.592160
 20
2.838000
 11
4.223120
 21
2.476760
 12
3.494920
 22
2.814680
 13
4.125880
 23
2.453440
  0
POLYLINE
  8
0
  6
CONTINUOUS
 66
     1
 40
0.000000
 41
0.000000
  0
VERTEX
  8
0
  6
CONTINUOUS
 10
3.592160
 20
2.838000
  0
VERTEX
  8
0
  6
CONTINUOUS
 10
4.223120
 20
2.476760
  0
VERTEX
  8
0
  6
CONTINUOUS
 10
4.125880
 20
2.453440
  0
VERTEX
  8
0
  6
CONTINUOUS
 10
3.494920
 20
2.814680
  0
VERTEX
  8
0
  6
CONTINUOUS
 10
3.592160
 20
2.838000
  0
SEQEND
  8
0
  0
SOLID
  8
0
 62
    15
 10
3.494920
 20
2.814680
 11
4.125880
 21
2.453440
 12
3.410440
 22
2.821720
 13
4.041400
 23
2.460480
  0
POLYLINE
  8
0
  6
CONTINUOUS
 66
     1
 40
0.000000
 41
0.000000
  0
VERTEX
  8
0
  6
CONTINUOUS
 10
3.494920
 20
2.814680
  0
VERTEX
  8
0
  6
CONTINUOUS
 10
4.125880
 20
2.453440
  0
VERTEX
  8
0
  6
CONTINUOUS
 10
4.041400
 20
2.460480
  0
VERTEX
  8
0
  6
CONTINUOUS
 10
3.410440
 20
2.821720
  0
VERTEX
  8
0
  6
CONTINUOUS
 10
3.494920
 20
2.814680
  0
SEQEND
  8
0
  0
SOLID
  8
0
 62
    15
 10
3.410440
 20
2.821720
 11
4.041400
 21
2.460480
 12
3.406480
 22
2.819960
 13
4.037440
 23
2.458280
  0
POLYLINE
  8
0
  6
CONTINUOUS
 66
     1
 40
0.000000
 41
0.000000
  0
VERTEX
  8
0
  6
CONTINUOUS
 10
3.410440
 20
2.821720
  0
VERTEX
  8
0
  6
CONTINUOUS
 10
4.041400
 20
2.460480
  0
VERTEX
  8
0
  6
CONTINUOUS
 10
4.037440
 20
2.458280
  0
VERTEX
  8
0
  6
CONTINUOUS
 10
3.406480
 20
2.819960
  0
VERTEX
  8
0
  6
CONTINUOUS
 10
3.410440
 20
2.821720
  0
SEQEND
  8
0
  0
SOLID
  8
0
 62
    15
 10
3.406480
 20
2.819960
 11
4.037440
 21
2.458280
 12
3.408680
 22
2.422640
 13
4.039640
 23
2.061400
  0
POLYLINE
  8
0
  6
CONTINUOUS
 66
     1
 40
0.000000
 41
0.000000
  0
VERTEX
  8
0
  6
CONTINUOUS
 10
3.406480
 20
2.819960
  0
VERTEX
  8
0
  6
CONTINUOUS
 10
4.037440
 20
2.458280
  0
VERTEX
  8
0
  6
CONTINUOUS
 10
4.039640
 20
2.061400
  0
VERTEX
  8
0
  6
CONTINUOUS
 10
3.408680
 20
2.422640
  0
VERTEX
  8
0
  6
CONTINUOUS
 10
3.406480
 20
2.819960
  0
SEQEND
  8
0
  0
SOLID
  8
0
 62
    15
 10
3.408680
 20
2.422640
 11
4.039640
 21
2.061400
 12
2.855160
 22
2.419120
 13
3.486120
 23
2.057440
  0
POLYLINE
  8
0
  6
CONTINUOUS
 66
     1
 40
0.000000
 41
0.000000
  0
VERTEX
  8
0
  6
CONTINUOUS
 10
3.408680
 20
2.422640
  0
VERTEX
  8
0
  6
CONTINUOUS
 10
4.039640
 20
2.061400
  0
VERTEX
  8
0
  6
CONTINUOUS
 10
3.486120
 20
2.057440
  0
VERTEX
  8
0
  6
CONTINUOUS
 10
2.855160
 20
2.419120
  0
VERTEX
  8
0
  6
CONTINUOUS
 10
3.408680
 20
2.422640
  0
SEQEND
  8
0
  0
SOLID
  8
0
 62
    15
 10
2.855160
 20
2.419120
 11
3.486120
 21
2.057440
 12
2.854280
 22
2.414280
 13
3.485240
 23
2.053040
  0
POLYLINE
  8
0
  6
CONTINUOUS
 66
     1
 40
0.000000
 41
0.000000
  0
VERTEX
  8
0
  6
CONTINUOUS
 10
2.855160
 20
2.419120
  0
VERTEX
  8
0
  6
CONTINUOUS
 10
3.486120
 20
2.057440
  0
VERTEX
  8
0
  6
CONTINUOUS
 10
3.485240
 20
2.053040
  0
VERTEX
  8
0
  6
CONTINUOUS
 10
2.854280
 20
2.414280
  0
VERTEX
  8
0
  6
CONTINUOUS
 10
2.855160
 20
2.419120
  0
SEQEND
  8
0
  0
POLYLINE
  8
0
  6
CONTINUOUS
 66
     1
 40
0.000000
 41
0.000000
  0
VERTEX
  8
0
  6
CONTINUOUS
 10
2.854280
 20
2.414280
  0
VERTEX
  8
0
  6
CONTINUOUS
 10
2.841080
 20
3.085720
  0
VERTEX
  8
0
  6
CONTINUOUS
 10
4.787200
 20
5.080240
  0
VERTEX
  8
0
  6
CONTINUOUS
 10
5.204320
 20
5.076280
  0
VERTEX
  8
0
  6
CONTINUOUS
 10
5.207400
 20
5.073640
  0
VERTEX
  8
0
  6
CONTINUOUS
 10
5.207400
 20
4.453240
  0
VERTEX
  8
0
  6
CONTINUOUS
 10
5.096960
 20
4.440480
  0
VERTEX
  8
0
  6
CONTINUOUS
 10
4.993120
 20
4.417160
  0
VERTEX
  8
0
  6
CONTINUOUS
 10
4.895440
 20
4.384160
  0
VERTEX
  8
0
  6
CONTINUOUS
 10
4.805240
 20
4.341480
  0
VERTEX
  8
0
  6
CONTINUOUS
 10
4.645080
 20
4.232800
  0
VERTEX
  8
0
  6
CONTINUOUS
 10
4.513960
 20
4.096840
  0
VERTEX
  8
0
  6
CONTINUOUS
 10
4.413200
 20
3.940640
  0
VERTEX
  8
0
  6
CONTINUOUS
 10
4.344120
 20
3.770800
  0
VERTEX
  8
0
  6
CONTINUOUS
 10
4.308040
 20
3.593480
  0
VERTEX
  8
0
  6
CONTINUOUS
 10
4.306280
 20
3.415280
  0
VERTEX
  8
0
  6
CONTINUOUS
 10
4.303200
 20
3.411760
  0
VERTEX
  8
0
  6
CONTINUOUS
 10
3.997400
 20
3.409560
  0
VERTEX
  8
0
  6
CONTINUOUS
 10
3.995640
 20
3.407800
  0
VERTEX
  8
0
  6
CONTINUOUS
 10
3.989920
 20
3.279320
  0
VERTEX
  8
0
  6
CONTINUOUS
 10
3.949000
 20
3.159640
  0
VERTEX
  8
0
  6
CONTINUOUS
 10
3.880800
 20
3.052280
  0
VERTEX
  8
0
  6
CONTINUOUS
 10
3.793240
 20
2.960320
  0
VERTEX
  8
0
  6
CONTINUOUS
 10
3.694240
 20
2.887720
  0
VERTEX
  8
0
  6
CONTINUOUS
 10
3.592160
 20
2.838000
  0
VERTEX
  8
0
  6
CONTINUOUS
 10
3.494920
 20
2.814680
  0
VERTEX
  8
0
  6
CONTINUOUS
 10
3.410440
 20
2.821720
  0
VERTEX
  8
0
  6
CONTINUOUS
 10
3.406480
 20
2.819960
  0
VERTEX
  8
0
  6
CONTINUOUS
 10
3.408680
 20
2.422640
  0
VERTEX
  8
0
  6
CONTINUOUS
 10
2.855160
 20
2.419120
  0
VERTEX
  8
0
  6
CONTINUOUS
 10
2.854280
 20
2.414280
  0
SEQEND
  8
0
  0
TEXT
  8
0
 10
4.676760
 20
2.248840
 40
0.138088
  1
BA  131
 41
1.000000
  7
SN0
 71
     0
 72
     5
 11
5.266681
 21
2.248840
  0
TEXT
  8
0
 10
4.521000
 20
2.057000
 40
0.138088
  1
7/8" x 3-1/2"
 41
1.000000
  7
SN0
 71
     0
 72
     5
 11
5.420752
 21
2.057000
  0
ENDSEC
  0
EOF
