  0
SECTION
  2
HEADER
  9
$ACADVER
  1
AC1006
  9
$EXTMIN
 10
1.448480
 20
0.499400
  9
$EXTMAX
 10
6.823960
 20
5.775880
  9
$LTSCALE
 40
0.044000
  9
$PDMODE
 70
    35
  9
$PDSIZE
 40
0.035200
  0
ENDSEC
  0
SECTION
  2
TABLES
  0
TABLE
  2
LTYPE
 70
     9
  0
LTYPE
  2
CONTINUOUS
 70
    64
  3
Solid line
 72
    65
 73
     0
 40
0.000000
  0
LTYPE
  2
DASHED
 70
    64
  3
__ __ __ __ __ __ __ __ __ __ __ __ __ __ __
 72
    65
 73
     2
 40
0.000330
 49
0.000220
 49
-0.000110
  0
LTYPE
  2
HIDDEN
 70
    64
  3
 _ _ _ _ _ _ _ _ _ _ _ _ _ _ _ _ _ _ _ _ _ _
 72
    65
 73
     2
 40
0.000165
 49
0.000110
 49
-0.000055
  0
LTYPE
  2
CENTER
 70
    64
  3
____ _ ____ _ ____ _ ____ _ ____ _ ____ _ ____
 72
    65
 73
     4
 40
0.000880
 49
0.000550
 49
-0.000110
 49
0.000110
 49
-0.000110
  0
LTYPE
  2
PHANTOM
 70
    64
  3
_____ _ _ _____ _ _ _____ _ _ _____ _ _ ____
 72
    65
 73
     6
 40
0.001100
 49
0.000550
 49
-0.000110
 49
0.000110
 49
-0.000110
 49
0.000110
 49
-0.000110
  0
LTYPE
  2
DOT
 70
    64
  3
...............................................
 72
    65
 73
     2
 40
0.000110
 49
0.000000
 49
-0.000110
  0
LTYPE
  2
DASHDOT
 70
    64
  3
__ . __ . __ . __ . __ . __ . __ . __ . __ . __
 72
    65
 73
     4
 40
0.000440
 49
0.000220
 49
-0.000110
 49
0.000000
 49
-0.000110
  0
LTYPE
  2
BORDER
 70
    64
  3
__ __ . __ __ . __ __ . __ __ . __ __ . __ __
 72
    65
 73
     6
 40
0.000770
 49
0.000220
 49
-0.000110
 49
0.000220
 49
-0.000110
 49
0.000000
 49
-0.000110
  0
LTYPE
  2
DIVIDE
 70
    64
  3
__ . . __ . . __ . . __ . . __ . . __ . . __
 72
    65
 73
     6
 40
0.000550
 49
0.000220
 49
-0.000110
 49
0.000000
 49
-0.000110
 49
0.000000
 49
-0.000110
  0
LTYPE
  2
DOTDOT
 70
    64
  3
 . .  . .  . .  . .  . .  . . 
 72
    65
 73
     5
 40
0.000242
 49
-0.000110
 49
0.000000
 49
-0.000110
 49
0.000000
 49
-0.000110
  0
ENDTAB
  0
TABLE
  2
STYLE
 70
     2
  0
STYLE
 70
     0
  2
SN0
 40
0.000000
 41
0.000440
 50
0.000000
 71
     0
 42
0.000000
  3
ROMAND
  0
STYLE
 70
    68
  2
SV0
 40
0.000000
 41
0.000440
 50
0.000000
 71
     0
 42
0.000000
  3
ROMAND
  0
ENDTAB
  0
TABLE
  2
LAYER
 70
     3
  0
LAYER
  2
FOREGROUND
 70
    64
 62
     7
  6
CONTINUOUS
  0
LAYER
  2
BACKGROUND
 70
    65
 62
    -7
  6
CONTINUOUS
  0
LAYER
  2
0
 70
    64
 62
     7
  6
CONTINUOUS
  0
ENDTAB
  0
ENDSEC
  0
SECTION
  2
ENTITIES
  0
POLYLINE
  8
FOREGROUND
  6
CONTINUOUS
 66
     1
 40
0.000000
 41
0.000000
  0
VERTEX
  8
FOREGROUND
  6
CONTINUOUS
 10
0.000000
 20
6.275280
  0
VERTEX
  8
FOREGROUND
  6
CONTINUOUS
 10
8.499920
 20
6.275280
  0
VERTEX
  8
FOREGROUND
  6
CONTINUOUS
 10
8.499920
 20
-4.724720
  0
VERTEX
  8
FOREGROUND
  6
CONTINUOUS
 10
0.000000
 20
-4.724720
  0
VERTEX
  8
FOREGROUND
  6
CONTINUOUS
 10
0.000000
 20
6.275280
  0
SEQEND
  8
0
  0
POLYLINE
  8
FOREGROUND
  6
CONTINUOUS
 66
     1
 40
0.000000
 41
0.000000
  0
VERTEX
  8
FOREGROUND
  6
CONTINUOUS
 10
0.000000
 20
6.275280
  0
VERTEX
  8
FOREGROUND
  6
CONTINUOUS
 10
8.499920
 20
6.275280
  0
VERTEX
  8
FOREGROUND
  6
CONTINUOUS
 10
8.499920
 20
-4.724720
  0
VERTEX
  8
FOREGROUND
  6
CONTINUOUS
 10
0.000000
 20
-4.724720
  0
VERTEX
  8
FOREGROUND
  6
CONTINUOUS
 10
0.000000
 20
6.275280
  0
SEQEND
  8
0
  0
POLYLINE
  8
0
  6
CONTINUOUS
 66
     1
 40
0.014080
 41
0.014080
  0
VERTEX
  8
0
  6
CONTINUOUS
 10
2.187680
 20
5.633760
  0
VERTEX
  8
0
  6
CONTINUOUS
 10
2.187680
 20
5.768400
  0
VERTEX
  8
0
  6
CONTINUOUS
 10
3.310560
 20
5.768400
  0
VERTEX
  8
0
  6
CONTINUOUS
 10
3.310560
 20
5.107080
  0
VERTEX
  8
0
  6
CONTINUOUS
 10
3.080000
 20
5.107080
  0
VERTEX
  8
0
  6
CONTINUOUS
 10
3.080000
 20
3.943280
  0
VERTEX
  8
0
  6
CONTINUOUS
 10
1.456400
 20
3.943280
  0
VERTEX
  8
0
  6
CONTINUOUS
 10
1.456400
 20
5.184520
  0
VERTEX
  8
0
  6
CONTINUOUS
 10
1.574760
 20
5.184520
  0
VERTEX
  8
0
  6
CONTINUOUS
 10
1.574760
 20
5.185840
  0
VERTEX
  8
0
  6
CONTINUOUS
 10
1.573880
 20
5.204760
  0
VERTEX
  8
0
  6
CONTINUOUS
 10
1.573440
 20
5.223240
  0
VERTEX
  8
0
  6
CONTINUOUS
 10
1.573440
 20
5.241280
  0
VERTEX
  8
0
  6
CONTINUOUS
 10
1.573880
 20
5.258880
  0
VERTEX
  8
0
  6
CONTINUOUS
 10
1.574760
 20
5.275600
  0
VERTEX
  8
0
  6
CONTINUOUS
 10
1.576520
 20
5.292320
  0
VERTEX
  8
0
  6
CONTINUOUS
 10
1.578720
 20
5.308600
  0
VERTEX
  8
0
  6
CONTINUOUS
 10
1.580920
 20
5.324000
  0
VERTEX
  8
0
  6
CONTINUOUS
 10
1.587520
 20
5.354360
  0
VERTEX
  8
0
  6
CONTINUOUS
 10
1.595880
 20
5.382520
  0
VERTEX
  8
0
  6
CONTINUOUS
 10
1.605560
 20
5.408920
  0
VERTEX
  8
0
  6
CONTINUOUS
 10
1.617440
 20
5.434000
  0
VERTEX
  8
0
  6
CONTINUOUS
 10
1.630640
 20
5.456880
  0
VERTEX
  8
0
  6
CONTINUOUS
 10
1.645160
 20
5.478880
  0
VERTEX
  8
0
  6
CONTINUOUS
 10
1.661440
 20
5.498680
  0
VERTEX
  8
0
  6
CONTINUOUS
 10
1.678600
 20
5.517600
  0
VERTEX
  8
0
  6
CONTINUOUS
 10
1.697520
 20
5.534760
  0
VERTEX
  8
0
  6
CONTINUOUS
 10
1.717320
 20
5.550160
  0
VERTEX
  8
0
  6
CONTINUOUS
 10
1.738000
 20
5.564680
  0
VERTEX
  8
0
  6
CONTINUOUS
 10
1.760000
 20
5.577440
  0
VERTEX
  8
0
  6
CONTINUOUS
 10
1.782880
 20
5.589320
  0
VERTEX
  8
0
  6
CONTINUOUS
 10
1.806640
 20
5.599440
  0
VERTEX
  8
0
  6
CONTINUOUS
 10
1.831280
 20
5.608680
  0
VERTEX
  8
0
  6
CONTINUOUS
 10
1.856360
 20
5.616600
  0
VERTEX
  8
0
  6
CONTINUOUS
 10
1.882320
 20
5.623640
  0
VERTEX
  8
0
  6
CONTINUOUS
 10
1.908720
 20
5.629360
  0
VERTEX
  8
0
  6
CONTINUOUS
 10
1.935560
 20
5.633760
  0
VERTEX
  8
0
  6
CONTINUOUS
 10
1.962840
 20
5.637280
  0
VERTEX
  8
0
  6
CONTINUOUS
 10
1.990120
 20
5.639920
  0
VERTEX
  8
0
  6
CONTINUOUS
 10
2.017840
 20
5.641680
  0
VERTEX
  8
0
  6
CONTINUOUS
 10
2.046000
 20
5.642560
  0
VERTEX
  8
0
  6
CONTINUOUS
 10
2.073720
 20
5.642120
  0
VERTEX
  8
0
  6
CONTINUOUS
 10
2.101880
 20
5.641240
  0
VERTEX
  8
0
  6
CONTINUOUS
 10
2.129600
 20
5.639480
  0
VERTEX
  8
0
  6
CONTINUOUS
 10
2.157760
 20
5.636840
  0
VERTEX
  8
0
  6
CONTINUOUS
 10
2.185040
 20
5.633760
  0
VERTEX
  8
0
  6
CONTINUOUS
 10
2.187680
 20
5.633760
  0
SEQEND
  8
0
  0
POLYLINE
  8
0
  6
CONTINUOUS
 66
     1
 40
0.014080
 41
0.014080
  0
VERTEX
  8
0
  6
CONTINUOUS
 10
3.933160
 20
5.080240
  0
VERTEX
  8
0
  6
CONTINUOUS
 10
3.950760
 20
5.165160
  0
VERTEX
  8
0
  6
CONTINUOUS
 10
3.972320
 20
5.243040
  0
VERTEX
  8
0
  6
CONTINUOUS
 10
3.996960
 20
5.314320
  0
VERTEX
  8
0
  6
CONTINUOUS
 10
4.025120
 20
5.378120
  0
VERTEX
  8
0
  6
CONTINUOUS
 10
4.040080
 20
5.408040
  0
VERTEX
  8
0
  6
CONTINUOUS
 10
4.072200
 20
5.462160
  0
VERTEX
  8
0
  6
CONTINUOUS
 10
4.106960
 20
5.509680
  0
VERTEX
  8
0
  6
CONTINUOUS
 10
4.143920
 20
5.551480
  0
VERTEX
  8
0
  6
CONTINUOUS
 10
4.183080
 20
5.587120
  0
VERTEX
  8
0
  6
CONTINUOUS
 10
4.223560
 20
5.616600
  0
VERTEX
  8
0
  6
CONTINUOUS
 10
4.265800
 20
5.640360
  0
VERTEX
  8
0
  6
CONTINUOUS
 10
4.308920
 20
5.658840
  0
VERTEX
  8
0
  6
CONTINUOUS
 10
4.352920
 20
5.672040
  0
VERTEX
  8
0
  6
CONTINUOUS
 10
4.397800
 20
5.679960
  0
VERTEX
  8
0
  6
CONTINUOUS
 10
4.443120
 20
5.682600
  0
VERTEX
  8
0
  6
CONTINUOUS
 10
4.488440
 20
5.680400
  0
VERTEX
  8
0
  6
CONTINUOUS
 10
4.533320
 20
5.673800
  0
VERTEX
  8
0
  6
CONTINUOUS
 10
4.578200
 20
5.662360
  0
VERTEX
  8
0
  6
CONTINUOUS
 10
4.622200
 20
5.646960
  0
VERTEX
  8
0
  6
CONTINUOUS
 10
4.665320
 20
5.627160
  0
VERTEX
  8
0
  6
CONTINUOUS
 10
4.707120
 20
5.603400
  0
VERTEX
  8
0
  6
CONTINUOUS
 10
4.747600
 20
5.575680
  0
VERTEX
  8
0
  6
CONTINUOUS
 10
4.786320
 20
5.544440
  0
VERTEX
  8
0
  6
CONTINUOUS
 10
4.840440
 20
5.491200
  0
VERTEX
  8
0
  6
CONTINUOUS
 10
4.889280
 20
5.430480
  0
VERTEX
  8
0
  6
CONTINUOUS
 10
4.931520
 20
5.363160
  0
VERTEX
  8
0
  6
CONTINUOUS
 10
4.955720
 20
5.314760
  0
VERTEX
  8
0
  6
CONTINUOUS
 10
4.976400
 20
5.263720
  0
VERTEX
  8
0
  6
CONTINUOUS
 10
4.993560
 20
5.210480
  0
VERTEX
  8
0
  6
CONTINUOUS
 10
5.006760
 20
5.155040
  0
VERTEX
  8
0
  6
CONTINUOUS
 10
5.020840
 20
5.062200
  0
VERTEX
  8
0
  6
CONTINUOUS
 10
5.027880
 20
5.027000
  0
VERTEX
  8
0
  6
CONTINUOUS
 10
5.048120
 20
4.956160
  0
VERTEX
  8
0
  6
CONTINUOUS
 10
5.060880
 20
4.920960
  0
VERTEX
  8
0
  6
CONTINUOUS
 10
5.075840
 20
4.885320
  0
VERTEX
  8
0
  6
CONTINUOUS
 10
5.092560
 20
4.850120
  0
VERTEX
  8
0
  6
CONTINUOUS
 10
5.132160
 20
4.780600
  0
VERTEX
  8
0
  6
CONTINUOUS
 10
5.154600
 20
4.746280
  0
VERTEX
  8
0
  6
CONTINUOUS
 10
5.179240
 20
4.712400
  0
VERTEX
  8
0
  6
CONTINUOUS
 10
5.233800
 20
4.646400
  0
VERTEX
  8
0
  6
CONTINUOUS
 10
5.296280
 20
4.583480
  0
VERTEX
  8
0
  6
CONTINUOUS
 10
5.366680
 20
4.523640
  0
VERTEX
  8
0
  6
CONTINUOUS
 10
5.404520
 20
4.495040
  0
VERTEX
  8
0
  6
CONTINUOUS
 10
5.486360
 20
4.441360
  0
VERTEX
  8
0
  6
CONTINUOUS
 10
5.530360
 20
4.416280
  0
VERTEX
  8
0
  6
CONTINUOUS
 10
5.576120
 20
4.392520
  0
VERTEX
  8
0
  6
CONTINUOUS
 10
5.623640
 20
4.370080
  0
VERTEX
  8
0
  6
CONTINUOUS
 10
5.673360
 20
4.348960
  0
VERTEX
  8
0
  6
CONTINUOUS
 10
5.751240
 20
4.320800
  0
VERTEX
  8
0
  6
CONTINUOUS
 10
5.833520
 20
4.295720
  0
VERTEX
  8
0
  6
CONTINUOUS
 10
5.920200
 20
4.274600
  0
VERTEX
  8
0
  6
CONTINUOUS
 10
6.011280
 20
4.257880
  0
VERTEX
  8
0
  6
CONTINUOUS
 10
6.106760
 20
4.245560
  0
VERTEX
  8
0
  6
CONTINUOUS
 10
6.139320
 20
4.242480
  0
VERTEX
  8
0
  6
CONTINUOUS
 10
6.139320
 20
4.245120
  0
VERTEX
  8
0
  6
CONTINUOUS
 10
6.154280
 20
4.293080
  0
VERTEX
  8
0
  6
CONTINUOUS
 10
6.181120
 20
4.356000
  0
VERTEX
  8
0
  6
CONTINUOUS
 10
6.201360
 20
4.392520
  0
VERTEX
  8
0
  6
CONTINUOUS
 10
6.234800
 20
4.439160
  0
VERTEX
  8
0
  6
CONTINUOUS
 10
6.259000
 20
4.465120
  0
VERTEX
  8
0
  6
CONTINUOUS
 10
6.284520
 20
4.487560
  0
VERTEX
  8
0
  6
CONTINUOUS
 10
6.310920
 20
4.505600
  0
VERTEX
  8
0
  6
CONTINUOUS
 10
6.338200
 20
4.520560
  0
VERTEX
  8
0
  6
CONTINUOUS
 10
6.366360
 20
4.532000
  0
VERTEX
  8
0
  6
CONTINUOUS
 10
6.395400
 20
4.540360
  0
VERTEX
  8
0
  6
CONTINUOUS
 10
6.438960
 20
4.546520
  0
VERTEX
  8
0
  6
CONTINUOUS
 10
6.468440
 20
4.547400
  0
VERTEX
  8
0
  6
CONTINUOUS
 10
6.512000
 20
4.543440
  0
VERTEX
  8
0
  6
CONTINUOUS
 10
6.541040
 20
4.537280
  0
VERTEX
  8
0
  6
CONTINUOUS
 10
6.569640
 20
4.528920
  0
VERTEX
  8
0
  6
CONTINUOUS
 10
6.597360
 20
4.518360
  0
VERTEX
  8
0
  6
CONTINUOUS
 10
6.624200
 20
4.506040
  0
VERTEX
  8
0
  6
CONTINUOUS
 10
6.650160
 20
4.491520
  0
VERTEX
  8
0
  6
CONTINUOUS
 10
6.674800
 20
4.475240
  0
VERTEX
  8
0
  6
CONTINUOUS
 10
6.698120
 20
4.457640
  0
VERTEX
  8
0
  6
CONTINUOUS
 10
6.719680
 20
4.438280
  0
VERTEX
  8
0
  6
CONTINUOUS
 10
6.757960
 20
4.396040
  0
VERTEX
  8
0
  6
CONTINUOUS
 10
6.780840
 20
4.361720
  0
VERTEX
  8
0
  6
CONTINUOUS
 10
6.798880
 20
4.325640
  0
VERTEX
  8
0
  6
CONTINUOUS
 10
6.811200
 20
4.288680
  0
VERTEX
  8
0
  6
CONTINUOUS
 10
6.815600
 20
4.263160
  0
VERTEX
  8
0
  6
CONTINUOUS
 10
6.816920
 20
4.238080
  0
VERTEX
  8
0
  6
CONTINUOUS
 10
6.816480
 20
3.941080
  0
VERTEX
  8
0
  6
CONTINUOUS
 10
3.337400
 20
3.941080
  0
VERTEX
  8
0
  6
CONTINUOUS
 10
3.337400
 20
5.075840
  0
VERTEX
  8
0
  6
CONTINUOUS
 10
3.917320
 20
5.075840
  0
VERTEX
  8
0
  6
CONTINUOUS
 10
3.933160
 20
5.080240
  0
SEQEND
  8
0
  0
SOLID
  8
0
 62
    15
 10
5.314320
 20
1.526360
 11
5.308600
 21
2.267320
 12
5.232480
 22
1.580040
 13
5.226760
 23
2.321000
  0
POLYLINE
  8
0
  6
CONTINUOUS
 66
     1
 40
0.000000
 41
0.000000
  0
VERTEX
  8
0
  6
CONTINUOUS
 10
5.314320
 20
1.526360
  0
VERTEX
  8
0
  6
CONTINUOUS
 10
5.308600
 20
2.267320
  0
VERTEX
  8
0
  6
CONTINUOUS
 10
5.226760
 20
2.321000
  0
VERTEX
  8
0
  6
CONTINUOUS
 10
5.232480
 20
1.580040
  0
VERTEX
  8
0
  6
CONTINUOUS
 10
5.314320
 20
1.526360
  0
SEQEND
  8
0
  0
SOLID
  8
0
 62
    15
 10
3.165360
 20
2.160840
 11
3.159200
 21
2.901800
 12
3.165360
 22
1.026080
 13
3.159200
 23
1.767040
  0
POLYLINE
  8
0
  6
CONTINUOUS
 66
     1
 40
0.000000
 41
0.000000
  0
VERTEX
  8
0
  6
CONTINUOUS
 10
3.165360
 20
2.160840
  0
VERTEX
  8
0
  6
CONTINUOUS
 10
3.159200
 20
2.901800
  0
VERTEX
  8
0
  6
CONTINUOUS
 10
3.159200
 20
1.767040
  0
VERTEX
  8
0
  6
CONTINUOUS
 10
3.165360
 20
1.026080
  0
VERTEX
  8
0
  6
CONTINUOUS
 10
3.165360
 20
2.160840
  0
SEQEND
  8
0
  0
SOLID
  8
0
 62
    15
 10
6.644440
 20
1.310320
 11
6.638280
 21
2.051280
 12
6.641360
 22
1.360920
 13
6.635640
 23
2.101880
  0
POLYLINE
  8
0
  6
CONTINUOUS
 66
     1
 40
0.000000
 41
0.000000
  0
VERTEX
  8
0
  6
CONTINUOUS
 10
6.644440
 20
1.310320
  0
VERTEX
  8
0
  6
CONTINUOUS
 10
6.638280
 20
2.051280
  0
VERTEX
  8
0
  6
CONTINUOUS
 10
6.635640
 20
2.101880
  0
VERTEX
  8
0
  6
CONTINUOUS
 10
6.641360
 20
1.360920
  0
VERTEX
  8
0
  6
CONTINUOUS
 10
6.644440
 20
1.310320
  0
SEQEND
  8
0
  0
SOLID
  8
0
 62
    15
 10
6.641360
 20
1.360920
 11
6.635640
 21
2.101880
 12
6.626840
 22
1.410640
 13
6.621120
 23
2.151600
  0
POLYLINE
  8
0
  6
CONTINUOUS
 66
     1
 40
0.000000
 41
0.000000
  0
VERTEX
  8
0
  6
CONTINUOUS
 10
6.641360
 20
1.360920
  0
VERTEX
  8
0
  6
CONTINUOUS
 10
6.635640
 20
2.101880
  0
VERTEX
  8
0
  6
CONTINUOUS
 10
6.621120
 20
2.151600
  0
VERTEX
  8
0
  6
CONTINUOUS
 10
6.626840
 20
1.410640
  0
VERTEX
  8
0
  6
CONTINUOUS
 10
6.641360
 20
1.360920
  0
SEQEND
  8
0
  0
SOLID
  8
0
 62
    15
 10
6.626840
 20
1.410640
 11
6.621120
 21
2.151600
 12
6.601760
 22
1.458600
 13
6.595600
 23
2.199560
  0
POLYLINE
  8
0
  6
CONTINUOUS
 66
     1
 40
0.000000
 41
0.000000
  0
VERTEX
  8
0
  6
CONTINUOUS
 10
6.626840
 20
1.410640
  0
VERTEX
  8
0
  6
CONTINUOUS
 10
6.621120
 20
2.151600
  0
VERTEX
  8
0
  6
CONTINUOUS
 10
6.595600
 20
2.199560
  0
VERTEX
  8
0
  6
CONTINUOUS
 10
6.601760
 20
1.458600
  0
VERTEX
  8
0
  6
CONTINUOUS
 10
6.626840
 20
1.410640
  0
SEQEND
  8
0
  0
SOLID
  8
0
 62
    15
 10
6.601760
 20
1.458600
 11
6.595600
 21
2.199560
 12
6.567440
 22
1.502600
 13
6.561720
 23
2.243560
  0
POLYLINE
  8
0
  6
CONTINUOUS
 66
     1
 40
0.000000
 41
0.000000
  0
VERTEX
  8
0
  6
CONTINUOUS
 10
6.601760
 20
1.458600
  0
VERTEX
  8
0
  6
CONTINUOUS
 10
6.595600
 20
2.199560
  0
VERTEX
  8
0
  6
CONTINUOUS
 10
6.561720
 20
2.243560
  0
VERTEX
  8
0
  6
CONTINUOUS
 10
6.567440
 20
1.502600
  0
VERTEX
  8
0
  6
CONTINUOUS
 10
6.601760
 20
1.458600
  0
SEQEND
  8
0
  0
SOLID
  8
0
 62
    15
 10
6.567440
 20
1.502600
 11
6.561720
 21
2.243560
 12
6.525640
 22
1.542640
 13
6.519920
 23
2.283600
  0
POLYLINE
  8
0
  6
CONTINUOUS
 66
     1
 40
0.000000
 41
0.000000
  0
VERTEX
  8
0
  6
CONTINUOUS
 10
6.567440
 20
1.502600
  0
VERTEX
  8
0
  6
CONTINUOUS
 10
6.561720
 20
2.243560
  0
VERTEX
  8
0
  6
CONTINUOUS
 10
6.519920
 20
2.283600
  0
VERTEX
  8
0
  6
CONTINUOUS
 10
6.525640
 20
1.542640
  0
VERTEX
  8
0
  6
CONTINUOUS
 10
6.567440
 20
1.502600
  0
SEQEND
  8
0
  0
SOLID
  8
0
 62
    15
 10
6.525640
 20
1.542640
 11
6.519920
 21
2.283600
 12
6.477680
 22
1.576520
 13
6.471960
 23
2.317480
  0
POLYLINE
  8
0
  6
CONTINUOUS
 66
     1
 40
0.000000
 41
0.000000
  0
VERTEX
  8
0
  6
CONTINUOUS
 10
6.525640
 20
1.542640
  0
VERTEX
  8
0
  6
CONTINUOUS
 10
6.519920
 20
2.283600
  0
VERTEX
  8
0
  6
CONTINUOUS
 10
6.471960
 20
2.317480
  0
VERTEX
  8
0
  6
CONTINUOUS
 10
6.477680
 20
1.576520
  0
VERTEX
  8
0
  6
CONTINUOUS
 10
6.525640
 20
1.542640
  0
SEQEND
  8
0
  0
SOLID
  8
0
 62
    15
 10
6.477680
 20
1.576520
 11
6.471960
 21
2.317480
 12
6.424880
 22
1.603360
 13
6.419160
 23
2.344320
  0
POLYLINE
  8
0
  6
CONTINUOUS
 66
     1
 40
0.000000
 41
0.000000
  0
VERTEX
  8
0
  6
CONTINUOUS
 10
6.477680
 20
1.576520
  0
VERTEX
  8
0
  6
CONTINUOUS
 10
6.471960
 20
2.317480
  0
VERTEX
  8
0
  6
CONTINUOUS
 10
6.419160
 20
2.344320
  0
VERTEX
  8
0
  6
CONTINUOUS
 10
6.424880
 20
1.603360
  0
VERTEX
  8
0
  6
CONTINUOUS
 10
6.477680
 20
1.576520
  0
SEQEND
  8
0
  0
SOLID
  8
0
 62
    15
 10
6.424880
 20
1.603360
 11
6.419160
 21
2.344320
 12
6.368560
 22
1.622280
 13
6.362840
 23
2.363240
  0
POLYLINE
  8
0
  6
CONTINUOUS
 66
     1
 40
0.000000
 41
0.000000
  0
VERTEX
  8
0
  6
CONTINUOUS
 10
6.424880
 20
1.603360
  0
VERTEX
  8
0
  6
CONTINUOUS
 10
6.419160
 20
2.344320
  0
VERTEX
  8
0
  6
CONTINUOUS
 10
6.362840
 20
2.363240
  0
VERTEX
  8
0
  6
CONTINUOUS
 10
6.368560
 20
1.622280
  0
VERTEX
  8
0
  6
CONTINUOUS
 10
6.424880
 20
1.603360
  0
SEQEND
  8
0
  0
SOLID
  8
0
 62
    15
 10
6.368560
 20
1.622280
 11
6.362840
 21
2.363240
 12
6.310920
 22
1.631520
 13
6.304760
 23
2.372480
  0
POLYLINE
  8
0
  6
CONTINUOUS
 66
     1
 40
0.000000
 41
0.000000
  0
VERTEX
  8
0
  6
CONTINUOUS
 10
6.368560
 20
1.622280
  0
VERTEX
  8
0
  6
CONTINUOUS
 10
6.362840
 20
2.363240
  0
VERTEX
  8
0
  6
CONTINUOUS
 10
6.304760
 20
2.372480
  0
VERTEX
  8
0
  6
CONTINUOUS
 10
6.310920
 20
1.631520
  0
VERTEX
  8
0
  6
CONTINUOUS
 10
6.368560
 20
1.622280
  0
SEQEND
  8
0
  0
SOLID
  8
0
 62
    15
 10
6.310920
 20
1.631520
 11
6.304760
 21
2.372480
 12
6.251960
 22
1.630200
 13
6.246240
 23
2.371160
  0
POLYLINE
  8
0
  6
CONTINUOUS
 66
     1
 40
0.000000
 41
0.000000
  0
VERTEX
  8
0
  6
CONTINUOUS
 10
6.310920
 20
1.631520
  0
VERTEX
  8
0
  6
CONTINUOUS
 10
6.304760
 20
2.372480
  0
VERTEX
  8
0
  6
CONTINUOUS
 10
6.246240
 20
2.371160
  0
VERTEX
  8
0
  6
CONTINUOUS
 10
6.251960
 20
1.630200
  0
VERTEX
  8
0
  6
CONTINUOUS
 10
6.310920
 20
1.631520
  0
SEQEND
  8
0
  0
SOLID
  8
0
 62
    15
 10
6.251960
 20
1.630200
 11
6.246240
 21
2.371160
 12
6.194320
 22
1.617000
 13
6.188160
 23
2.357960
  0
POLYLINE
  8
0
  6
CONTINUOUS
 66
     1
 40
0.000000
 41
0.000000
  0
VERTEX
  8
0
  6
CONTINUOUS
 10
6.251960
 20
1.630200
  0
VERTEX
  8
0
  6
CONTINUOUS
 10
6.246240
 20
2.371160
  0
VERTEX
  8
0
  6
CONTINUOUS
 10
6.188160
 20
2.357960
  0
VERTEX
  8
0
  6
CONTINUOUS
 10
6.194320
 20
1.617000
  0
VERTEX
  8
0
  6
CONTINUOUS
 10
6.251960
 20
1.630200
  0
SEQEND
  8
0
  0
SOLID
  8
0
 62
    15
 10
6.194320
 20
1.617000
 11
6.188160
 21
2.357960
 12
6.138880
 22
1.590600
 13
6.132720
 23
2.331560
  0
POLYLINE
  8
0
  6
CONTINUOUS
 66
     1
 40
0.000000
 41
0.000000
  0
VERTEX
  8
0
  6
CONTINUOUS
 10
6.194320
 20
1.617000
  0
VERTEX
  8
0
  6
CONTINUOUS
 10
6.188160
 20
2.357960
  0
VERTEX
  8
0
  6
CONTINUOUS
 10
6.132720
 20
2.331560
  0
VERTEX
  8
0
  6
CONTINUOUS
 10
6.138880
 20
1.590600
  0
VERTEX
  8
0
  6
CONTINUOUS
 10
6.194320
 20
1.617000
  0
SEQEND
  8
0
  0
SOLID
  8
0
 62
    15
 10
6.138880
 20
1.590600
 11
6.132720
 21
2.331560
 12
6.086960
 22
1.550120
 13
6.080800
 23
2.291080
  0
POLYLINE
  8
0
  6
CONTINUOUS
 66
     1
 40
0.000000
 41
0.000000
  0
VERTEX
  8
0
  6
CONTINUOUS
 10
6.138880
 20
1.590600
  0
VERTEX
  8
0
  6
CONTINUOUS
 10
6.132720
 20
2.331560
  0
VERTEX
  8
0
  6
CONTINUOUS
 10
6.080800
 20
2.291080
  0
VERTEX
  8
0
  6
CONTINUOUS
 10
6.086960
 20
1.550120
  0
VERTEX
  8
0
  6
CONTINUOUS
 10
6.138880
 20
1.590600
  0
SEQEND
  8
0
  0
SOLID
  8
0
 62
    15
 10
6.086960
 20
1.550120
 11
6.080800
 21
2.291080
 12
6.039880
 22
1.493800
 13
6.034160
 23
2.234760
  0
POLYLINE
  8
0
  6
CONTINUOUS
 66
     1
 40
0.000000
 41
0.000000
  0
VERTEX
  8
0
  6
CONTINUOUS
 10
6.086960
 20
1.550120
  0
VERTEX
  8
0
  6
CONTINUOUS
 10
6.080800
 20
2.291080
  0
VERTEX
  8
0
  6
CONTINUOUS
 10
6.034160
 20
2.234760
  0
VERTEX
  8
0
  6
CONTINUOUS
 10
6.039880
 20
1.493800
  0
VERTEX
  8
0
  6
CONTINUOUS
 10
6.086960
 20
1.550120
  0
SEQEND
  8
0
  0
SOLID
  8
0
 62
    15
 10
6.039880
 20
1.493800
 11
6.034160
 21
2.234760
 12
5.999840
 22
1.421200
 13
5.993680
 23
2.162160
  0
POLYLINE
  8
0
  6
CONTINUOUS
 66
     1
 40
0.000000
 41
0.000000
  0
VERTEX
  8
0
  6
CONTINUOUS
 10
6.039880
 20
1.493800
  0
VERTEX
  8
0
  6
CONTINUOUS
 10
6.034160
 20
2.234760
  0
VERTEX
  8
0
  6
CONTINUOUS
 10
5.993680
 20
2.162160
  0
VERTEX
  8
0
  6
CONTINUOUS
 10
5.999840
 20
1.421200
  0
VERTEX
  8
0
  6
CONTINUOUS
 10
6.039880
 20
1.493800
  0
SEQEND
  8
0
  0
SOLID
  8
0
 62
    15
 10
5.999840
 20
1.421200
 11
5.993680
 21
2.162160
 12
5.967280
 22
1.330120
 13
5.961120
 23
2.071080
  0
POLYLINE
  8
0
  6
CONTINUOUS
 66
     1
 40
0.000000
 41
0.000000
  0
VERTEX
  8
0
  6
CONTINUOUS
 10
5.999840
 20
1.421200
  0
VERTEX
  8
0
  6
CONTINUOUS
 10
5.993680
 20
2.162160
  0
VERTEX
  8
0
  6
CONTINUOUS
 10
5.961120
 20
2.071080
  0
VERTEX
  8
0
  6
CONTINUOUS
 10
5.967280
 20
1.330120
  0
VERTEX
  8
0
  6
CONTINUOUS
 10
5.999840
 20
1.421200
  0
SEQEND
  8
0
  0
SOLID
  8
0
 62
    15
 10
5.967280
 20
1.330120
 11
5.961120
 21
2.071080
 12
5.967280
 22
1.327480
 13
5.961120
 23
2.068440
  0
POLYLINE
  8
0
  6
CONTINUOUS
 66
     1
 40
0.000000
 41
0.000000
  0
VERTEX
  8
0
  6
CONTINUOUS
 10
5.967280
 20
1.330120
  0
VERTEX
  8
0
  6
CONTINUOUS
 10
5.961120
 20
2.071080
  0
VERTEX
  8
0
  6
CONTINUOUS
 10
5.961120
 20
2.068440
  0
VERTEX
  8
0
  6
CONTINUOUS
 10
5.967280
 20
1.327480
  0
VERTEX
  8
0
  6
CONTINUOUS
 10
5.967280
 20
1.330120
  0
SEQEND
  8
0
  0
SOLID
  8
0
 62
    15
 10
5.967280
 20
1.327480
 11
5.961120
 21
2.068440
 12
5.839240
 22
1.342880
 13
5.833080
 23
2.083840
  0
POLYLINE
  8
0
  6
CONTINUOUS
 66
     1
 40
0.000000
 41
0.000000
  0
VERTEX
  8
0
  6
CONTINUOUS
 10
5.967280
 20
1.327480
  0
VERTEX
  8
0
  6
CONTINUOUS
 10
5.961120
 20
2.068440
  0
VERTEX
  8
0
  6
CONTINUOUS
 10
5.833080
 20
2.083840
  0
VERTEX
  8
0
  6
CONTINUOUS
 10
5.839240
 20
1.342880
  0
VERTEX
  8
0
  6
CONTINUOUS
 10
5.967280
 20
1.327480
  0
SEQEND
  8
0
  0
SOLID
  8
0
 62
    15
 10
5.839240
 20
1.342880
 11
5.833080
 21
2.083840
 12
5.718680
 22
1.366200
 13
5.712960
 23
2.107160
  0
POLYLINE
  8
0
  6
CONTINUOUS
 66
     1
 40
0.000000
 41
0.000000
  0
VERTEX
  8
0
  6
CONTINUOUS
 10
5.839240
 20
1.342880
  0
VERTEX
  8
0
  6
CONTINUOUS
 10
5.833080
 20
2.083840
  0
VERTEX
  8
0
  6
CONTINUOUS
 10
5.712960
 20
2.107160
  0
VERTEX
  8
0
  6
CONTINUOUS
 10
5.718680
 20
1.366200
  0
VERTEX
  8
0
  6
CONTINUOUS
 10
5.839240
 20
1.342880
  0
SEQEND
  8
0
  0
SOLID
  8
0
 62
    15
 10
5.718680
 20
1.366200
 11
5.712960
 21
2.107160
 12
5.606040
 22
1.397000
 13
5.600320
 23
2.137960
  0
POLYLINE
  8
0
  6
CONTINUOUS
 66
     1
 40
0.000000
 41
0.000000
  0
VERTEX
  8
0
  6
CONTINUOUS
 10
5.718680
 20
1.366200
  0
VERTEX
  8
0
  6
CONTINUOUS
 10
5.712960
 20
2.107160
  0
VERTEX
  8
0
  6
CONTINUOUS
 10
5.600320
 20
2.137960
  0
VERTEX
  8
0
  6
CONTINUOUS
 10
5.606040
 20
1.397000
  0
VERTEX
  8
0
  6
CONTINUOUS
 10
5.718680
 20
1.366200
  0
SEQEND
  8
0
  0
SOLID
  8
0
 62
    15
 10
5.606040
 20
1.397000
 11
5.600320
 21
2.137960
 12
5.501320
 22
1.433960
 13
5.495160
 23
2.174920
  0
POLYLINE
  8
0
  6
CONTINUOUS
 66
     1
 40
0.000000
 41
0.000000
  0
VERTEX
  8
0
  6
CONTINUOUS
 10
5.606040
 20
1.397000
  0
VERTEX
  8
0
  6
CONTINUOUS
 10
5.600320
 20
2.137960
  0
VERTEX
  8
0
  6
CONTINUOUS
 10
5.495160
 20
2.174920
  0
VERTEX
  8
0
  6
CONTINUOUS
 10
5.501320
 20
1.433960
  0
VERTEX
  8
0
  6
CONTINUOUS
 10
5.606040
 20
1.397000
  0
SEQEND
  8
0
  0
SOLID
  8
0
 62
    15
 10
5.501320
 20
1.433960
 11
5.495160
 21
2.174920
 12
5.403640
 22
1.477520
 13
5.397920
 23
2.218480
  0
POLYLINE
  8
0
  6
CONTINUOUS
 66
     1
 40
0.000000
 41
0.000000
  0
VERTEX
  8
0
  6
CONTINUOUS
 10
5.501320
 20
1.433960
  0
VERTEX
  8
0
  6
CONTINUOUS
 10
5.495160
 20
2.174920
  0
VERTEX
  8
0
  6
CONTINUOUS
 10
5.397920
 20
2.218480
  0
VERTEX
  8
0
  6
CONTINUOUS
 10
5.403640
 20
1.477520
  0
VERTEX
  8
0
  6
CONTINUOUS
 10
5.501320
 20
1.433960
  0
SEQEND
  8
0
  0
SOLID
  8
0
 62
    15
 10
5.403640
 20
1.477520
 11
5.397920
 21
2.218480
 12
5.314320
 22
1.526360
 13
5.308600
 23
2.267320
  0
POLYLINE
  8
0
  6
CONTINUOUS
 66
     1
 40
0.000000
 41
0.000000
  0
VERTEX
  8
0
  6
CONTINUOUS
 10
5.403640
 20
1.477520
  0
VERTEX
  8
0
  6
CONTINUOUS
 10
5.397920
 20
2.218480
  0
VERTEX
  8
0
  6
CONTINUOUS
 10
5.308600
 20
2.267320
  0
VERTEX
  8
0
  6
CONTINUOUS
 10
5.314320
 20
1.526360
  0
VERTEX
  8
0
  6
CONTINUOUS
 10
5.403640
 20
1.477520
  0
SEQEND
  8
0
  0
SOLID
  8
0
 62
    15
 10
3.745280
 20
2.160840
 11
3.739120
 21
2.901800
 12
3.165360
 22
2.160840
 13
3.159200
 23
2.901800
  0
POLYLINE
  8
0
  6
CONTINUOUS
 66
     1
 40
0.000000
 41
0.000000
  0
VERTEX
  8
0
  6
CONTINUOUS
 10
3.745280
 20
2.160840
  0
VERTEX
  8
0
  6
CONTINUOUS
 10
3.739120
 20
2.901800
  0
VERTEX
  8
0
  6
CONTINUOUS
 10
3.159200
 20
2.901800
  0
VERTEX
  8
0
  6
CONTINUOUS
 10
3.165360
 20
2.160840
  0
VERTEX
  8
0
  6
CONTINUOUS
 10
3.745280
 20
2.160840
  0
SEQEND
  8
0
  0
SOLID
  8
0
 62
    15
 10
5.232480
 20
1.580040
 11
5.226760
 21
2.321000
 12
5.158560
 22
1.638120
 13
5.152400
 23
2.379080
  0
POLYLINE
  8
0
  6
CONTINUOUS
 66
     1
 40
0.000000
 41
0.000000
  0
VERTEX
  8
0
  6
CONTINUOUS
 10
5.232480
 20
1.580040
  0
VERTEX
  8
0
  6
CONTINUOUS
 10
5.226760
 20
2.321000
  0
VERTEX
  8
0
  6
CONTINUOUS
 10
5.152400
 20
2.379080
  0
VERTEX
  8
0
  6
CONTINUOUS
 10
5.158560
 20
1.638120
  0
VERTEX
  8
0
  6
CONTINUOUS
 10
5.232480
 20
1.580040
  0
SEQEND
  8
0
  0
SOLID
  8
0
 62
    15
 10
5.158560
 20
1.638120
 11
5.152400
 21
2.379080
 12
5.092120
 22
1.699720
 13
5.085960
 23
2.440680
  0
POLYLINE
  8
0
  6
CONTINUOUS
 66
     1
 40
0.000000
 41
0.000000
  0
VERTEX
  8
0
  6
CONTINUOUS
 10
5.158560
 20
1.638120
  0
VERTEX
  8
0
  6
CONTINUOUS
 10
5.152400
 20
2.379080
  0
VERTEX
  8
0
  6
CONTINUOUS
 10
5.085960
 20
2.440680
  0
VERTEX
  8
0
  6
CONTINUOUS
 10
5.092120
 20
1.699720
  0
VERTEX
  8
0
  6
CONTINUOUS
 10
5.158560
 20
1.638120
  0
SEQEND
  8
0
  0
SOLID
  8
0
 62
    15
 10
5.092120
 20
1.699720
 11
5.085960
 21
2.440680
 12
5.033600
 22
1.763960
 13
5.027440
 23
2.505360
  0
POLYLINE
  8
0
  6
CONTINUOUS
 66
     1
 40
0.000000
 41
0.000000
  0
VERTEX
  8
0
  6
CONTINUOUS
 10
5.092120
 20
1.699720
  0
VERTEX
  8
0
  6
CONTINUOUS
 10
5.085960
 20
2.440680
  0
VERTEX
  8
0
  6
CONTINUOUS
 10
5.027440
 20
2.505360
  0
VERTEX
  8
0
  6
CONTINUOUS
 10
5.033600
 20
1.763960
  0
VERTEX
  8
0
  6
CONTINUOUS
 10
5.092120
 20
1.699720
  0
SEQEND
  8
0
  0
SOLID
  8
0
 62
    15
 10
5.033600
 20
1.763960
 11
5.027440
 21
2.505360
 12
4.939000
 22
1.900360
 13
4.933280
 23
2.641320
  0
POLYLINE
  8
0
  6
CONTINUOUS
 66
     1
 40
0.000000
 41
0.000000
  0
VERTEX
  8
0
  6
CONTINUOUS
 10
5.033600
 20
1.763960
  0
VERTEX
  8
0
  6
CONTINUOUS
 10
5.027440
 20
2.505360
  0
VERTEX
  8
0
  6
CONTINUOUS
 10
4.933280
 20
2.641320
  0
VERTEX
  8
0
  6
CONTINUOUS
 10
4.939000
 20
1.900360
  0
VERTEX
  8
0
  6
CONTINUOUS
 10
5.033600
 20
1.763960
  0
SEQEND
  8
0
  0
SOLID
  8
0
 62
    15
 10
4.939000
 20
1.900360
 11
4.933280
 21
2.641320
 12
4.876080
 22
2.041160
 13
4.869920
 23
2.782120
  0
POLYLINE
  8
0
  6
CONTINUOUS
 66
     1
 40
0.000000
 41
0.000000
  0
VERTEX
  8
0
  6
CONTINUOUS
 10
4.939000
 20
1.900360
  0
VERTEX
  8
0
  6
CONTINUOUS
 10
4.933280
 20
2.641320
  0
VERTEX
  8
0
  6
CONTINUOUS
 10
4.869920
 20
2.782120
  0
VERTEX
  8
0
  6
CONTINUOUS
 10
4.876080
 20
2.041160
  0
VERTEX
  8
0
  6
CONTINUOUS
 10
4.939000
 20
1.900360
  0
SEQEND
  8
0
  0
SOLID
  8
0
 62
    15
 10
4.876080
 20
2.041160
 11
4.869920
 21
2.782120
 12
4.843520
 22
2.182400
 13
4.837800
 23
2.923360
  0
POLYLINE
  8
0
  6
CONTINUOUS
 66
     1
 40
0.000000
 41
0.000000
  0
VERTEX
  8
0
  6
CONTINUOUS
 10
4.876080
 20
2.041160
  0
VERTEX
  8
0
  6
CONTINUOUS
 10
4.869920
 20
2.782120
  0
VERTEX
  8
0
  6
CONTINUOUS
 10
4.837800
 20
2.923360
  0
VERTEX
  8
0
  6
CONTINUOUS
 10
4.843520
 20
2.182400
  0
VERTEX
  8
0
  6
CONTINUOUS
 10
4.876080
 20
2.041160
  0
SEQEND
  8
0
  0
SOLID
  8
0
 62
    15
 10
4.843520
 20
2.182400
 11
4.837800
 21
2.923360
 12
4.821520
 22
2.295480
 13
4.815800
 23
3.036440
  0
POLYLINE
  8
0
  6
CONTINUOUS
 66
     1
 40
0.000000
 41
0.000000
  0
VERTEX
  8
0
  6
CONTINUOUS
 10
4.843520
 20
2.182400
  0
VERTEX
  8
0
  6
CONTINUOUS
 10
4.837800
 20
2.923360
  0
VERTEX
  8
0
  6
CONTINUOUS
 10
4.815800
 20
3.036440
  0
VERTEX
  8
0
  6
CONTINUOUS
 10
4.821520
 20
2.295480
  0
VERTEX
  8
0
  6
CONTINUOUS
 10
4.843520
 20
2.182400
  0
SEQEND
  8
0
  0
SOLID
  8
0
 62
    15
 10
4.821520
 20
2.295480
 11
4.815800
 21
3.036440
 12
4.783680
 22
2.399760
 13
4.777520
 23
3.140720
  0
POLYLINE
  8
0
  6
CONTINUOUS
 66
     1
 40
0.000000
 41
0.000000
  0
VERTEX
  8
0
  6
CONTINUOUS
 10
4.821520
 20
2.295480
  0
VERTEX
  8
0
  6
CONTINUOUS
 10
4.815800
 20
3.036440
  0
VERTEX
  8
0
  6
CONTINUOUS
 10
4.777520
 20
3.140720
  0
VERTEX
  8
0
  6
CONTINUOUS
 10
4.783680
 20
2.399760
  0
VERTEX
  8
0
  6
CONTINUOUS
 10
4.821520
 20
2.295480
  0
SEQEND
  8
0
  0
SOLID
  8
0
 62
    15
 10
4.783680
 20
2.399760
 11
4.777520
 21
3.140720
 12
4.731760
 22
2.493480
 13
4.726040
 23
3.234440
  0
POLYLINE
  8
0
  6
CONTINUOUS
 66
     1
 40
0.000000
 41
0.000000
  0
VERTEX
  8
0
  6
CONTINUOUS
 10
4.783680
 20
2.399760
  0
VERTEX
  8
0
  6
CONTINUOUS
 10
4.777520
 20
3.140720
  0
VERTEX
  8
0
  6
CONTINUOUS
 10
4.726040
 20
3.234440
  0
VERTEX
  8
0
  6
CONTINUOUS
 10
4.731760
 20
2.493480
  0
VERTEX
  8
0
  6
CONTINUOUS
 10
4.783680
 20
2.399760
  0
SEQEND
  8
0
  0
SOLID
  8
0
 62
    15
 10
4.731760
 20
2.493480
 11
4.726040
 21
3.234440
 12
4.668400
 22
2.576200
 13
4.662240
 23
3.317160
  0
POLYLINE
  8
0
  6
CONTINUOUS
 66
     1
 40
0.000000
 41
0.000000
  0
VERTEX
  8
0
  6
CONTINUOUS
 10
4.731760
 20
2.493480
  0
VERTEX
  8
0
  6
CONTINUOUS
 10
4.726040
 20
3.234440
  0
VERTEX
  8
0
  6
CONTINUOUS
 10
4.662240
 20
3.317160
  0
VERTEX
  8
0
  6
CONTINUOUS
 10
4.668400
 20
2.576200
  0
VERTEX
  8
0
  6
CONTINUOUS
 10
4.731760
 20
2.493480
  0
SEQEND
  8
0
  0
SOLID
  8
0
 62
    15
 10
4.668400
 20
2.576200
 11
4.662240
 21
3.317160
 12
4.594920
 22
2.645720
 13
4.589200
 23
3.386680
  0
POLYLINE
  8
0
  6
CONTINUOUS
 66
     1
 40
0.000000
 41
0.000000
  0
VERTEX
  8
0
  6
CONTINUOUS
 10
4.668400
 20
2.576200
  0
VERTEX
  8
0
  6
CONTINUOUS
 10
4.662240
 20
3.317160
  0
VERTEX
  8
0
  6
CONTINUOUS
 10
4.589200
 20
3.386680
  0
VERTEX
  8
0
  6
CONTINUOUS
 10
4.594920
 20
2.645720
  0
VERTEX
  8
0
  6
CONTINUOUS
 10
4.668400
 20
2.576200
  0
SEQEND
  8
0
  0
SOLID
  8
0
 62
    15
 10
4.594920
 20
2.645720
 11
4.589200
 21
3.386680
 12
4.514400
 22
2.700720
 13
4.508240
 23
3.441680
  0
POLYLINE
  8
0
  6
CONTINUOUS
 66
     1
 40
0.000000
 41
0.000000
  0
VERTEX
  8
0
  6
CONTINUOUS
 10
4.594920
 20
2.645720
  0
VERTEX
  8
0
  6
CONTINUOUS
 10
4.589200
 20
3.386680
  0
VERTEX
  8
0
  6
CONTINUOUS
 10
4.508240
 20
3.441680
  0
VERTEX
  8
0
  6
CONTINUOUS
 10
4.514400
 20
2.700720
  0
VERTEX
  8
0
  6
CONTINUOUS
 10
4.594920
 20
2.645720
  0
SEQEND
  8
0
  0
SOLID
  8
0
 62
    15
 10
4.514400
 20
2.700720
 11
4.508240
 21
3.441680
 12
4.428160
 22
2.740320
 13
4.422440
 23
3.481280
  0
POLYLINE
  8
0
  6
CONTINUOUS
 66
     1
 40
0.000000
 41
0.000000
  0
VERTEX
  8
0
  6
CONTINUOUS
 10
4.514400
 20
2.700720
  0
VERTEX
  8
0
  6
CONTINUOUS
 10
4.508240
 20
3.441680
  0
VERTEX
  8
0
  6
CONTINUOUS
 10
4.422440
 20
3.481280
  0
VERTEX
  8
0
  6
CONTINUOUS
 10
4.428160
 20
2.740320
  0
VERTEX
  8
0
  6
CONTINUOUS
 10
4.514400
 20
2.700720
  0
SEQEND
  8
0
  0
SOLID
  8
0
 62
    15
 10
4.428160
 20
2.740320
 11
4.422440
 21
3.481280
 12
4.338840
 22
2.762760
 13
4.332680
 23
3.503720
  0
POLYLINE
  8
0
  6
CONTINUOUS
 66
     1
 40
0.000000
 41
0.000000
  0
VERTEX
  8
0
  6
CONTINUOUS
 10
4.428160
 20
2.740320
  0
VERTEX
  8
0
  6
CONTINUOUS
 10
4.422440
 20
3.481280
  0
VERTEX
  8
0
  6
CONTINUOUS
 10
4.332680
 20
3.503720
  0
VERTEX
  8
0
  6
CONTINUOUS
 10
4.338840
 20
2.762760
  0
VERTEX
  8
0
  6
CONTINUOUS
 10
4.428160
 20
2.740320
  0
SEQEND
  8
0
  0
SOLID
  8
0
 62
    15
 10
4.338840
 20
2.762760
 11
4.332680
 21
3.503720
 12
4.248200
 22
2.766720
 13
4.242480
 23
3.507680
  0
POLYLINE
  8
0
  6
CONTINUOUS
 66
     1
 40
0.000000
 41
0.000000
  0
VERTEX
  8
0
  6
CONTINUOUS
 10
4.338840
 20
2.762760
  0
VERTEX
  8
0
  6
CONTINUOUS
 10
4.332680
 20
3.503720
  0
VERTEX
  8
0
  6
CONTINUOUS
 10
4.242480
 20
3.507680
  0
VERTEX
  8
0
  6
CONTINUOUS
 10
4.248200
 20
2.766720
  0
VERTEX
  8
0
  6
CONTINUOUS
 10
4.338840
 20
2.762760
  0
SEQEND
  8
0
  0
SOLID
  8
0
 62
    15
 10
4.248200
 20
2.766720
 11
4.242480
 21
3.507680
 12
4.158880
 22
2.751320
 13
4.152720
 23
3.492280
  0
POLYLINE
  8
0
  6
CONTINUOUS
 66
     1
 40
0.000000
 41
0.000000
  0
VERTEX
  8
0
  6
CONTINUOUS
 10
4.248200
 20
2.766720
  0
VERTEX
  8
0
  6
CONTINUOUS
 10
4.242480
 20
3.507680
  0
VERTEX
  8
0
  6
CONTINUOUS
 10
4.152720
 20
3.492280
  0
VERTEX
  8
0
  6
CONTINUOUS
 10
4.158880
 20
2.751320
  0
VERTEX
  8
0
  6
CONTINUOUS
 10
4.248200
 20
2.766720
  0
SEQEND
  8
0
  0
SOLID
  8
0
 62
    15
 10
4.158880
 20
2.751320
 11
4.152720
 21
3.492280
 12
4.072200
 22
2.714360
 13
4.066480
 23
3.455320
  0
POLYLINE
  8
0
  6
CONTINUOUS
 66
     1
 40
0.000000
 41
0.000000
  0
VERTEX
  8
0
  6
CONTINUOUS
 10
4.158880
 20
2.751320
  0
VERTEX
  8
0
  6
CONTINUOUS
 10
4.152720
 20
3.492280
  0
VERTEX
  8
0
  6
CONTINUOUS
 10
4.066480
 20
3.455320
  0
VERTEX
  8
0
  6
CONTINUOUS
 10
4.072200
 20
2.714360
  0
VERTEX
  8
0
  6
CONTINUOUS
 10
4.158880
 20
2.751320
  0
SEQEND
  8
0
  0
SOLID
  8
0
 62
    15
 10
4.072200
 20
2.714360
 11
4.066480
 21
3.455320
 12
3.991240
 22
2.654960
 13
3.985080
 23
3.395920
  0
POLYLINE
  8
0
  6
CONTINUOUS
 66
     1
 40
0.000000
 41
0.000000
  0
VERTEX
  8
0
  6
CONTINUOUS
 10
4.072200
 20
2.714360
  0
VERTEX
  8
0
  6
CONTINUOUS
 10
4.066480
 20
3.455320
  0
VERTEX
  8
0
  6
CONTINUOUS
 10
3.985080
 20
3.395920
  0
VERTEX
  8
0
  6
CONTINUOUS
 10
3.991240
 20
2.654960
  0
VERTEX
  8
0
  6
CONTINUOUS
 10
4.072200
 20
2.714360
  0
SEQEND
  8
0
  0
SOLID
  8
0
 62
    15
 10
3.991240
 20
2.654960
 11
3.985080
 21
3.395920
 12
3.917320
 22
2.571800
 13
3.911600
 23
3.312760
  0
POLYLINE
  8
0
  6
CONTINUOUS
 66
     1
 40
0.000000
 41
0.000000
  0
VERTEX
  8
0
  6
CONTINUOUS
 10
3.991240
 20
2.654960
  0
VERTEX
  8
0
  6
CONTINUOUS
 10
3.985080
 20
3.395920
  0
VERTEX
  8
0
  6
CONTINUOUS
 10
3.911600
 20
3.312760
  0
VERTEX
  8
0
  6
CONTINUOUS
 10
3.917320
 20
2.571800
  0
VERTEX
  8
0
  6
CONTINUOUS
 10
3.991240
 20
2.654960
  0
SEQEND
  8
0
  0
SOLID
  8
0
 62
    15
 10
3.917320
 20
2.571800
 11
3.911600
 21
3.312760
 12
3.853080
 22
2.463120
 13
3.846920
 23
3.204080
  0
POLYLINE
  8
0
  6
CONTINUOUS
 66
     1
 40
0.000000
 41
0.000000
  0
VERTEX
  8
0
  6
CONTINUOUS
 10
3.917320
 20
2.571800
  0
VERTEX
  8
0
  6
CONTINUOUS
 10
3.911600
 20
3.312760
  0
VERTEX
  8
0
  6
CONTINUOUS
 10
3.846920
 20
3.204080
  0
VERTEX
  8
0
  6
CONTINUOUS
 10
3.853080
 20
2.463120
  0
VERTEX
  8
0
  6
CONTINUOUS
 10
3.917320
 20
2.571800
  0
SEQEND
  8
0
  0
SOLID
  8
0
 62
    15
 10
3.853080
 20
2.463120
 11
3.846920
 21
3.204080
 12
3.800280
 22
2.328040
 13
3.794120
 23
3.069000
  0
POLYLINE
  8
0
  6
CONTINUOUS
 66
     1
 40
0.000000
 41
0.000000
  0
VERTEX
  8
0
  6
CONTINUOUS
 10
3.853080
 20
2.463120
  0
VERTEX
  8
0
  6
CONTINUOUS
 10
3.846920
 20
3.204080
  0
VERTEX
  8
0
  6
CONTINUOUS
 10
3.794120
 20
3.069000
  0
VERTEX
  8
0
  6
CONTINUOUS
 10
3.800280
 20
2.328040
  0
VERTEX
  8
0
  6
CONTINUOUS
 10
3.853080
 20
2.463120
  0
SEQEND
  8
0
  0
SOLID
  8
0
 62
    15
 10
3.800280
 20
2.328040
 11
3.794120
 21
3.069000
 12
3.778720
 22
2.250160
 13
3.773000
 23
2.991120
  0
POLYLINE
  8
0
  6
CONTINUOUS
 66
     1
 40
0.000000
 41
0.000000
  0
VERTEX
  8
0
  6
CONTINUOUS
 10
3.800280
 20
2.328040
  0
VERTEX
  8
0
  6
CONTINUOUS
 10
3.794120
 20
3.069000
  0
VERTEX
  8
0
  6
CONTINUOUS
 10
3.773000
 20
2.991120
  0
VERTEX
  8
0
  6
CONTINUOUS
 10
3.778720
 20
2.250160
  0
VERTEX
  8
0
  6
CONTINUOUS
 10
3.800280
 20
2.328040
  0
SEQEND
  8
0
  0
SOLID
  8
0
 62
    15
 10
3.778720
 20
2.250160
 11
3.773000
 21
2.991120
 12
3.761120
 22
2.164800
 13
3.755400
 23
2.906200
  0
POLYLINE
  8
0
  6
CONTINUOUS
 66
     1
 40
0.000000
 41
0.000000
  0
VERTEX
  8
0
  6
CONTINUOUS
 10
3.778720
 20
2.250160
  0
VERTEX
  8
0
  6
CONTINUOUS
 10
3.773000
 20
2.991120
  0
VERTEX
  8
0
  6
CONTINUOUS
 10
3.755400
 20
2.906200
  0
VERTEX
  8
0
  6
CONTINUOUS
 10
3.761120
 20
2.164800
  0
VERTEX
  8
0
  6
CONTINUOUS
 10
3.778720
 20
2.250160
  0
SEQEND
  8
0
  0
SOLID
  8
0
 62
    15
 10
3.761120
 20
2.164800
 11
3.755400
 21
2.906200
 12
3.745280
 22
2.160840
 13
3.739120
 23
2.901800
  0
POLYLINE
  8
0
  6
CONTINUOUS
 66
     1
 40
0.000000
 41
0.000000
  0
VERTEX
  8
0
  6
CONTINUOUS
 10
3.761120
 20
2.164800
  0
VERTEX
  8
0
  6
CONTINUOUS
 10
3.755400
 20
2.906200
  0
VERTEX
  8
0
  6
CONTINUOUS
 10
3.739120
 20
2.901800
  0
VERTEX
  8
0
  6
CONTINUOUS
 10
3.745280
 20
2.160840
  0
VERTEX
  8
0
  6
CONTINUOUS
 10
3.761120
 20
2.164800
  0
SEQEND
  8
0
  0
POLYLINE
  8
0
  6
CONTINUOUS
 66
     1
 40
0.000000
 41
0.000000
  0
VERTEX
  8
0
  6
CONTINUOUS
 10
3.745280
 20
2.160840
  0
VERTEX
  8
0
  6
CONTINUOUS
 10
3.165360
 20
2.160840
  0
VERTEX
  8
0
  6
CONTINUOUS
 10
3.165360
 20
1.026080
  0
VERTEX
  8
0
  6
CONTINUOUS
 10
6.644440
 20
1.026080
  0
VERTEX
  8
0
  6
CONTINUOUS
 10
6.644440
 20
1.310320
  0
VERTEX
  8
0
  6
CONTINUOUS
 10
6.641360
 20
1.360920
  0
VERTEX
  8
0
  6
CONTINUOUS
 10
6.626840
 20
1.410640
  0
VERTEX
  8
0
  6
CONTINUOUS
 10
6.601760
 20
1.458600
  0
VERTEX
  8
0
  6
CONTINUOUS
 10
6.567440
 20
1.502600
  0
VERTEX
  8
0
  6
CONTINUOUS
 10
6.525640
 20
1.542640
  0
VERTEX
  8
0
  6
CONTINUOUS
 10
6.477680
 20
1.576520
  0
VERTEX
  8
0
  6
CONTINUOUS
 10
6.424880
 20
1.603360
  0
VERTEX
  8
0
  6
CONTINUOUS
 10
6.368560
 20
1.622280
  0
VERTEX
  8
0
  6
CONTINUOUS
 10
6.310920
 20
1.631520
  0
VERTEX
  8
0
  6
CONTINUOUS
 10
6.251960
 20
1.630200
  0
VERTEX
  8
0
  6
CONTINUOUS
 10
6.194320
 20
1.617000
  0
VERTEX
  8
0
  6
CONTINUOUS
 10
6.138880
 20
1.590600
  0
VERTEX
  8
0
  6
CONTINUOUS
 10
6.086960
 20
1.550120
  0
VERTEX
  8
0
  6
CONTINUOUS
 10
6.039880
 20
1.493800
  0
VERTEX
  8
0
  6
CONTINUOUS
 10
5.999840
 20
1.421200
  0
VERTEX
  8
0
  6
CONTINUOUS
 10
5.967280
 20
1.330120
  0
VERTEX
  8
0
  6
CONTINUOUS
 10
5.967280
 20
1.327480
  0
VERTEX
  8
0
  6
CONTINUOUS
 10
5.839240
 20
1.342880
  0
VERTEX
  8
0
  6
CONTINUOUS
 10
5.718680
 20
1.366200
  0
VERTEX
  8
0
  6
CONTINUOUS
 10
5.606040
 20
1.397000
  0
VERTEX
  8
0
  6
CONTINUOUS
 10
5.501320
 20
1.433960
  0
VERTEX
  8
0
  6
CONTINUOUS
 10
5.403640
 20
1.477520
  0
VERTEX
  8
0
  6
CONTINUOUS
 10
5.314320
 20
1.526360
  0
VERTEX
  8
0
  6
CONTINUOUS
 10
5.232480
 20
1.580040
  0
VERTEX
  8
0
  6
CONTINUOUS
 10
5.158560
 20
1.638120
  0
VERTEX
  8
0
  6
CONTINUOUS
 10
5.092120
 20
1.699720
  0
VERTEX
  8
0
  6
CONTINUOUS
 10
5.033600
 20
1.763960
  0
VERTEX
  8
0
  6
CONTINUOUS
 10
4.939000
 20
1.900360
  0
VERTEX
  8
0
  6
CONTINUOUS
 10
4.876080
 20
2.041160
  0
VERTEX
  8
0
  6
CONTINUOUS
 10
4.843520
 20
2.182400
  0
VERTEX
  8
0
  6
CONTINUOUS
 10
4.821520
 20
2.295480
  0
VERTEX
  8
0
  6
CONTINUOUS
 10
4.783680
 20
2.399760
  0
VERTEX
  8
0
  6
CONTINUOUS
 10
4.731760
 20
2.493480
  0
VERTEX
  8
0
  6
CONTINUOUS
 10
4.668400
 20
2.576200
  0
VERTEX
  8
0
  6
CONTINUOUS
 10
4.594920
 20
2.645720
  0
VERTEX
  8
0
  6
CONTINUOUS
 10
4.514400
 20
2.700720
  0
VERTEX
  8
0
  6
CONTINUOUS
 10
4.428160
 20
2.740320
  0
VERTEX
  8
0
  6
CONTINUOUS
 10
4.338840
 20
2.762760
  0
VERTEX
  8
0
  6
CONTINUOUS
 10
4.248200
 20
2.766720
  0
VERTEX
  8
0
  6
CONTINUOUS
 10
4.158880
 20
2.751320
  0
VERTEX
  8
0
  6
CONTINUOUS
 10
4.072200
 20
2.714360
  0
VERTEX
  8
0
  6
CONTINUOUS
 10
3.991240
 20
2.654960
  0
VERTEX
  8
0
  6
CONTINUOUS
 10
3.917320
 20
2.571800
  0
VERTEX
  8
0
  6
CONTINUOUS
 10
3.853080
 20
2.463120
  0
VERTEX
  8
0
  6
CONTINUOUS
 10
3.800280
 20
2.328040
  0
VERTEX
  8
0
  6
CONTINUOUS
 10
3.778720
 20
2.250160
  0
VERTEX
  8
0
  6
CONTINUOUS
 10
3.761120
 20
2.164800
  0
VERTEX
  8
0
  6
CONTINUOUS
 10
3.745280
 20
2.160840
  0
SEQEND
  8
0
  0
SOLID
  8
0
 62
    15
 10
1.938640
 20
2.672560
 11
1.941720
 21
3.360720
 12
1.842280
 22
2.633400
 13
1.845360
 23
3.321560
  0
POLYLINE
  8
0
  6
CONTINUOUS
 66
     1
 40
0.000000
 41
0.000000
  0
VERTEX
  8
0
  6
CONTINUOUS
 10
1.938640
 20
2.672560
  0
VERTEX
  8
0
  6
CONTINUOUS
 10
1.941720
 20
3.360720
  0
VERTEX
  8
0
  6
CONTINUOUS
 10
1.845360
 20
3.321560
  0
VERTEX
  8
0
  6
CONTINUOUS
 10
1.842280
 20
2.633400
  0
VERTEX
  8
0
  6
CONTINUOUS
 10
1.938640
 20
2.672560
  0
SEQEND
  8
0
  0
SOLID
  8
0
 62
    15
 10
3.392840
 20
2.162600
 11
3.395920
 21
2.851200
 12
3.392840
 22
2.823920
 13
3.395920
 23
3.512080
  0
POLYLINE
  8
0
  6
CONTINUOUS
 66
     1
 40
0.000000
 41
0.000000
  0
VERTEX
  8
0
  6
CONTINUOUS
 10
3.392840
 20
2.162600
  0
VERTEX
  8
0
  6
CONTINUOUS
 10
3.395920
 20
2.851200
  0
VERTEX
  8
0
  6
CONTINUOUS
 10
3.395920
 20
3.512080
  0
VERTEX
  8
0
  6
CONTINUOUS
 10
3.392840
 20
2.823920
  0
VERTEX
  8
0
  6
CONTINUOUS
 10
3.392840
 20
2.162600
  0
SEQEND
  8
0
  0
SOLID
  8
0
 62
    15
 10
2.269960
 20
2.689280
 11
2.273040
 21
3.377440
 12
2.267320
 22
2.689280
 13
2.270400
 23
3.377440
  0
POLYLINE
  8
0
  6
CONTINUOUS
 66
     1
 40
0.000000
 41
0.000000
  0
VERTEX
  8
0
  6
CONTINUOUS
 10
2.269960
 20
2.689280
  0
VERTEX
  8
0
  6
CONTINUOUS
 10
2.273040
 20
3.377440
  0
VERTEX
  8
0
  6
CONTINUOUS
 10
2.270400
 20
3.377440
  0
VERTEX
  8
0
  6
CONTINUOUS
 10
2.267320
 20
2.689280
  0
VERTEX
  8
0
  6
CONTINUOUS
 10
2.269960
 20
2.689280
  0
SEQEND
  8
0
  0
SOLID
  8
0
 62
    15
 10
3.162280
 20
1.025200
 11
3.165360
 21
1.713800
 12
3.162280
 22
2.162600
 13
3.165360
 23
2.851200
  0
POLYLINE
  8
0
  6
CONTINUOUS
 66
     1
 40
0.000000
 41
0.000000
  0
VERTEX
  8
0
  6
CONTINUOUS
 10
3.162280
 20
1.025200
  0
VERTEX
  8
0
  6
CONTINUOUS
 10
3.165360
 20
1.713800
  0
VERTEX
  8
0
  6
CONTINUOUS
 10
3.165360
 20
2.851200
  0
VERTEX
  8
0
  6
CONTINUOUS
 10
3.162280
 20
2.162600
  0
VERTEX
  8
0
  6
CONTINUOUS
 10
3.162280
 20
1.025200
  0
SEQEND
  8
0
  0
SOLID
  8
0
 62
    15
 10
2.267320
 20
2.689280
 11
2.270400
 21
3.377440
 12
2.156000
 22
2.697640
 13
2.159080
 23
3.386240
  0
POLYLINE
  8
0
  6
CONTINUOUS
 66
     1
 40
0.000000
 41
0.000000
  0
VERTEX
  8
0
  6
CONTINUOUS
 10
2.267320
 20
2.689280
  0
VERTEX
  8
0
  6
CONTINUOUS
 10
2.270400
 20
3.377440
  0
VERTEX
  8
0
  6
CONTINUOUS
 10
2.159080
 20
3.386240
  0
VERTEX
  8
0
  6
CONTINUOUS
 10
2.156000
 20
2.697640
  0
VERTEX
  8
0
  6
CONTINUOUS
 10
2.267320
 20
2.689280
  0
SEQEND
  8
0
  0
SOLID
  8
0
 62
    15
 10
2.156000
 20
2.697640
 11
2.159080
 21
3.386240
 12
2.044680
 22
2.693240
 13
2.048200
 23
3.381400
  0
POLYLINE
  8
0
  6
CONTINUOUS
 66
     1
 40
0.000000
 41
0.000000
  0
VERTEX
  8
0
  6
CONTINUOUS
 10
2.156000
 20
2.697640
  0
VERTEX
  8
0
  6
CONTINUOUS
 10
2.159080
 20
3.386240
  0
VERTEX
  8
0
  6
CONTINUOUS
 10
2.048200
 20
3.381400
  0
VERTEX
  8
0
  6
CONTINUOUS
 10
2.044680
 20
2.693240
  0
VERTEX
  8
0
  6
CONTINUOUS
 10
2.156000
 20
2.697640
  0
SEQEND
  8
0
  0
SOLID
  8
0
 62
    15
 10
2.044680
 20
2.693240
 11
2.048200
 21
3.381400
 12
1.938640
 22
2.672560
 13
1.941720
 23
3.360720
  0
POLYLINE
  8
0
  6
CONTINUOUS
 66
     1
 40
0.000000
 41
0.000000
  0
VERTEX
  8
0
  6
CONTINUOUS
 10
2.044680
 20
2.693240
  0
VERTEX
  8
0
  6
CONTINUOUS
 10
2.048200
 20
3.381400
  0
VERTEX
  8
0
  6
CONTINUOUS
 10
1.941720
 20
3.360720
  0
VERTEX
  8
0
  6
CONTINUOUS
 10
1.938640
 20
2.672560
  0
VERTEX
  8
0
  6
CONTINUOUS
 10
2.044680
 20
2.693240
  0
SEQEND
  8
0
  0
SOLID
  8
0
 62
    15
 10
3.392840
 20
2.823920
 11
3.395920
 21
3.512080
 12
2.269960
 22
2.823920
 13
2.273040
 23
3.512080
  0
POLYLINE
  8
0
  6
CONTINUOUS
 66
     1
 40
0.000000
 41
0.000000
  0
VERTEX
  8
0
  6
CONTINUOUS
 10
3.392840
 20
2.823920
  0
VERTEX
  8
0
  6
CONTINUOUS
 10
3.395920
 20
3.512080
  0
VERTEX
  8
0
  6
CONTINUOUS
 10
2.273040
 20
3.512080
  0
VERTEX
  8
0
  6
CONTINUOUS
 10
2.269960
 20
2.823920
  0
VERTEX
  8
0
  6
CONTINUOUS
 10
3.392840
 20
2.823920
  0
SEQEND
  8
0
  0
SOLID
  8
0
 62
    15
 10
1.842280
 20
2.633400
 11
1.845360
 21
3.321560
 12
1.760880
 22
2.573120
 13
1.763960
 23
3.261280
  0
POLYLINE
  8
0
  6
CONTINUOUS
 66
     1
 40
0.000000
 41
0.000000
  0
VERTEX
  8
0
  6
CONTINUOUS
 10
1.842280
 20
2.633400
  0
VERTEX
  8
0
  6
CONTINUOUS
 10
1.845360
 20
3.321560
  0
VERTEX
  8
0
  6
CONTINUOUS
 10
1.763960
 20
3.261280
  0
VERTEX
  8
0
  6
CONTINUOUS
 10
1.760880
 20
2.573120
  0
VERTEX
  8
0
  6
CONTINUOUS
 10
1.842280
 20
2.633400
  0
SEQEND
  8
0
  0
SOLID
  8
0
 62
    15
 10
1.760880
 20
2.573120
 11
1.763960
 21
3.261280
 12
1.699720
 22
2.489520
 13
1.702800
 23
3.177680
  0
POLYLINE
  8
0
  6
CONTINUOUS
 66
     1
 40
0.000000
 41
0.000000
  0
VERTEX
  8
0
  6
CONTINUOUS
 10
1.760880
 20
2.573120
  0
VERTEX
  8
0
  6
CONTINUOUS
 10
1.763960
 20
3.261280
  0
VERTEX
  8
0
  6
CONTINUOUS
 10
1.702800
 20
3.177680
  0
VERTEX
  8
0
  6
CONTINUOUS
 10
1.699720
 20
2.489520
  0
VERTEX
  8
0
  6
CONTINUOUS
 10
1.760880
 20
2.573120
  0
SEQEND
  8
0
  0
SOLID
  8
0
 62
    15
 10
1.699720
 20
2.489520
 11
1.702800
 21
3.177680
 12
1.678160
 22
2.438040
 13
1.681240
 23
3.126200
  0
POLYLINE
  8
0
  6
CONTINUOUS
 66
     1
 40
0.000000
 41
0.000000
  0
VERTEX
  8
0
  6
CONTINUOUS
 10
1.699720
 20
2.489520
  0
VERTEX
  8
0
  6
CONTINUOUS
 10
1.702800
 20
3.177680
  0
VERTEX
  8
0
  6
CONTINUOUS
 10
1.681240
 20
3.126200
  0
VERTEX
  8
0
  6
CONTINUOUS
 10
1.678160
 20
2.438040
  0
VERTEX
  8
0
  6
CONTINUOUS
 10
1.699720
 20
2.489520
  0
SEQEND
  8
0
  0
SOLID
  8
0
 62
    15
 10
1.678160
 20
2.438040
 11
1.681240
 21
3.126200
 12
1.663200
 22
2.379520
 13
1.666280
 23
3.068120
  0
POLYLINE
  8
0
  6
CONTINUOUS
 66
     1
 40
0.000000
 41
0.000000
  0
VERTEX
  8
0
  6
CONTINUOUS
 10
1.678160
 20
2.438040
  0
VERTEX
  8
0
  6
CONTINUOUS
 10
1.681240
 20
3.126200
  0
VERTEX
  8
0
  6
CONTINUOUS
 10
1.666280
 20
3.068120
  0
VERTEX
  8
0
  6
CONTINUOUS
 10
1.663200
 20
2.379520
  0
VERTEX
  8
0
  6
CONTINUOUS
 10
1.678160
 20
2.438040
  0
SEQEND
  8
0
  0
SOLID
  8
0
 62
    15
 10
1.657040
 20
2.240040
 11
1.660120
 21
2.928200
 12
1.538680
 22
2.240040
 13
1.541760
 23
2.928200
  0
POLYLINE
  8
0
  6
CONTINUOUS
 66
     1
 40
0.000000
 41
0.000000
  0
VERTEX
  8
0
  6
CONTINUOUS
 10
1.657040
 20
2.240040
  0
VERTEX
  8
0
  6
CONTINUOUS
 10
1.660120
 20
2.928200
  0
VERTEX
  8
0
  6
CONTINUOUS
 10
1.541760
 20
2.928200
  0
VERTEX
  8
0
  6
CONTINUOUS
 10
1.538680
 20
2.240040
  0
VERTEX
  8
0
  6
CONTINUOUS
 10
1.657040
 20
2.240040
  0
SEQEND
  8
0
  0
SOLID
  8
0
 62
    15
 10
1.663200
 20
2.379520
 11
1.666280
 21
3.068120
 12
1.656160
 22
2.314400
 13
1.659240
 23
3.002560
  0
POLYLINE
  8
0
  6
CONTINUOUS
 66
     1
 40
0.000000
 41
0.000000
  0
VERTEX
  8
0
  6
CONTINUOUS
 10
1.663200
 20
2.379520
  0
VERTEX
  8
0
  6
CONTINUOUS
 10
1.666280
 20
3.068120
  0
VERTEX
  8
0
  6
CONTINUOUS
 10
1.659240
 20
3.002560
  0
VERTEX
  8
0
  6
CONTINUOUS
 10
1.656160
 20
2.314400
  0
VERTEX
  8
0
  6
CONTINUOUS
 10
1.663200
 20
2.379520
  0
SEQEND
  8
0
  0
POLYLINE
  8
0
  6
CONTINUOUS
 66
     1
 40
0.000000
 41
0.000000
  0
VERTEX
  8
0
  6
CONTINUOUS
 10
1.541320
 20
2.241360
  0
VERTEX
  8
0
  6
CONTINUOUS
 10
1.541320
 20
1.025200
  0
VERTEX
  8
0
  6
CONTINUOUS
 10
3.162280
 20
1.025200
  0
VERTEX
  8
0
  6
CONTINUOUS
 10
3.162280
 20
2.162600
  0
VERTEX
  8
0
  6
CONTINUOUS
 10
3.392840
 20
2.162600
  0
VERTEX
  8
0
  6
CONTINUOUS
 10
3.392840
 20
2.823920
  0
VERTEX
  8
0
  6
CONTINUOUS
 10
2.269960
 20
2.823920
  0
VERTEX
  8
0
  6
CONTINUOUS
 10
2.269960
 20
2.689280
  0
VERTEX
  8
0
  6
CONTINUOUS
 10
2.267320
 20
2.689280
  0
VERTEX
  8
0
  6
CONTINUOUS
 10
2.156000
 20
2.697640
  0
VERTEX
  8
0
  6
CONTINUOUS
 10
2.044680
 20
2.693240
  0
VERTEX
  8
0
  6
CONTINUOUS
 10
1.938640
 20
2.672560
  0
VERTEX
  8
0
  6
CONTINUOUS
 10
1.842280
 20
2.633400
  0
VERTEX
  8
0
  6
CONTINUOUS
 10
1.760880
 20
2.573120
  0
VERTEX
  8
0
  6
CONTINUOUS
 10
1.699720
 20
2.489520
  0
VERTEX
  8
0
  6
CONTINUOUS
 10
1.678160
 20
2.438040
  0
VERTEX
  8
0
  6
CONTINUOUS
 10
1.663200
 20
2.379520
  0
VERTEX
  8
0
  6
CONTINUOUS
 10
1.656160
 20
2.314400
  0
VERTEX
  8
0
  6
CONTINUOUS
 10
1.657040
 20
2.240040
  0
VERTEX
  8
0
  6
CONTINUOUS
 10
1.538680
 20
2.240040
  0
VERTEX
  8
0
  6
CONTINUOUS
 10
1.541320
 20
2.241360
  0
SEQEND
  8
0
  0
TEXT
  8
0
 10
3.328600
 20
1.124200
 40
0.137976
  1
B
 41
1.000000
  7
SN0
 71
     0
 72
     5
 11
3.439604
 21
1.124200
  0
TEXT
  8
0
 10
1.675520
 20
1.124200
 40
0.137976
  1
A
 41
1.000000
  7
SN0
 71
     0
 72
     5
 11
1.786524
 21
1.124200
  0
TEXT
  8
0
 10
3.187360
 20
0.734800
 40
0.137976
  1
BA  130 A  1-13/16" x  1-7/8"
 41
1.000000
  7
SN0
 71
     0
 72
     5
 11
5.304493
 21
0.734800
  0
TEXT
  8
0
 10
3.187360
 20
0.542960
 40
0.137976
  1
BA  130 B  1-3/4" x 3-1/2"
 41
1.000000
  7
SN0
 71
     0
 72
     5
 11
5.074153
 21
0.542960
  0
ENDSEC
  0
EOF
