  0
SECTION
  2
HEADER
  9
$ACADVER
  1
AC1006
  9
$EXTMIN
 10
1.173920
 20
3.703920
  9
$EXTMAX
 10
5.997200
 20
8.189720
  9
$LTSCALE
 40
0.044000
  9
$PDMODE
 70
    35
  9
$PDSIZE
 40
0.035200
  0
ENDSEC
  0
SECTION
  2
TABLES
  0
TABLE
  2
LTYPE
 70
     9
  0
LTYPE
  2
CONTINUOUS
 70
    64
  3
Solid line
 72
    65
 73
     0
 40
0.000000
  0
LTYPE
  2
DASHED
 70
    64
  3
__ __ __ __ __ __ __ __ __ __ __ __ __ __ __
 72
    65
 73
     2
 40
0.000330
 49
0.000220
 49
-0.000110
  0
LTYPE
  2
HIDDEN
 70
    64
  3
 _ _ _ _ _ _ _ _ _ _ _ _ _ _ _ _ _ _ _ _ _ _
 72
    65
 73
     2
 40
0.000165
 49
0.000110
 49
-0.000055
  0
LTYPE
  2
CENTER
 70
    64
  3
____ _ ____ _ ____ _ ____ _ ____ _ ____ _ ____
 72
    65
 73
     4
 40
0.000880
 49
0.000550
 49
-0.000110
 49
0.000110
 49
-0.000110
  0
LTYPE
  2
PHANTOM
 70
    64
  3
_____ _ _ _____ _ _ _____ _ _ _____ _ _ ____
 72
    65
 73
     6
 40
0.001100
 49
0.000550
 49
-0.000110
 49
0.000110
 49
-0.000110
 49
0.000110
 49
-0.000110
  0
LTYPE
  2
DOT
 70
    64
  3
...............................................
 72
    65
 73
     2
 40
0.000110
 49
0.000000
 49
-0.000110
  0
LTYPE
  2
DASHDOT
 70
    64
  3
__ . __ . __ . __ . __ . __ . __ . __ . __ . __
 72
    65
 73
     4
 40
0.000440
 49
0.000220
 49
-0.000110
 49
0.000000
 49
-0.000110
  0
LTYPE
  2
BORDER
 70
    64
  3
__ __ . __ __ . __ __ . __ __ . __ __ . __ __
 72
    65
 73
     6
 40
0.000770
 49
0.000220
 49
-0.000110
 49
0.000220
 49
-0.000110
 49
0.000000
 49
-0.000110
  0
LTYPE
  2
DIVIDE
 70
    64
  3
__ . . __ . . __ . . __ . . __ . . __ . . __
 72
    65
 73
     6
 40
0.000550
 49
0.000220
 49
-0.000110
 49
0.000000
 49
-0.000110
 49
0.000000
 49
-0.000110
  0
LTYPE
  2
DOTDOT
 70
    64
  3
 . .  . .  . .  . .  . .  . . 
 72
    65
 73
     5
 40
0.000242
 49
-0.000110
 49
0.000000
 49
-0.000110
 49
0.000000
 49
-0.000110
  0
ENDTAB
  0
TABLE
  2
STYLE
 70
     2
  0
STYLE
 70
     0
  2
SN0
 40
0.000000
 41
0.000440
 50
0.000000
 71
     0
 42
0.000000
  3
ROMAND
  0
STYLE
 70
    68
  2
SV0
 40
0.000000
 41
0.000440
 50
0.000000
 71
     0
 42
0.000000
  3
ROMAND
  0
ENDTAB
  0
TABLE
  2
LAYER
 70
     3
  0
LAYER
  2
FOREGROUND
 70
    64
 62
     7
  6
CONTINUOUS
  0
LAYER
  2
BACKGROUND
 70
    65
 62
    -7
  6
CONTINUOUS
  0
LAYER
  2
0
 70
    64
 62
     7
  6
CONTINUOUS
  0
ENDTAB
  0
ENDSEC
  0
SECTION
  2
ENTITIES
  0
POLYLINE
  8
FOREGROUND
  6
CONTINUOUS
 66
     1
 40
0.000000
 41
0.000000
  0
VERTEX
  8
FOREGROUND
  6
CONTINUOUS
 10
0.000000
 20
11.893640
  0
VERTEX
  8
FOREGROUND
  6
CONTINUOUS
 10
8.499920
 20
11.893640
  0
VERTEX
  8
FOREGROUND
  6
CONTINUOUS
 10
8.499920
 20
0.893640
  0
VERTEX
  8
FOREGROUND
  6
CONTINUOUS
 10
0.000000
 20
0.893640
  0
VERTEX
  8
FOREGROUND
  6
CONTINUOUS
 10
0.000000
 20
11.893640
  0
SEQEND
  8
0
  0
POLYLINE
  8
FOREGROUND
  6
CONTINUOUS
 66
     1
 40
0.000000
 41
0.000000
  0
VERTEX
  8
FOREGROUND
  6
CONTINUOUS
 10
0.000000
 20
11.893640
  0
VERTEX
  8
FOREGROUND
  6
CONTINUOUS
 10
8.499920
 20
11.893640
  0
VERTEX
  8
FOREGROUND
  6
CONTINUOUS
 10
8.499920
 20
0.893640
  0
VERTEX
  8
FOREGROUND
  6
CONTINUOUS
 10
0.000000
 20
0.893640
  0
VERTEX
  8
FOREGROUND
  6
CONTINUOUS
 10
0.000000
 20
11.893640
  0
SEQEND
  8
0
  0
POLYLINE
  8
0
  6
CONTINUOUS
 66
     1
 40
0.014080
 41
0.014080
  0
VERTEX
  8
0
  6
CONTINUOUS
 10
1.182720
 20
5.716920
  0
VERTEX
  8
0
  6
CONTINUOUS
 10
3.182960
 20
5.716920
  0
VERTEX
  8
0
  6
CONTINUOUS
 10
3.181200
 20
5.718240
  0
VERTEX
  8
0
  6
CONTINUOUS
 10
3.179880
 20
5.769720
  0
VERTEX
  8
0
  6
CONTINUOUS
 10
3.173280
 20
5.845400
  0
VERTEX
  8
0
  6
CONTINUOUS
 10
3.160960
 20
5.919760
  0
VERTEX
  8
0
  6
CONTINUOUS
 10
3.143360
 20
5.991920
  0
VERTEX
  8
0
  6
CONTINUOUS
 10
3.120480
 20
6.062320
  0
VERTEX
  8
0
  6
CONTINUOUS
 10
3.102440
 20
6.108080
  0
VERTEX
  8
0
  6
CONTINUOUS
 10
3.082640
 20
6.152520
  0
VERTEX
  8
0
  6
CONTINUOUS
 10
3.060640
 20
6.195640
  0
VERTEX
  8
0
  6
CONTINUOUS
 10
3.036440
 20
6.237880
  0
VERTEX
  8
0
  6
CONTINUOUS
 10
3.010480
 20
6.278800
  0
VERTEX
  8
0
  6
CONTINUOUS
 10
2.982760
 20
6.318400
  0
VERTEX
  8
0
  6
CONTINUOUS
 10
2.952840
 20
6.356680
  0
VERTEX
  8
0
  6
CONTINUOUS
 10
2.921600
 20
6.393200
  0
VERTEX
  8
0
  6
CONTINUOUS
 10
2.888600
 20
6.427960
  0
VERTEX
  8
0
  6
CONTINUOUS
 10
2.853840
 20
6.461840
  0
VERTEX
  8
0
  6
CONTINUOUS
 10
2.817320
 20
6.493520
  0
VERTEX
  8
0
  6
CONTINUOUS
 10
2.779920
 20
6.523440
  0
VERTEX
  8
0
  6
CONTINUOUS
 10
2.740760
 20
6.551600
  0
VERTEX
  8
0
  6
CONTINUOUS
 10
2.700280
 20
6.578000
  0
VERTEX
  8
0
  6
CONTINUOUS
 10
2.658480
 20
6.602640
  0
VERTEX
  8
0
  6
CONTINUOUS
 10
2.570920
 20
6.645320
  0
VERTEX
  8
0
  6
CONTINUOUS
 10
2.502720
 20
6.671720
  0
VERTEX
  8
0
  6
CONTINUOUS
 10
2.431880
 20
6.692840
  0
VERTEX
  8
0
  6
CONTINUOUS
 10
2.383920
 20
6.704280
  0
VERTEX
  8
0
  6
CONTINUOUS
 10
2.310000
 20
6.716600
  0
VERTEX
  8
0
  6
CONTINUOUS
 10
2.259400
 20
6.721880
  0
VERTEX
  8
0
  6
CONTINUOUS
 10
2.208360
 20
6.724520
  0
VERTEX
  8
0
  6
CONTINUOUS
 10
2.156880
 20
6.724520
  0
VERTEX
  8
0
  6
CONTINUOUS
 10
2.106280
 20
6.721880
  0
VERTEX
  8
0
  6
CONTINUOUS
 10
2.055680
 20
6.716600
  0
VERTEX
  8
0
  6
CONTINUOUS
 10
2.005960
 20
6.709120
  0
VERTEX
  8
0
  6
CONTINUOUS
 10
1.933360
 20
6.692840
  0
VERTEX
  8
0
  6
CONTINUOUS
 10
1.862520
 20
6.671280
  0
VERTEX
  8
0
  6
CONTINUOUS
 10
1.793880
 20
6.644880
  0
VERTEX
  8
0
  6
CONTINUOUS
 10
1.749440
 20
6.624640
  0
VERTEX
  8
0
  6
CONTINUOUS
 10
1.706320
 20
6.602200
  0
VERTEX
  8
0
  6
CONTINUOUS
 10
1.664520
 20
6.577560
  0
VERTEX
  8
0
  6
CONTINUOUS
 10
1.624040
 20
6.551160
  0
VERTEX
  8
0
  6
CONTINUOUS
 10
1.584440
 20
6.523000
  0
VERTEX
  8
0
  6
CONTINUOUS
 10
1.546600
 20
6.493080
  0
VERTEX
  8
0
  6
CONTINUOUS
 10
1.475760
 20
6.427520
  0
VERTEX
  8
0
  6
CONTINUOUS
 10
1.442320
 20
6.392320
  0
VERTEX
  8
0
  6
CONTINUOUS
 10
1.410640
 20
6.355800
  0
VERTEX
  8
0
  6
CONTINUOUS
 10
1.353000
 20
6.277920
  0
VERTEX
  8
0
  6
CONTINUOUS
 10
1.327040
 20
6.237000
  0
VERTEX
  8
0
  6
CONTINUOUS
 10
1.302840
 20
6.194760
  0
VERTEX
  8
0
  6
CONTINUOUS
 10
1.280400
 20
6.151200
  0
VERTEX
  8
0
  6
CONTINUOUS
 10
1.260600
 20
6.106760
  0
VERTEX
  8
0
  6
CONTINUOUS
 10
1.234200
 20
6.038120
  0
VERTEX
  8
0
  6
CONTINUOUS
 10
1.213080
 20
5.966840
  0
VERTEX
  8
0
  6
CONTINUOUS
 10
1.201640
 20
5.918440
  0
VERTEX
  8
0
  6
CONTINUOUS
 10
1.189320
 20
5.844080
  0
VERTEX
  8
0
  6
CONTINUOUS
 10
1.182720
 20
5.768400
  0
VERTEX
  8
0
  6
CONTINUOUS
 10
1.181400
 20
5.716920
  0
VERTEX
  8
0
  6
CONTINUOUS
 10
1.182720
 20
5.716920
  0
SEQEND
  8
0
  0
SOLID
  8
0
 62
    15
 10
4.909520
 20
7.646760
 11
5.555000
 21
8.015920
 12
4.986520
 22
7.588680
 13
5.631560
 23
7.957840
  0
POLYLINE
  8
0
  6
CONTINUOUS
 66
     1
 40
0.000000
 41
0.000000
  0
VERTEX
  8
0
  6
CONTINUOUS
 10
4.909520
 20
7.646760
  0
VERTEX
  8
0
  6
CONTINUOUS
 10
5.555000
 20
8.015920
  0
VERTEX
  8
0
  6
CONTINUOUS
 10
5.631560
 20
7.957840
  0
VERTEX
  8
0
  6
CONTINUOUS
 10
4.986520
 20
7.588680
  0
VERTEX
  8
0
  6
CONTINUOUS
 10
4.909520
 20
7.646760
  0
SEQEND
  8
0
  0
SOLID
  8
0
 62
    15
 10
3.962640
 20
7.740040
 11
4.608120
 21
8.109200
 12
4.054600
 22
7.774360
 13
4.700080
 23
8.143520
  0
POLYLINE
  8
0
  6
CONTINUOUS
 66
     1
 40
0.000000
 41
0.000000
  0
VERTEX
  8
0
  6
CONTINUOUS
 10
3.962640
 20
7.740040
  0
VERTEX
  8
0
  6
CONTINUOUS
 10
4.608120
 20
8.109200
  0
VERTEX
  8
0
  6
CONTINUOUS
 10
4.700080
 20
8.143520
  0
VERTEX
  8
0
  6
CONTINUOUS
 10
4.054600
 20
7.774360
  0
VERTEX
  8
0
  6
CONTINUOUS
 10
3.962640
 20
7.740040
  0
SEQEND
  8
0
  0
SOLID
  8
0
 62
    15
 10
4.054600
 20
7.774360
 11
4.700080
 21
8.143520
 12
4.150520
 22
7.799440
 13
4.795560
 23
8.168600
  0
POLYLINE
  8
0
  6
CONTINUOUS
 66
     1
 40
0.000000
 41
0.000000
  0
VERTEX
  8
0
  6
CONTINUOUS
 10
4.054600
 20
7.774360
  0
VERTEX
  8
0
  6
CONTINUOUS
 10
4.700080
 20
8.143520
  0
VERTEX
  8
0
  6
CONTINUOUS
 10
4.795560
 20
8.168600
  0
VERTEX
  8
0
  6
CONTINUOUS
 10
4.150520
 20
7.799440
  0
VERTEX
  8
0
  6
CONTINUOUS
 10
4.054600
 20
7.774360
  0
SEQEND
  8
0
  0
SOLID
  8
0
 62
    15
 10
4.150520
 20
7.799440
 11
4.795560
 21
8.168600
 12
4.249520
 22
7.814840
 13
4.895000
 23
8.184000
  0
POLYLINE
  8
0
  6
CONTINUOUS
 66
     1
 40
0.000000
 41
0.000000
  0
VERTEX
  8
0
  6
CONTINUOUS
 10
4.150520
 20
7.799440
  0
VERTEX
  8
0
  6
CONTINUOUS
 10
4.795560
 20
8.168600
  0
VERTEX
  8
0
  6
CONTINUOUS
 10
4.895000
 20
8.184000
  0
VERTEX
  8
0
  6
CONTINUOUS
 10
4.249520
 20
7.814840
  0
VERTEX
  8
0
  6
CONTINUOUS
 10
4.150520
 20
7.799440
  0
SEQEND
  8
0
  0
SOLID
  8
0
 62
    15
 10
4.249520
 20
7.814840
 11
4.895000
 21
8.184000
 12
4.351600
 22
7.820120
 13
4.997080
 23
8.189280
  0
POLYLINE
  8
0
  6
CONTINUOUS
 66
     1
 40
0.000000
 41
0.000000
  0
VERTEX
  8
0
  6
CONTINUOUS
 10
4.249520
 20
7.814840
  0
VERTEX
  8
0
  6
CONTINUOUS
 10
4.895000
 20
8.184000
  0
VERTEX
  8
0
  6
CONTINUOUS
 10
4.997080
 20
8.189280
  0
VERTEX
  8
0
  6
CONTINUOUS
 10
4.351600
 20
7.820120
  0
VERTEX
  8
0
  6
CONTINUOUS
 10
4.249520
 20
7.814840
  0
SEQEND
  8
0
  0
SOLID
  8
0
 62
    15
 10
4.351600
 20
7.820120
 11
4.997080
 21
8.189280
 12
4.453680
 22
7.814840
 13
5.098720
 23
8.184000
  0
POLYLINE
  8
0
  6
CONTINUOUS
 66
     1
 40
0.000000
 41
0.000000
  0
VERTEX
  8
0
  6
CONTINUOUS
 10
4.351600
 20
7.820120
  0
VERTEX
  8
0
  6
CONTINUOUS
 10
4.997080
 20
8.189280
  0
VERTEX
  8
0
  6
CONTINUOUS
 10
5.098720
 20
8.184000
  0
VERTEX
  8
0
  6
CONTINUOUS
 10
4.453680
 20
7.814840
  0
VERTEX
  8
0
  6
CONTINUOUS
 10
4.351600
 20
7.820120
  0
SEQEND
  8
0
  0
SOLID
  8
0
 62
    15
 10
4.453680
 20
7.814840
 11
5.098720
 21
8.184000
 12
4.552680
 22
7.799440
 13
5.197720
 23
8.168600
  0
POLYLINE
  8
0
  6
CONTINUOUS
 66
     1
 40
0.000000
 41
0.000000
  0
VERTEX
  8
0
  6
CONTINUOUS
 10
4.453680
 20
7.814840
  0
VERTEX
  8
0
  6
CONTINUOUS
 10
5.098720
 20
8.184000
  0
VERTEX
  8
0
  6
CONTINUOUS
 10
5.197720
 20
8.168600
  0
VERTEX
  8
0
  6
CONTINUOUS
 10
4.552680
 20
7.799440
  0
VERTEX
  8
0
  6
CONTINUOUS
 10
4.453680
 20
7.814840
  0
SEQEND
  8
0
  0
SOLID
  8
0
 62
    15
 10
4.552680
 20
7.799440
 11
5.197720
 21
8.168600
 12
4.648160
 22
7.774360
 13
5.293640
 23
8.143520
  0
POLYLINE
  8
0
  6
CONTINUOUS
 66
     1
 40
0.000000
 41
0.000000
  0
VERTEX
  8
0
  6
CONTINUOUS
 10
4.552680
 20
7.799440
  0
VERTEX
  8
0
  6
CONTINUOUS
 10
5.197720
 20
8.168600
  0
VERTEX
  8
0
  6
CONTINUOUS
 10
5.293640
 20
8.143520
  0
VERTEX
  8
0
  6
CONTINUOUS
 10
4.648160
 20
7.774360
  0
VERTEX
  8
0
  6
CONTINUOUS
 10
4.552680
 20
7.799440
  0
SEQEND
  8
0
  0
SOLID
  8
0
 62
    15
 10
4.648160
 20
7.774360
 11
5.293640
 21
8.143520
 12
4.739680
 22
7.740040
 13
5.385160
 23
8.109640
  0
POLYLINE
  8
0
  6
CONTINUOUS
 66
     1
 40
0.000000
 41
0.000000
  0
VERTEX
  8
0
  6
CONTINUOUS
 10
4.648160
 20
7.774360
  0
VERTEX
  8
0
  6
CONTINUOUS
 10
5.293640
 20
8.143520
  0
VERTEX
  8
0
  6
CONTINUOUS
 10
5.385160
 20
8.109640
  0
VERTEX
  8
0
  6
CONTINUOUS
 10
4.739680
 20
7.740040
  0
VERTEX
  8
0
  6
CONTINUOUS
 10
4.648160
 20
7.774360
  0
SEQEND
  8
0
  0
SOLID
  8
0
 62
    15
 10
4.739680
 20
7.740040
 11
5.385160
 21
8.109640
 12
4.827240
 22
7.697360
 13
5.472720
 23
8.066520
  0
POLYLINE
  8
0
  6
CONTINUOUS
 66
     1
 40
0.000000
 41
0.000000
  0
VERTEX
  8
0
  6
CONTINUOUS
 10
4.739680
 20
7.740040
  0
VERTEX
  8
0
  6
CONTINUOUS
 10
5.385160
 20
8.109640
  0
VERTEX
  8
0
  6
CONTINUOUS
 10
5.472720
 20
8.066520
  0
VERTEX
  8
0
  6
CONTINUOUS
 10
4.827240
 20
7.697360
  0
VERTEX
  8
0
  6
CONTINUOUS
 10
4.739680
 20
7.740040
  0
SEQEND
  8
0
  0
SOLID
  8
0
 62
    15
 10
4.827240
 20
7.697360
 11
5.472720
 21
8.066520
 12
4.909520
 22
7.646760
 13
5.555000
 23
8.015920
  0
POLYLINE
  8
0
  6
CONTINUOUS
 66
     1
 40
0.000000
 41
0.000000
  0
VERTEX
  8
0
  6
CONTINUOUS
 10
4.827240
 20
7.697360
  0
VERTEX
  8
0
  6
CONTINUOUS
 10
5.472720
 20
8.066520
  0
VERTEX
  8
0
  6
CONTINUOUS
 10
5.555000
 20
8.015920
  0
VERTEX
  8
0
  6
CONTINUOUS
 10
4.909520
 20
7.646760
  0
VERTEX
  8
0
  6
CONTINUOUS
 10
4.827240
 20
7.697360
  0
SEQEND
  8
0
  0
SOLID
  8
0
 62
    15
 10
3.875080
 20
7.697360
 11
4.520560
 21
8.066520
 12
3.962640
 22
7.740040
 13
4.608120
 23
8.109200
  0
POLYLINE
  8
0
  6
CONTINUOUS
 66
     1
 40
0.000000
 41
0.000000
  0
VERTEX
  8
0
  6
CONTINUOUS
 10
3.875080
 20
7.697360
  0
VERTEX
  8
0
  6
CONTINUOUS
 10
4.520560
 20
8.066520
  0
VERTEX
  8
0
  6
CONTINUOUS
 10
4.608120
 20
8.109200
  0
VERTEX
  8
0
  6
CONTINUOUS
 10
3.962640
 20
7.740040
  0
VERTEX
  8
0
  6
CONTINUOUS
 10
3.875080
 20
7.697360
  0
SEQEND
  8
0
  0
SOLID
  8
0
 62
    15
 10
4.986520
 20
7.588680
 11
5.631560
 21
7.957840
 12
5.057360
 22
7.523120
 13
5.702840
 23
7.892280
  0
POLYLINE
  8
0
  6
CONTINUOUS
 66
     1
 40
0.000000
 41
0.000000
  0
VERTEX
  8
0
  6
CONTINUOUS
 10
4.986520
 20
7.588680
  0
VERTEX
  8
0
  6
CONTINUOUS
 10
5.631560
 20
7.957840
  0
VERTEX
  8
0
  6
CONTINUOUS
 10
5.702840
 20
7.892280
  0
VERTEX
  8
0
  6
CONTINUOUS
 10
5.057360
 20
7.523120
  0
VERTEX
  8
0
  6
CONTINUOUS
 10
4.986520
 20
7.588680
  0
SEQEND
  8
0
  0
SOLID
  8
0
 62
    15
 10
5.057360
 20
7.523120
 11
5.702840
 21
7.892280
 12
5.122040
 22
7.451400
 13
5.767080
 23
7.820560
  0
POLYLINE
  8
0
  6
CONTINUOUS
 66
     1
 40
0.000000
 41
0.000000
  0
VERTEX
  8
0
  6
CONTINUOUS
 10
5.057360
 20
7.523120
  0
VERTEX
  8
0
  6
CONTINUOUS
 10
5.702840
 20
7.892280
  0
VERTEX
  8
0
  6
CONTINUOUS
 10
5.767080
 20
7.820560
  0
VERTEX
  8
0
  6
CONTINUOUS
 10
5.122040
 20
7.451400
  0
VERTEX
  8
0
  6
CONTINUOUS
 10
5.057360
 20
7.523120
  0
SEQEND
  8
0
  0
SOLID
  8
0
 62
    15
 10
5.122040
 20
7.451400
 11
5.767080
 21
7.820560
 12
5.179240
 22
7.373960
 13
5.824720
 23
7.743120
  0
POLYLINE
  8
0
  6
CONTINUOUS
 66
     1
 40
0.000000
 41
0.000000
  0
VERTEX
  8
0
  6
CONTINUOUS
 10
5.122040
 20
7.451400
  0
VERTEX
  8
0
  6
CONTINUOUS
 10
5.767080
 20
7.820560
  0
VERTEX
  8
0
  6
CONTINUOUS
 10
5.824720
 20
7.743120
  0
VERTEX
  8
0
  6
CONTINUOUS
 10
5.179240
 20
7.373960
  0
VERTEX
  8
0
  6
CONTINUOUS
 10
5.122040
 20
7.451400
  0
SEQEND
  8
0
  0
SOLID
  8
0
 62
    15
 10
5.179240
 20
7.373960
 11
5.824720
 21
7.743120
 12
5.229400
 22
7.290800
 13
5.874880
 23
7.659960
  0
POLYLINE
  8
0
  6
CONTINUOUS
 66
     1
 40
0.000000
 41
0.000000
  0
VERTEX
  8
0
  6
CONTINUOUS
 10
5.179240
 20
7.373960
  0
VERTEX
  8
0
  6
CONTINUOUS
 10
5.824720
 20
7.743120
  0
VERTEX
  8
0
  6
CONTINUOUS
 10
5.874880
 20
7.659960
  0
VERTEX
  8
0
  6
CONTINUOUS
 10
5.229400
 20
7.290800
  0
VERTEX
  8
0
  6
CONTINUOUS
 10
5.179240
 20
7.373960
  0
SEQEND
  8
0
  0
SOLID
  8
0
 62
    15
 10
5.229400
 20
7.290800
 11
5.874880
 21
7.659960
 12
5.271640
 22
7.202800
 13
5.917120
 23
7.572400
  0
POLYLINE
  8
0
  6
CONTINUOUS
 66
     1
 40
0.000000
 41
0.000000
  0
VERTEX
  8
0
  6
CONTINUOUS
 10
5.229400
 20
7.290800
  0
VERTEX
  8
0
  6
CONTINUOUS
 10
5.874880
 20
7.659960
  0
VERTEX
  8
0
  6
CONTINUOUS
 10
5.917120
 20
7.572400
  0
VERTEX
  8
0
  6
CONTINUOUS
 10
5.271640
 20
7.202800
  0
VERTEX
  8
0
  6
CONTINUOUS
 10
5.229400
 20
7.290800
  0
SEQEND
  8
0
  0
SOLID
  8
0
 62
    15
 10
5.271640
 20
7.202800
 11
5.917120
 21
7.572400
 12
5.305080
 22
7.110840
 13
5.950560
 23
7.480000
  0
POLYLINE
  8
0
  6
CONTINUOUS
 66
     1
 40
0.000000
 41
0.000000
  0
VERTEX
  8
0
  6
CONTINUOUS
 10
5.271640
 20
7.202800
  0
VERTEX
  8
0
  6
CONTINUOUS
 10
5.917120
 20
7.572400
  0
VERTEX
  8
0
  6
CONTINUOUS
 10
5.950560
 20
7.480000
  0
VERTEX
  8
0
  6
CONTINUOUS
 10
5.305080
 20
7.110840
  0
VERTEX
  8
0
  6
CONTINUOUS
 10
5.271640
 20
7.202800
  0
SEQEND
  8
0
  0
SOLID
  8
0
 62
    15
 10
5.305080
 20
7.110840
 11
5.950560
 21
7.480000
 12
5.329720
 22
7.014920
 13
5.975200
 23
7.384080
  0
POLYLINE
  8
0
  6
CONTINUOUS
 66
     1
 40
0.000000
 41
0.000000
  0
VERTEX
  8
0
  6
CONTINUOUS
 10
5.305080
 20
7.110840
  0
VERTEX
  8
0
  6
CONTINUOUS
 10
5.950560
 20
7.480000
  0
VERTEX
  8
0
  6
CONTINUOUS
 10
5.975200
 20
7.384080
  0
VERTEX
  8
0
  6
CONTINUOUS
 10
5.329720
 20
7.014920
  0
VERTEX
  8
0
  6
CONTINUOUS
 10
5.305080
 20
7.110840
  0
SEQEND
  8
0
  0
SOLID
  8
0
 62
    15
 10
5.329720
 20
7.014920
 11
5.975200
 21
7.384080
 12
5.345120
 22
6.915480
 13
5.990600
 23
7.284640
  0
POLYLINE
  8
0
  6
CONTINUOUS
 66
     1
 40
0.000000
 41
0.000000
  0
VERTEX
  8
0
  6
CONTINUOUS
 10
5.329720
 20
7.014920
  0
VERTEX
  8
0
  6
CONTINUOUS
 10
5.975200
 20
7.384080
  0
VERTEX
  8
0
  6
CONTINUOUS
 10
5.990600
 20
7.284640
  0
VERTEX
  8
0
  6
CONTINUOUS
 10
5.345120
 20
6.915480
  0
VERTEX
  8
0
  6
CONTINUOUS
 10
5.329720
 20
7.014920
  0
SEQEND
  8
0
  0
SOLID
  8
0
 62
    15
 10
5.345120
 20
6.915480
 11
5.990600
 21
7.284640
 12
5.350400
 22
6.813400
 13
5.995440
 23
7.182560
  0
POLYLINE
  8
0
  6
CONTINUOUS
 66
     1
 40
0.000000
 41
0.000000
  0
VERTEX
  8
0
  6
CONTINUOUS
 10
5.345120
 20
6.915480
  0
VERTEX
  8
0
  6
CONTINUOUS
 10
5.990600
 20
7.284640
  0
VERTEX
  8
0
  6
CONTINUOUS
 10
5.995440
 20
7.182560
  0
VERTEX
  8
0
  6
CONTINUOUS
 10
5.350400
 20
6.813400
  0
VERTEX
  8
0
  6
CONTINUOUS
 10
5.345120
 20
6.915480
  0
SEQEND
  8
0
  0
SOLID
  8
0
 62
    15
 10
5.350400
 20
6.813400
 11
5.995440
 21
7.182560
 12
5.351720
 22
6.812080
 13
5.996760
 23
7.181240
  0
POLYLINE
  8
0
  6
CONTINUOUS
 66
     1
 40
0.000000
 41
0.000000
  0
VERTEX
  8
0
  6
CONTINUOUS
 10
5.350400
 20
6.813400
  0
VERTEX
  8
0
  6
CONTINUOUS
 10
5.995440
 20
7.182560
  0
VERTEX
  8
0
  6
CONTINUOUS
 10
5.996760
 20
7.181240
  0
VERTEX
  8
0
  6
CONTINUOUS
 10
5.351720
 20
6.812080
  0
VERTEX
  8
0
  6
CONTINUOUS
 10
5.350400
 20
6.813400
  0
SEQEND
  8
0
  0
POLYLINE
  8
0
  6
CONTINUOUS
 66
     1
 40
0.000000
 41
0.000000
  0
VERTEX
  8
0
  6
CONTINUOUS
 10
3.350160
 20
6.812080
  0
VERTEX
  8
0
  6
CONTINUOUS
 10
3.355440
 20
6.914160
  0
VERTEX
  8
0
  6
CONTINUOUS
 10
3.370840
 20
7.013600
  0
VERTEX
  8
0
  6
CONTINUOUS
 10
3.395480
 20
7.109520
  0
VERTEX
  8
0
  6
CONTINUOUS
 10
3.429360
 20
7.201920
  0
VERTEX
  8
0
  6
CONTINUOUS
 10
3.471600
 20
7.289920
  0
VERTEX
  8
0
  6
CONTINUOUS
 10
3.521760
 20
7.373080
  0
VERTEX
  8
0
  6
CONTINUOUS
 10
3.579840
 20
7.450520
  0
VERTEX
  8
0
  6
CONTINUOUS
 10
3.644520
 20
7.522680
  0
VERTEX
  8
0
  6
CONTINUOUS
 10
3.715800
 20
7.587800
  0
VERTEX
  8
0
  6
CONTINUOUS
 10
3.792800
 20
7.646320
  0
VERTEX
  8
0
  6
CONTINUOUS
 10
3.875080
 20
7.697360
  0
VERTEX
  8
0
  6
CONTINUOUS
 10
3.962640
 20
7.740040
  0
VERTEX
  8
0
  6
CONTINUOUS
 10
4.054600
 20
7.774360
  0
VERTEX
  8
0
  6
CONTINUOUS
 10
4.150520
 20
7.799440
  0
VERTEX
  8
0
  6
CONTINUOUS
 10
4.249520
 20
7.814840
  0
VERTEX
  8
0
  6
CONTINUOUS
 10
4.351600
 20
7.820120
  0
VERTEX
  8
0
  6
CONTINUOUS
 10
4.453680
 20
7.814840
  0
VERTEX
  8
0
  6
CONTINUOUS
 10
4.552680
 20
7.799440
  0
VERTEX
  8
0
  6
CONTINUOUS
 10
4.648160
 20
7.774360
  0
VERTEX
  8
0
  6
CONTINUOUS
 10
4.739680
 20
7.740040
  0
VERTEX
  8
0
  6
CONTINUOUS
 10
4.827240
 20
7.697360
  0
VERTEX
  8
0
  6
CONTINUOUS
 10
4.909520
 20
7.646760
  0
VERTEX
  8
0
  6
CONTINUOUS
 10
4.986520
 20
7.588680
  0
VERTEX
  8
0
  6
CONTINUOUS
 10
5.057360
 20
7.523120
  0
VERTEX
  8
0
  6
CONTINUOUS
 10
5.122040
 20
7.451400
  0
VERTEX
  8
0
  6
CONTINUOUS
 10
5.179240
 20
7.373960
  0
VERTEX
  8
0
  6
CONTINUOUS
 10
5.229400
 20
7.290800
  0
VERTEX
  8
0
  6
CONTINUOUS
 10
5.271640
 20
7.202800
  0
VERTEX
  8
0
  6
CONTINUOUS
 10
5.305080
 20
7.110840
  0
VERTEX
  8
0
  6
CONTINUOUS
 10
5.329720
 20
7.014920
  0
VERTEX
  8
0
  6
CONTINUOUS
 10
5.345120
 20
6.915480
  0
VERTEX
  8
0
  6
CONTINUOUS
 10
5.350400
 20
6.813400
  0
VERTEX
  8
0
  6
CONTINUOUS
 10
5.351720
 20
6.812080
  0
VERTEX
  8
0
  6
CONTINUOUS
 10
3.351480
 20
6.812080
  0
VERTEX
  8
0
  6
CONTINUOUS
 10
3.350160
 20
6.812080
  0
SEQEND
  8
0
  0
TEXT
  8
0
 10
4.139080
 20
6.577560
 40
0.138172
  1
BA  129 & 210
 41
1.000000
  7
SN0
 71
     0
 72
     5
 11
5.209848
 21
6.577560
  0
TEXT
  8
0
 10
4.598880
 20
6.386160
 40
0.138172
  1
2"
 41
1.000000
  7
SN0
 71
     0
 72
     5
 11
4.750331
 21
6.386160
  0
SOLID
  8
0
 62
    15
 10
3.087920
 20
4.712400
 11
3.721520
 21
5.072320
 12
5.087720
 22
4.712400
 13
5.721320
 23
5.072320
  0
POLYLINE
  8
0
  6
CONTINUOUS
 66
     1
 40
0.000000
 41
0.000000
  0
VERTEX
  8
0
  6
CONTINUOUS
 10
3.087920
 20
4.712400
  0
VERTEX
  8
0
  6
CONTINUOUS
 10
3.721520
 20
5.072320
  0
VERTEX
  8
0
  6
CONTINUOUS
 10
5.721320
 20
5.072320
  0
VERTEX
  8
0
  6
CONTINUOUS
 10
5.087720
 20
4.712400
  0
VERTEX
  8
0
  6
CONTINUOUS
 10
3.087920
 20
4.712400
  0
SEQEND
  8
0
  0
SOLID
  8
0
 62
    15
 10
3.607120
 20
5.600760
 11
4.240720
 21
5.960240
 12
3.694680
 22
5.643440
 13
4.328280
 23
6.003360
  0
POLYLINE
  8
0
  6
CONTINUOUS
 66
     1
 40
0.000000
 41
0.000000
  0
VERTEX
  8
0
  6
CONTINUOUS
 10
3.607120
 20
5.600760
  0
VERTEX
  8
0
  6
CONTINUOUS
 10
4.240720
 20
5.960240
  0
VERTEX
  8
0
  6
CONTINUOUS
 10
4.328280
 20
6.003360
  0
VERTEX
  8
0
  6
CONTINUOUS
 10
3.694680
 20
5.643440
  0
VERTEX
  8
0
  6
CONTINUOUS
 10
3.607120
 20
5.600760
  0
SEQEND
  8
0
  0
SOLID
  8
0
 62
    15
 10
3.786640
 20
5.677760
 11
4.420240
 21
6.037680
 12
3.882560
 22
5.702840
 13
4.516160
 23
6.062760
  0
POLYLINE
  8
0
  6
CONTINUOUS
 66
     1
 40
0.000000
 41
0.000000
  0
VERTEX
  8
0
  6
CONTINUOUS
 10
3.786640
 20
5.677760
  0
VERTEX
  8
0
  6
CONTINUOUS
 10
4.420240
 20
6.037680
  0
VERTEX
  8
0
  6
CONTINUOUS
 10
4.516160
 20
6.062760
  0
VERTEX
  8
0
  6
CONTINUOUS
 10
3.882560
 20
5.702840
  0
VERTEX
  8
0
  6
CONTINUOUS
 10
3.786640
 20
5.677760
  0
SEQEND
  8
0
  0
SOLID
  8
0
 62
    15
 10
3.882560
 20
5.702840
 11
4.516160
 21
6.062760
 12
3.981560
 22
5.718240
 13
4.615160
 23
6.078160
  0
POLYLINE
  8
0
  6
CONTINUOUS
 66
     1
 40
0.000000
 41
0.000000
  0
VERTEX
  8
0
  6
CONTINUOUS
 10
3.882560
 20
5.702840
  0
VERTEX
  8
0
  6
CONTINUOUS
 10
4.516160
 20
6.062760
  0
VERTEX
  8
0
  6
CONTINUOUS
 10
4.615160
 20
6.078160
  0
VERTEX
  8
0
  6
CONTINUOUS
 10
3.981560
 20
5.718240
  0
VERTEX
  8
0
  6
CONTINUOUS
 10
3.882560
 20
5.702840
  0
SEQEND
  8
0
  0
SOLID
  8
0
 62
    15
 10
3.981560
 20
5.718240
 11
4.615160
 21
6.078160
 12
4.083640
 22
5.723520
 13
4.717240
 23
6.083440
  0
POLYLINE
  8
0
  6
CONTINUOUS
 66
     1
 40
0.000000
 41
0.000000
  0
VERTEX
  8
0
  6
CONTINUOUS
 10
3.981560
 20
5.718240
  0
VERTEX
  8
0
  6
CONTINUOUS
 10
4.615160
 20
6.078160
  0
VERTEX
  8
0
  6
CONTINUOUS
 10
4.717240
 20
6.083440
  0
VERTEX
  8
0
  6
CONTINUOUS
 10
4.083640
 20
5.723520
  0
VERTEX
  8
0
  6
CONTINUOUS
 10
3.981560
 20
5.718240
  0
SEQEND
  8
0
  0
SOLID
  8
0
 62
    15
 10
4.083640
 20
5.723520
 11
4.717240
 21
6.083440
 12
4.185720
 22
5.718240
 13
4.819320
 23
6.078160
  0
POLYLINE
  8
0
  6
CONTINUOUS
 66
     1
 40
0.000000
 41
0.000000
  0
VERTEX
  8
0
  6
CONTINUOUS
 10
4.083640
 20
5.723520
  0
VERTEX
  8
0
  6
CONTINUOUS
 10
4.717240
 20
6.083440
  0
VERTEX
  8
0
  6
CONTINUOUS
 10
4.819320
 20
6.078160
  0
VERTEX
  8
0
  6
CONTINUOUS
 10
4.185720
 20
5.718240
  0
VERTEX
  8
0
  6
CONTINUOUS
 10
4.083640
 20
5.723520
  0
SEQEND
  8
0
  0
SOLID
  8
0
 62
     7
 10
4.185720
 20
5.718240
 11
4.819320
 21
6.078160
 12
4.284720
 22
5.702840
 13
4.918320
 23
6.062760
  0
POLYLINE
  8
0
  6
CONTINUOUS
 66
     1
 40
0.000000
 41
0.000000
  0
VERTEX
  8
0
  6
CONTINUOUS
 10
4.185720
 20
5.718240
  0
VERTEX
  8
0
  6
CONTINUOUS
 10
4.819320
 20
6.078160
  0
VERTEX
  8
0
  6
CONTINUOUS
 10
4.918320
 20
6.062760
  0
VERTEX
  8
0
  6
CONTINUOUS
 10
4.284720
 20
5.702840
  0
VERTEX
  8
0
  6
CONTINUOUS
 10
4.185720
 20
5.718240
  0
SEQEND
  8
0
  0
SOLID
  8
0
 62
     7
 10
4.284720
 20
5.702840
 11
4.918320
 21
6.062760
 12
4.380200
 22
5.677760
 13
5.013800
 23
6.037680
  0
POLYLINE
  8
0
  6
CONTINUOUS
 66
     1
 40
0.000000
 41
0.000000
  0
VERTEX
  8
0
  6
CONTINUOUS
 10
4.284720
 20
5.702840
  0
VERTEX
  8
0
  6
CONTINUOUS
 10
4.918320
 20
6.062760
  0
VERTEX
  8
0
  6
CONTINUOUS
 10
5.013800
 20
6.037680
  0
VERTEX
  8
0
  6
CONTINUOUS
 10
4.380200
 20
5.677760
  0
VERTEX
  8
0
  6
CONTINUOUS
 10
4.284720
 20
5.702840
  0
SEQEND
  8
0
  0
SOLID
  8
0
 62
     7
 10
4.380200
 20
5.677760
 11
5.013800
 21
6.037680
 12
4.471720
 22
5.643440
 13
5.105320
 23
6.003360
  0
POLYLINE
  8
0
  6
CONTINUOUS
 66
     1
 40
0.000000
 41
0.000000
  0
VERTEX
  8
0
  6
CONTINUOUS
 10
4.380200
 20
5.677760
  0
VERTEX
  8
0
  6
CONTINUOUS
 10
5.013800
 20
6.037680
  0
VERTEX
  8
0
  6
CONTINUOUS
 10
5.105320
 20
6.003360
  0
VERTEX
  8
0
  6
CONTINUOUS
 10
4.471720
 20
5.643440
  0
VERTEX
  8
0
  6
CONTINUOUS
 10
4.380200
 20
5.677760
  0
SEQEND
  8
0
  0
SOLID
  8
0
 62
     7
 10
4.471720
 20
5.643440
 11
5.105320
 21
6.003360
 12
4.559280
 22
5.600760
 13
5.192880
 23
5.960680
  0
POLYLINE
  8
0
  6
CONTINUOUS
 66
     1
 40
0.000000
 41
0.000000
  0
VERTEX
  8
0
  6
CONTINUOUS
 10
4.471720
 20
5.643440
  0
VERTEX
  8
0
  6
CONTINUOUS
 10
5.105320
 20
6.003360
  0
VERTEX
  8
0
  6
CONTINUOUS
 10
5.192880
 20
5.960680
  0
VERTEX
  8
0
  6
CONTINUOUS
 10
4.559280
 20
5.600760
  0
VERTEX
  8
0
  6
CONTINUOUS
 10
4.471720
 20
5.643440
  0
SEQEND
  8
0
  0
SOLID
  8
0
 62
     7
 10
4.559280
 20
5.600760
 11
5.192880
 21
5.960680
 12
4.641560
 22
5.550160
 13
5.275160
 23
5.910080
  0
POLYLINE
  8
0
  6
CONTINUOUS
 66
     1
 40
0.000000
 41
0.000000
  0
VERTEX
  8
0
  6
CONTINUOUS
 10
4.559280
 20
5.600760
  0
VERTEX
  8
0
  6
CONTINUOUS
 10
5.192880
 20
5.960680
  0
VERTEX
  8
0
  6
CONTINUOUS
 10
5.275160
 20
5.910080
  0
VERTEX
  8
0
  6
CONTINUOUS
 10
4.641560
 20
5.550160
  0
VERTEX
  8
0
  6
CONTINUOUS
 10
4.559280
 20
5.600760
  0
SEQEND
  8
0
  0
SOLID
  8
0
 62
     7
 10
4.641560
 20
5.550160
 11
5.275160
 21
5.910080
 12
4.789400
 22
5.426520
 13
5.423000
 23
5.786440
  0
POLYLINE
  8
0
  6
CONTINUOUS
 66
     1
 40
0.000000
 41
0.000000
  0
VERTEX
  8
0
  6
CONTINUOUS
 10
4.641560
 20
5.550160
  0
VERTEX
  8
0
  6
CONTINUOUS
 10
5.275160
 20
5.910080
  0
VERTEX
  8
0
  6
CONTINUOUS
 10
5.423000
 20
5.786440
  0
VERTEX
  8
0
  6
CONTINUOUS
 10
4.789400
 20
5.426520
  0
VERTEX
  8
0
  6
CONTINUOUS
 10
4.641560
 20
5.550160
  0
SEQEND
  8
0
  0
SOLID
  8
0
 62
     7
 10
4.789400
 20
5.426520
 11
5.423000
 21
5.786440
 12
4.911280
 22
5.277360
 13
5.544880
 23
5.637280
  0
POLYLINE
  8
0
  6
CONTINUOUS
 66
     1
 40
0.000000
 41
0.000000
  0
VERTEX
  8
0
  6
CONTINUOUS
 10
4.789400
 20
5.426520
  0
VERTEX
  8
0
  6
CONTINUOUS
 10
5.423000
 20
5.786440
  0
VERTEX
  8
0
  6
CONTINUOUS
 10
5.544880
 20
5.637280
  0
VERTEX
  8
0
  6
CONTINUOUS
 10
4.911280
 20
5.277360
  0
VERTEX
  8
0
  6
CONTINUOUS
 10
4.789400
 20
5.426520
  0
SEQEND
  8
0
  0
SOLID
  8
0
 62
     7
 10
4.911280
 20
5.277360
 11
5.544880
 21
5.637280
 12
4.961440
 22
5.194200
 13
5.595040
 23
5.554120
  0
POLYLINE
  8
0
  6
CONTINUOUS
 66
     1
 40
0.000000
 41
0.000000
  0
VERTEX
  8
0
  6
CONTINUOUS
 10
4.911280
 20
5.277360
  0
VERTEX
  8
0
  6
CONTINUOUS
 10
5.544880
 20
5.637280
  0
VERTEX
  8
0
  6
CONTINUOUS
 10
5.595040
 20
5.554120
  0
VERTEX
  8
0
  6
CONTINUOUS
 10
4.961440
 20
5.194200
  0
VERTEX
  8
0
  6
CONTINUOUS
 10
4.911280
 20
5.277360
  0
SEQEND
  8
0
  0
SOLID
  8
0
 62
     7
 10
4.961440
 20
5.194200
 11
5.595040
 21
5.554120
 12
5.003680
 22
5.106640
 13
5.637280
 23
5.466120
  0
POLYLINE
  8
0
  6
CONTINUOUS
 66
     1
 40
0.000000
 41
0.000000
  0
VERTEX
  8
0
  6
CONTINUOUS
 10
4.961440
 20
5.194200
  0
VERTEX
  8
0
  6
CONTINUOUS
 10
5.595040
 20
5.554120
  0
VERTEX
  8
0
  6
CONTINUOUS
 10
5.637280
 20
5.466120
  0
VERTEX
  8
0
  6
CONTINUOUS
 10
5.003680
 20
5.106640
  0
VERTEX
  8
0
  6
CONTINUOUS
 10
4.961440
 20
5.194200
  0
SEQEND
  8
0
  0
SOLID
  8
0
 62
    15
 10
5.003680
 20
5.106640
 11
5.637280
 21
5.466120
 12
5.037120
 22
5.014240
 13
5.670720
 23
5.374160
  0
POLYLINE
  8
0
  6
CONTINUOUS
 66
     1
 40
0.000000
 41
0.000000
  0
VERTEX
  8
0
  6
CONTINUOUS
 10
5.003680
 20
5.106640
  0
VERTEX
  8
0
  6
CONTINUOUS
 10
5.637280
 20
5.466120
  0
VERTEX
  8
0
  6
CONTINUOUS
 10
5.670720
 20
5.374160
  0
VERTEX
  8
0
  6
CONTINUOUS
 10
5.037120
 20
5.014240
  0
VERTEX
  8
0
  6
CONTINUOUS
 10
5.003680
 20
5.106640
  0
SEQEND
  8
0
  0
SOLID
  8
0
 62
    15
 10
3.694680
 20
5.643440
 11
4.328280
 21
6.003360
 12
3.786640
 22
5.677760
 13
4.420240
 23
6.037680
  0
POLYLINE
  8
0
  6
CONTINUOUS
 66
     1
 40
0.000000
 41
0.000000
  0
VERTEX
  8
0
  6
CONTINUOUS
 10
3.694680
 20
5.643440
  0
VERTEX
  8
0
  6
CONTINUOUS
 10
4.328280
 20
6.003360
  0
VERTEX
  8
0
  6
CONTINUOUS
 10
4.420240
 20
6.037680
  0
VERTEX
  8
0
  6
CONTINUOUS
 10
3.786640
 20
5.677760
  0
VERTEX
  8
0
  6
CONTINUOUS
 10
3.694680
 20
5.643440
  0
SEQEND
  8
0
  0
SOLID
  8
0
 62
    15
 10
5.061760
 20
4.918320
 11
5.695360
 21
5.277800
 12
5.077160
 22
4.818880
 13
5.710760
 23
5.178800
  0
POLYLINE
  8
0
  6
CONTINUOUS
 66
     1
 40
0.000000
 41
0.000000
  0
VERTEX
  8
0
  6
CONTINUOUS
 10
5.061760
 20
4.918320
  0
VERTEX
  8
0
  6
CONTINUOUS
 10
5.695360
 20
5.277800
  0
VERTEX
  8
0
  6
CONTINUOUS
 10
5.710760
 20
5.178800
  0
VERTEX
  8
0
  6
CONTINUOUS
 10
5.077160
 20
4.818880
  0
VERTEX
  8
0
  6
CONTINUOUS
 10
5.061760
 20
4.918320
  0
SEQEND
  8
0
  0
SOLID
  8
0
 62
    15
 10
5.077160
 20
4.818880
 11
5.710760
 21
5.178800
 12
5.082440
 22
4.716800
 13
5.716040
 23
5.076720
  0
POLYLINE
  8
0
  6
CONTINUOUS
 66
     1
 40
0.000000
 41
0.000000
  0
VERTEX
  8
0
  6
CONTINUOUS
 10
5.077160
 20
4.818880
  0
VERTEX
  8
0
  6
CONTINUOUS
 10
5.710760
 20
5.178800
  0
VERTEX
  8
0
  6
CONTINUOUS
 10
5.716040
 20
5.076720
  0
VERTEX
  8
0
  6
CONTINUOUS
 10
5.082440
 20
4.716800
  0
VERTEX
  8
0
  6
CONTINUOUS
 10
5.077160
 20
4.818880
  0
SEQEND
  8
0
  0
SOLID
  8
0
 62
     7
 10
5.082440
 20
4.716800
 11
5.716040
 21
5.076720
 12
5.083760
 22
4.715480
 13
5.717360
 23
5.075400
  0
POLYLINE
  8
0
  6
CONTINUOUS
 66
     1
 40
0.000000
 41
0.000000
  0
VERTEX
  8
0
  6
CONTINUOUS
 10
5.082440
 20
4.716800
  0
VERTEX
  8
0
  6
CONTINUOUS
 10
5.716040
 20
5.076720
  0
VERTEX
  8
0
  6
CONTINUOUS
 10
5.717360
 20
5.075400
  0
VERTEX
  8
0
  6
CONTINUOUS
 10
5.083760
 20
4.715480
  0
VERTEX
  8
0
  6
CONTINUOUS
 10
5.082440
 20
4.716800
  0
SEQEND
  8
0
  0
SOLID
  8
0
 62
    15
 10
5.037120
 20
5.014240
 11
5.670720
 21
5.374160
 12
5.061760
 22
4.918320
 13
5.695360
 23
5.277800
  0
POLYLINE
  8
0
  6
CONTINUOUS
 66
     1
 40
0.000000
 41
0.000000
  0
VERTEX
  8
0
  6
CONTINUOUS
 10
5.037120
 20
5.014240
  0
VERTEX
  8
0
  6
CONTINUOUS
 10
5.670720
 20
5.374160
  0
VERTEX
  8
0
  6
CONTINUOUS
 10
5.695360
 20
5.277800
  0
VERTEX
  8
0
  6
CONTINUOUS
 10
5.061760
 20
4.918320
  0
VERTEX
  8
0
  6
CONTINUOUS
 10
5.037120
 20
5.014240
  0
SEQEND
  8
0
  0
SOLID
  8
0
 62
    15
 10
5.087720
 20
4.712400
 11
5.721320
 21
5.072320
 12
5.086400
 22
4.711080
 13
5.720000
 23
5.070560
  0
POLYLINE
  8
0
  6
CONTINUOUS
 66
     1
 40
0.000000
 41
0.000000
  0
VERTEX
  8
0
  6
CONTINUOUS
 10
5.087720
 20
4.712400
  0
VERTEX
  8
0
  6
CONTINUOUS
 10
5.721320
 20
5.072320
  0
VERTEX
  8
0
  6
CONTINUOUS
 10
5.720000
 20
5.070560
  0
VERTEX
  8
0
  6
CONTINUOUS
 10
5.086400
 20
4.711080
  0
VERTEX
  8
0
  6
CONTINUOUS
 10
5.087720
 20
4.712400
  0
SEQEND
  8
0
  0
SOLID
  8
0
 62
    15
 10
5.086400
 20
4.711080
 11
5.720000
 21
5.070560
 12
5.081120
 22
4.609000
 13
5.714720
 23
4.968920
  0
POLYLINE
  8
0
  6
CONTINUOUS
 66
     1
 40
0.000000
 41
0.000000
  0
VERTEX
  8
0
  6
CONTINUOUS
 10
5.086400
 20
4.711080
  0
VERTEX
  8
0
  6
CONTINUOUS
 10
5.720000
 20
5.070560
  0
VERTEX
  8
0
  6
CONTINUOUS
 10
5.714720
 20
4.968920
  0
VERTEX
  8
0
  6
CONTINUOUS
 10
5.081120
 20
4.609000
  0
VERTEX
  8
0
  6
CONTINUOUS
 10
5.086400
 20
4.711080
  0
SEQEND
  8
0
  0
SOLID
  8
0
 62
    15
 10
5.081120
 20
4.609000
 11
5.714720
 21
4.968920
 12
5.066160
 22
4.509560
 13
5.699760
 23
4.869480
  0
POLYLINE
  8
0
  6
CONTINUOUS
 66
     1
 40
0.000000
 41
0.000000
  0
VERTEX
  8
0
  6
CONTINUOUS
 10
5.081120
 20
4.609000
  0
VERTEX
  8
0
  6
CONTINUOUS
 10
5.714720
 20
4.968920
  0
VERTEX
  8
0
  6
CONTINUOUS
 10
5.699760
 20
4.869480
  0
VERTEX
  8
0
  6
CONTINUOUS
 10
5.066160
 20
4.509560
  0
VERTEX
  8
0
  6
CONTINUOUS
 10
5.081120
 20
4.609000
  0
SEQEND
  8
0
  0
SOLID
  8
0
 62
    15
 10
5.066160
 20
4.509560
 11
5.699760
 21
4.869480
 12
5.041520
 22
4.413640
 13
5.675120
 23
4.773560
  0
POLYLINE
  8
0
  6
CONTINUOUS
 66
     1
 40
0.000000
 41
0.000000
  0
VERTEX
  8
0
  6
CONTINUOUS
 10
5.066160
 20
4.509560
  0
VERTEX
  8
0
  6
CONTINUOUS
 10
5.699760
 20
4.869480
  0
VERTEX
  8
0
  6
CONTINUOUS
 10
5.675120
 20
4.773560
  0
VERTEX
  8
0
  6
CONTINUOUS
 10
5.041520
 20
4.413640
  0
VERTEX
  8
0
  6
CONTINUOUS
 10
5.066160
 20
4.509560
  0
SEQEND
  8
0
  0
SOLID
  8
0
 62
    15
 10
5.041520
 20
4.413640
 11
5.675120
 21
4.773560
 12
5.007640
 22
4.321240
 13
5.641240
 23
4.681160
  0
POLYLINE
  8
0
  6
CONTINUOUS
 66
     1
 40
0.000000
 41
0.000000
  0
VERTEX
  8
0
  6
CONTINUOUS
 10
5.041520
 20
4.413640
  0
VERTEX
  8
0
  6
CONTINUOUS
 10
5.675120
 20
4.773560
  0
VERTEX
  8
0
  6
CONTINUOUS
 10
5.641240
 20
4.681160
  0
VERTEX
  8
0
  6
CONTINUOUS
 10
5.007640
 20
4.321240
  0
VERTEX
  8
0
  6
CONTINUOUS
 10
5.041520
 20
4.413640
  0
SEQEND
  8
0
  0
SOLID
  8
0
 62
    15
 10
5.007640
 20
4.321240
 11
5.641240
 21
4.681160
 12
4.965840
 22
4.233240
 13
5.599440
 23
4.593160
  0
POLYLINE
  8
0
  6
CONTINUOUS
 66
     1
 40
0.000000
 41
0.000000
  0
VERTEX
  8
0
  6
CONTINUOUS
 10
5.007640
 20
4.321240
  0
VERTEX
  8
0
  6
CONTINUOUS
 10
5.641240
 20
4.681160
  0
VERTEX
  8
0
  6
CONTINUOUS
 10
5.599440
 20
4.593160
  0
VERTEX
  8
0
  6
CONTINUOUS
 10
4.965840
 20
4.233240
  0
VERTEX
  8
0
  6
CONTINUOUS
 10
5.007640
 20
4.321240
  0
SEQEND
  8
0
  0
SOLID
  8
0
 62
    15
 10
4.965840
 20
4.233240
 11
5.599440
 21
4.593160
 12
4.915680
 22
4.150520
 13
5.549280
 23
4.510440
  0
POLYLINE
  8
0
  6
CONTINUOUS
 66
     1
 40
0.000000
 41
0.000000
  0
VERTEX
  8
0
  6
CONTINUOUS
 10
4.965840
 20
4.233240
  0
VERTEX
  8
0
  6
CONTINUOUS
 10
5.599440
 20
4.593160
  0
VERTEX
  8
0
  6
CONTINUOUS
 10
5.549280
 20
4.510440
  0
VERTEX
  8
0
  6
CONTINUOUS
 10
4.915680
 20
4.150520
  0
VERTEX
  8
0
  6
CONTINUOUS
 10
4.965840
 20
4.233240
  0
SEQEND
  8
0
  0
SOLID
  8
0
 62
    15
 10
4.915680
 20
4.150520
 11
5.549280
 21
4.510440
 12
4.793360
 22
4.000920
 13
5.426960
 23
4.360840
  0
POLYLINE
  8
0
  6
CONTINUOUS
 66
     1
 40
0.000000
 41
0.000000
  0
VERTEX
  8
0
  6
CONTINUOUS
 10
4.915680
 20
4.150520
  0
VERTEX
  8
0
  6
CONTINUOUS
 10
5.549280
 20
4.510440
  0
VERTEX
  8
0
  6
CONTINUOUS
 10
5.426960
 20
4.360840
  0
VERTEX
  8
0
  6
CONTINUOUS
 10
4.793360
 20
4.000920
  0
VERTEX
  8
0
  6
CONTINUOUS
 10
4.915680
 20
4.150520
  0
SEQEND
  8
0
  0
SOLID
  8
0
 62
    15
 10
4.645520
 20
3.877720
 11
5.279120
 21
4.237200
 12
4.563240
 22
3.826680
 13
5.196840
 23
4.186600
  0
POLYLINE
  8
0
  6
CONTINUOUS
 66
     1
 40
0.000000
 41
0.000000
  0
VERTEX
  8
0
  6
CONTINUOUS
 10
4.645520
 20
3.877720
  0
VERTEX
  8
0
  6
CONTINUOUS
 10
5.279120
 20
4.237200
  0
VERTEX
  8
0
  6
CONTINUOUS
 10
5.196840
 20
4.186600
  0
VERTEX
  8
0
  6
CONTINUOUS
 10
4.563240
 20
3.826680
  0
VERTEX
  8
0
  6
CONTINUOUS
 10
4.645520
 20
3.877720
  0
SEQEND
  8
0
  0
SOLID
  8
0
 62
    15
 10
4.793360
 20
4.000920
 11
5.426960
 21
4.360840
 12
4.645520
 22
3.877720
 13
5.279120
 23
4.237200
  0
POLYLINE
  8
0
  6
CONTINUOUS
 66
     1
 40
0.000000
 41
0.000000
  0
VERTEX
  8
0
  6
CONTINUOUS
 10
4.793360
 20
4.000920
  0
VERTEX
  8
0
  6
CONTINUOUS
 10
5.426960
 20
4.360840
  0
VERTEX
  8
0
  6
CONTINUOUS
 10
5.279120
 20
4.237200
  0
VERTEX
  8
0
  6
CONTINUOUS
 10
4.645520
 20
3.877720
  0
VERTEX
  8
0
  6
CONTINUOUS
 10
4.793360
 20
4.000920
  0
SEQEND
  8
0
  0
SOLID
  8
0
 62
    15
 10
3.086160
 20
4.712400
 11
3.720200
 21
5.072320
 12
3.087920
 22
4.712400
 13
3.721520
 23
5.072320
  0
POLYLINE
  8
0
  6
CONTINUOUS
 66
     1
 40
0.000000
 41
0.000000
  0
VERTEX
  8
0
  6
CONTINUOUS
 10
3.086160
 20
4.712400
  0
VERTEX
  8
0
  6
CONTINUOUS
 10
3.720200
 20
5.072320
  0
VERTEX
  8
0
  6
CONTINUOUS
 10
3.721520
 20
5.072320
  0
VERTEX
  8
0
  6
CONTINUOUS
 10
3.087920
 20
4.712400
  0
VERTEX
  8
0
  6
CONTINUOUS
 10
3.086160
 20
4.712400
  0
SEQEND
  8
0
  0
POLYLINE
  8
0
  6
CONTINUOUS
 66
     1
 40
0.000000
 41
0.000000
  0
VERTEX
  8
0
  6
CONTINUOUS
 10
3.082200
 20
4.715480
  0
VERTEX
  8
0
  6
CONTINUOUS
 10
3.087480
 20
4.817560
  0
VERTEX
  8
0
  6
CONTINUOUS
 10
3.102880
 20
4.917000
  0
VERTEX
  8
0
  6
CONTINUOUS
 10
3.127520
 20
5.012920
  0
VERTEX
  8
0
  6
CONTINUOUS
 10
3.161400
 20
5.105320
  0
VERTEX
  8
0
  6
CONTINUOUS
 10
3.203640
 20
5.193320
  0
VERTEX
  8
0
  6
CONTINUOUS
 10
3.253800
 20
5.276480
  0
VERTEX
  8
0
  6
CONTINUOUS
 10
3.376560
 20
5.426080
  0
VERTEX
  8
0
  6
CONTINUOUS
 10
3.524840
 20
5.549720
  0
VERTEX
  8
0
  6
CONTINUOUS
 10
3.607120
 20
5.600760
  0
VERTEX
  8
0
  6
CONTINUOUS
 10
3.694680
 20
5.643440
  0
VERTEX
  8
0
  6
CONTINUOUS
 10
3.786640
 20
5.677760
  0
VERTEX
  8
0
  6
CONTINUOUS
 10
3.882560
 20
5.702840
  0
VERTEX
  8
0
  6
CONTINUOUS
 10
3.981560
 20
5.718240
  0
VERTEX
  8
0
  6
CONTINUOUS
 10
4.083640
 20
5.723520
  0
VERTEX
  8
0
  6
CONTINUOUS
 10
4.185720
 20
5.718240
  0
VERTEX
  8
0
  6
CONTINUOUS
 10
4.284720
 20
5.702840
  0
VERTEX
  8
0
  6
CONTINUOUS
 10
4.380200
 20
5.677760
  0
VERTEX
  8
0
  6
CONTINUOUS
 10
4.471720
 20
5.643440
  0
VERTEX
  8
0
  6
CONTINUOUS
 10
4.559280
 20
5.600760
  0
VERTEX
  8
0
  6
CONTINUOUS
 10
4.641560
 20
5.550160
  0
VERTEX
  8
0
  6
CONTINUOUS
 10
4.789400
 20
5.426520
  0
VERTEX
  8
0
  6
CONTINUOUS
 10
4.911280
 20
5.277360
  0
VERTEX
  8
0
  6
CONTINUOUS
 10
4.961440
 20
5.194200
  0
VERTEX
  8
0
  6
CONTINUOUS
 10
5.003680
 20
5.106640
  0
VERTEX
  8
0
  6
CONTINUOUS
 10
5.037120
 20
5.014240
  0
VERTEX
  8
0
  6
CONTINUOUS
 10
5.061760
 20
4.918320
  0
VERTEX
  8
0
  6
CONTINUOUS
 10
5.077160
 20
4.818880
  0
VERTEX
  8
0
  6
CONTINUOUS
 10
5.082440
 20
4.716800
  0
VERTEX
  8
0
  6
CONTINUOUS
 10
5.083760
 20
4.715480
  0
VERTEX
  8
0
  6
CONTINUOUS
 10
3.083520
 20
4.715480
  0
VERTEX
  8
0
  6
CONTINUOUS
 10
3.082200
 20
4.715480
  0
SEQEND
  8
0
  0
POLYLINE
  8
0
  6
CONTINUOUS
 66
     1
 40
0.000000
 41
0.000000
  0
VERTEX
  8
0
  6
CONTINUOUS
 10
3.087920
 20
4.712400
  0
VERTEX
  8
0
  6
CONTINUOUS
 10
5.087720
 20
4.712400
  0
VERTEX
  8
0
  6
CONTINUOUS
 10
5.086400
 20
4.711080
  0
VERTEX
  8
0
  6
CONTINUOUS
 10
5.081120
 20
4.609000
  0
VERTEX
  8
0
  6
CONTINUOUS
 10
5.066160
 20
4.509560
  0
VERTEX
  8
0
  6
CONTINUOUS
 10
5.041520
 20
4.413640
  0
VERTEX
  8
0
  6
CONTINUOUS
 10
5.007640
 20
4.321240
  0
VERTEX
  8
0
  6
CONTINUOUS
 10
4.965840
 20
4.233240
  0
VERTEX
  8
0
  6
CONTINUOUS
 10
4.915680
 20
4.150520
  0
VERTEX
  8
0
  6
CONTINUOUS
 10
4.793360
 20
4.000920
  0
VERTEX
  8
0
  6
CONTINUOUS
 10
4.645520
 20
3.877720
  0
VERTEX
  8
0
  6
CONTINUOUS
 10
4.563240
 20
3.826680
  0
VERTEX
  8
0
  6
CONTINUOUS
 10
4.476120
 20
3.784000
  0
VERTEX
  8
0
  6
CONTINUOUS
 10
4.384160
 20
3.750120
  0
VERTEX
  8
0
  6
CONTINUOUS
 10
4.288680
 20
3.725040
  0
VERTEX
  8
0
  6
CONTINUOUS
 10
4.189680
 20
3.709640
  0
VERTEX
  8
0
  6
CONTINUOUS
 10
4.087600
 20
3.704360
  0
VERTEX
  8
0
  6
CONTINUOUS
 10
3.985520
 20
3.709640
  0
VERTEX
  8
0
  6
CONTINUOUS
 10
3.886520
 20
3.725040
  0
VERTEX
  8
0
  6
CONTINUOUS
 10
3.790600
 20
3.750120
  0
VERTEX
  8
0
  6
CONTINUOUS
 10
3.699080
 20
3.784440
  0
VERTEX
  8
0
  6
CONTINUOUS
 10
3.611520
 20
3.827120
  0
VERTEX
  8
0
  6
CONTINUOUS
 10
3.528800
 20
3.878160
  0
VERTEX
  8
0
  6
CONTINUOUS
 10
3.380520
 20
4.001800
  0
VERTEX
  8
0
  6
CONTINUOUS
 10
3.258200
 20
4.151400
  0
VERTEX
  8
0
  6
CONTINUOUS
 10
3.207600
 20
4.234560
  0
VERTEX
  8
0
  6
CONTINUOUS
 10
3.165360
 20
4.322560
  0
VERTEX
  8
0
  6
CONTINUOUS
 10
3.131480
 20
4.414960
  0
VERTEX
  8
0
  6
CONTINUOUS
 10
3.106840
 20
4.510880
  0
VERTEX
  8
0
  6
CONTINUOUS
 10
3.091440
 20
4.610320
  0
VERTEX
  8
0
  6
CONTINUOUS
 10
3.086160
 20
4.712400
  0
VERTEX
  8
0
  6
CONTINUOUS
 10
3.087920
 20
4.712400
  0
SEQEND
  8
0
  0
TEXT
  8
0
 10
3.679280
 20
4.452800
 40
0.138172
  1
129 & 210
 41
1.000000
  7
SN0
 71
     0
 72
     5
 11
4.436535
 21
4.452800
  0
TEXT
  8
0
 10
3.936240
 20
4.260960
 40
0.138172
  1
  2"
 41
1.000000
  7
SN0
 71
     0
 72
     5
 11
4.180539
 21
4.260960
  0
ENDSEC
  0
EOF
