  0
SECTION
  2
HEADER
  9
$ACADVER
  1
AC1006
  9
$EXTMIN
 10
1.818520
 20
2.587640
  9
$EXTMAX
 10
5.973440
 20
5.088600
  9
$LTSCALE
 40
0.044000
  9
$PDMODE
 70
    35
  9
$PDSIZE
 40
0.035200
  0
ENDSEC
  0
SECTION
  2
TABLES
  0
TABLE
  2
LTYPE
 70
     9
  0
LTYPE
  2
CONTINUOUS
 70
    64
  3
Solid line
 72
    65
 73
     0
 40
0.000000
  0
LTYPE
  2
DASHED
 70
    64
  3
__ __ __ __ __ __ __ __ __ __ __ __ __ __ __
 72
    65
 73
     2
 40
0.000330
 49
0.000220
 49
-0.000110
  0
LTYPE
  2
HIDDEN
 70
    64
  3
 _ _ _ _ _ _ _ _ _ _ _ _ _ _ _ _ _ _ _ _ _ _
 72
    65
 73
     2
 40
0.000165
 49
0.000110
 49
-0.000055
  0
LTYPE
  2
CENTER
 70
    64
  3
____ _ ____ _ ____ _ ____ _ ____ _ ____ _ ____
 72
    65
 73
     4
 40
0.000880
 49
0.000550
 49
-0.000110
 49
0.000110
 49
-0.000110
  0
LTYPE
  2
PHANTOM
 70
    64
  3
_____ _ _ _____ _ _ _____ _ _ _____ _ _ ____
 72
    65
 73
     6
 40
0.001100
 49
0.000550
 49
-0.000110
 49
0.000110
 49
-0.000110
 49
0.000110
 49
-0.000110
  0
LTYPE
  2
DOT
 70
    64
  3
...............................................
 72
    65
 73
     2
 40
0.000110
 49
0.000000
 49
-0.000110
  0
LTYPE
  2
DASHDOT
 70
    64
  3
__ . __ . __ . __ . __ . __ . __ . __ . __ . __
 72
    65
 73
     4
 40
0.000440
 49
0.000220
 49
-0.000110
 49
0.000000
 49
-0.000110
  0
LTYPE
  2
BORDER
 70
    64
  3
__ __ . __ __ . __ __ . __ __ . __ __ . __ __
 72
    65
 73
     6
 40
0.000770
 49
0.000220
 49
-0.000110
 49
0.000220
 49
-0.000110
 49
0.000000
 49
-0.000110
  0
LTYPE
  2
DIVIDE
 70
    64
  3
__ . . __ . . __ . . __ . . __ . . __ . . __
 72
    65
 73
     6
 40
0.000550
 49
0.000220
 49
-0.000110
 49
0.000000
 49
-0.000110
 49
0.000000
 49
-0.000110
  0
LTYPE
  2
DOTDOT
 70
    64
  3
 . .  . .  . .  . .  . .  . . 
 72
    65
 73
     5
 40
0.000242
 49
-0.000110
 49
0.000000
 49
-0.000110
 49
0.000000
 49
-0.000110
  0
ENDTAB
  0
TABLE
  2
STYLE
 70
     2
  0
STYLE
 70
     0
  2
SN0
 40
0.000000
 41
0.000440
 50
0.000000
 71
     0
 42
0.000000
  3
ROMAND
  0
STYLE
 70
    68
  2
SV0
 40
0.000000
 41
0.000440
 50
0.000000
 71
     0
 42
0.000000
  3
ROMAND
  0
ENDTAB
  0
TABLE
  2
LAYER
 70
     3
  0
LAYER
  2
FOREGROUND
 70
    64
 62
     7
  6
CONTINUOUS
  0
LAYER
  2
BACKGROUND
 70
    65
 62
    -7
  6
CONTINUOUS
  0
LAYER
  2
0
 70
    64
 62
     7
  6
CONTINUOUS
  0
ENDTAB
  0
ENDSEC
  0
SECTION
  2
ENTITIES
  0
POLYLINE
  8
FOREGROUND
  6
CONTINUOUS
 66
     1
 40
0.000000
 41
0.000000
  0
VERTEX
  8
FOREGROUND
  6
CONTINUOUS
 10
0.000000
 20
7.676240
  0
VERTEX
  8
FOREGROUND
  6
CONTINUOUS
 10
8.499920
 20
7.676240
  0
VERTEX
  8
FOREGROUND
  6
CONTINUOUS
 10
8.499920
 20
-3.323760
  0
VERTEX
  8
FOREGROUND
  6
CONTINUOUS
 10
0.000000
 20
-3.323760
  0
VERTEX
  8
FOREGROUND
  6
CONTINUOUS
 10
0.000000
 20
7.676240
  0
SEQEND
  8
0
  0
POLYLINE
  8
FOREGROUND
  6
CONTINUOUS
 66
     1
 40
0.000000
 41
0.000000
  0
VERTEX
  8
FOREGROUND
  6
CONTINUOUS
 10
0.000000
 20
7.676240
  0
VERTEX
  8
FOREGROUND
  6
CONTINUOUS
 10
8.499920
 20
7.676240
  0
VERTEX
  8
FOREGROUND
  6
CONTINUOUS
 10
8.499920
 20
-3.323760
  0
VERTEX
  8
FOREGROUND
  6
CONTINUOUS
 10
0.000000
 20
-3.323760
  0
VERTEX
  8
FOREGROUND
  6
CONTINUOUS
 10
0.000000
 20
7.676240
  0
SEQEND
  8
0
  0
POLYLINE
  8
0
  6
CONTINUOUS
 66
     1
 40
0.014080
 41
0.014080
  0
VERTEX
  8
0
  6
CONTINUOUS
 10
5.126000
 20
4.864640
  0
VERTEX
  8
0
  6
CONTINUOUS
 10
5.161200
 20
4.864200
  0
VERTEX
  8
0
  6
CONTINUOUS
 10
5.195080
 20
4.862440
  0
VERTEX
  8
0
  6
CONTINUOUS
 10
5.227640
 20
4.858920
  0
VERTEX
  8
0
  6
CONTINUOUS
 10
5.258000
 20
4.854080
  0
VERTEX
  8
0
  6
CONTINUOUS
 10
5.287480
 20
4.847480
  0
VERTEX
  8
0
  6
CONTINUOUS
 10
5.315200
 20
4.840000
  0
VERTEX
  8
0
  6
CONTINUOUS
 10
5.341600
 20
4.831200
  0
VERTEX
  8
0
  6
CONTINUOUS
 10
5.366680
 20
4.821080
  0
VERTEX
  8
0
  6
CONTINUOUS
 10
5.390000
 20
4.809640
  0
VERTEX
  8
0
  6
CONTINUOUS
 10
5.412440
 20
4.797320
  0
VERTEX
  8
0
  6
CONTINUOUS
 10
5.433120
 20
4.783680
  0
VERTEX
  8
0
  6
CONTINUOUS
 10
5.452920
 20
4.769600
  0
VERTEX
  8
0
  6
CONTINUOUS
 10
5.471400
 20
4.754200
  0
VERTEX
  8
0
  6
CONTINUOUS
 10
5.488560
 20
4.737920
  0
VERTEX
  8
0
  6
CONTINUOUS
 10
5.504400
 20
4.720760
  0
VERTEX
  8
0
  6
CONTINUOUS
 10
5.519360
 20
4.702720
  0
VERTEX
  8
0
  6
CONTINUOUS
 10
5.533000
 20
4.684240
  0
VERTEX
  8
0
  6
CONTINUOUS
 10
5.545760
 20
4.664880
  0
VERTEX
  8
0
  6
CONTINUOUS
 10
5.557200
 20
4.645080
  0
VERTEX
  8
0
  6
CONTINUOUS
 10
5.567760
 20
4.624840
  0
VERTEX
  8
0
  6
CONTINUOUS
 10
5.577440
 20
4.603720
  0
VERTEX
  8
0
  6
CONTINUOUS
 10
5.586240
 20
4.582600
  0
VERTEX
  8
0
  6
CONTINUOUS
 10
5.593720
 20
4.560600
  0
VERTEX
  8
0
  6
CONTINUOUS
 10
5.600760
 20
4.538600
  0
VERTEX
  8
0
  6
CONTINUOUS
 10
5.606480
 20
4.516160
  0
VERTEX
  8
0
  6
CONTINUOUS
 10
5.611760
 20
4.493720
  0
VERTEX
  8
0
  6
CONTINUOUS
 10
5.616160
 20
4.470840
  0
VERTEX
  8
0
  6
CONTINUOUS
 10
5.619680
 20
4.448400
  0
VERTEX
  8
0
  6
CONTINUOUS
 10
5.622320
 20
4.425520
  0
VERTEX
  8
0
  6
CONTINUOUS
 10
5.624520
 20
4.402640
  0
VERTEX
  8
0
  6
CONTINUOUS
 10
5.625840
 20
4.379760
  0
VERTEX
  8
0
  6
CONTINUOUS
 10
5.626720
 20
4.356880
  0
VERTEX
  8
0
  6
CONTINUOUS
 10
5.626720
 20
4.355560
  0
VERTEX
  8
0
  6
CONTINUOUS
 10
2.116400
 20
4.355560
  0
VERTEX
  8
0
  6
CONTINUOUS
 10
2.116400
 20
4.361280
  0
VERTEX
  8
0
  6
CONTINUOUS
 10
2.116400
 20
5.080680
  0
VERTEX
  8
0
  6
CONTINUOUS
 10
5.120720
 20
5.080680
  0
VERTEX
  8
0
  6
CONTINUOUS
 10
5.118960
 20
5.079360
  0
VERTEX
  8
0
  6
CONTINUOUS
 10
5.118960
 20
4.866400
  0
VERTEX
  8
0
  6
CONTINUOUS
 10
5.126000
 20
4.864640
  0
SEQEND
  8
0
  0
SOLID
  8
0
 62
    15
 10
5.270320
 20
3.342240
 11
5.914040
 21
3.708760
 12
5.288800
 22
3.300000
 13
5.932520
 23
3.666520
  0
POLYLINE
  8
0
  6
CONTINUOUS
 66
     1
 40
0.000000
 41
0.000000
  0
VERTEX
  8
0
  6
CONTINUOUS
 10
5.270320
 20
3.342240
  0
VERTEX
  8
0
  6
CONTINUOUS
 10
5.914040
 20
3.708760
  0
VERTEX
  8
0
  6
CONTINUOUS
 10
5.932520
 20
3.666520
  0
VERTEX
  8
0
  6
CONTINUOUS
 10
5.288800
 20
3.300000
  0
VERTEX
  8
0
  6
CONTINUOUS
 10
5.270320
 20
3.342240
  0
SEQEND
  8
0
  0
SOLID
  8
0
 62
    15
 10
4.897640
 20
3.579840
 11
5.541360
 21
3.946360
 12
4.960560
 22
3.571480
 13
5.604280
 23
3.938000
  0
POLYLINE
  8
0
  6
CONTINUOUS
 66
     1
 40
0.000000
 41
0.000000
  0
VERTEX
  8
0
  6
CONTINUOUS
 10
4.897640
 20
3.579840
  0
VERTEX
  8
0
  6
CONTINUOUS
 10
5.541360
 20
3.946360
  0
VERTEX
  8
0
  6
CONTINUOUS
 10
5.604280
 20
3.938000
  0
VERTEX
  8
0
  6
CONTINUOUS
 10
4.960560
 20
3.571480
  0
VERTEX
  8
0
  6
CONTINUOUS
 10
4.897640
 20
3.579840
  0
SEQEND
  8
0
  0
SOLID
  8
0
 62
    15
 10
4.960560
 20
3.571480
 11
5.604280
 21
3.938000
 12
5.017760
 22
3.557400
 13
5.661480
 23
3.924360
  0
POLYLINE
  8
0
  6
CONTINUOUS
 66
     1
 40
0.000000
 41
0.000000
  0
VERTEX
  8
0
  6
CONTINUOUS
 10
4.960560
 20
3.571480
  0
VERTEX
  8
0
  6
CONTINUOUS
 10
5.604280
 20
3.938000
  0
VERTEX
  8
0
  6
CONTINUOUS
 10
5.661480
 20
3.924360
  0
VERTEX
  8
0
  6
CONTINUOUS
 10
5.017760
 20
3.557400
  0
VERTEX
  8
0
  6
CONTINUOUS
 10
4.960560
 20
3.571480
  0
SEQEND
  8
0
  0
SOLID
  8
0
 62
    15
 10
5.017760
 20
3.557400
 11
5.661480
 21
3.924360
 12
5.068800
 22
3.538480
 13
5.712520
 23
3.905000
  0
POLYLINE
  8
0
  6
CONTINUOUS
 66
     1
 40
0.000000
 41
0.000000
  0
VERTEX
  8
0
  6
CONTINUOUS
 10
5.017760
 20
3.557400
  0
VERTEX
  8
0
  6
CONTINUOUS
 10
5.661480
 20
3.924360
  0
VERTEX
  8
0
  6
CONTINUOUS
 10
5.712520
 20
3.905000
  0
VERTEX
  8
0
  6
CONTINUOUS
 10
5.068800
 20
3.538480
  0
VERTEX
  8
0
  6
CONTINUOUS
 10
5.017760
 20
3.557400
  0
SEQEND
  8
0
  0
SOLID
  8
0
 62
    15
 10
5.068800
 20
3.538480
 11
5.712520
 21
3.905000
 12
5.114560
 22
3.514720
 13
5.758280
 23
3.881680
  0
POLYLINE
  8
0
  6
CONTINUOUS
 66
     1
 40
0.000000
 41
0.000000
  0
VERTEX
  8
0
  6
CONTINUOUS
 10
5.068800
 20
3.538480
  0
VERTEX
  8
0
  6
CONTINUOUS
 10
5.712520
 20
3.905000
  0
VERTEX
  8
0
  6
CONTINUOUS
 10
5.758280
 20
3.881680
  0
VERTEX
  8
0
  6
CONTINUOUS
 10
5.114560
 20
3.514720
  0
VERTEX
  8
0
  6
CONTINUOUS
 10
5.068800
 20
3.538480
  0
SEQEND
  8
0
  0
SOLID
  8
0
 62
    15
 10
5.114560
 20
3.514720
 11
5.758280
 21
3.881680
 12
5.155480
 22
3.487000
 13
5.799200
 23
3.853520
  0
POLYLINE
  8
0
  6
CONTINUOUS
 66
     1
 40
0.000000
 41
0.000000
  0
VERTEX
  8
0
  6
CONTINUOUS
 10
5.114560
 20
3.514720
  0
VERTEX
  8
0
  6
CONTINUOUS
 10
5.758280
 20
3.881680
  0
VERTEX
  8
0
  6
CONTINUOUS
 10
5.799200
 20
3.853520
  0
VERTEX
  8
0
  6
CONTINUOUS
 10
5.155480
 20
3.487000
  0
VERTEX
  8
0
  6
CONTINUOUS
 10
5.114560
 20
3.514720
  0
SEQEND
  8
0
  0
SOLID
  8
0
 62
    15
 10
5.155480
 20
3.487000
 11
5.799200
 21
3.853520
 12
5.191120
 22
3.455320
 13
5.834840
 23
3.821840
  0
POLYLINE
  8
0
  6
CONTINUOUS
 66
     1
 40
0.000000
 41
0.000000
  0
VERTEX
  8
0
  6
CONTINUOUS
 10
5.155480
 20
3.487000
  0
VERTEX
  8
0
  6
CONTINUOUS
 10
5.799200
 20
3.853520
  0
VERTEX
  8
0
  6
CONTINUOUS
 10
5.834840
 20
3.821840
  0
VERTEX
  8
0
  6
CONTINUOUS
 10
5.191120
 20
3.455320
  0
VERTEX
  8
0
  6
CONTINUOUS
 10
5.155480
 20
3.487000
  0
SEQEND
  8
0
  0
SOLID
  8
0
 62
    15
 10
5.191120
 20
3.455320
 11
5.834840
 21
3.821840
 12
5.221920
 22
3.420120
 13
5.865640
 23
3.787080
  0
POLYLINE
  8
0
  6
CONTINUOUS
 66
     1
 40
0.000000
 41
0.000000
  0
VERTEX
  8
0
  6
CONTINUOUS
 10
5.191120
 20
3.455320
  0
VERTEX
  8
0
  6
CONTINUOUS
 10
5.834840
 20
3.821840
  0
VERTEX
  8
0
  6
CONTINUOUS
 10
5.865640
 20
3.787080
  0
VERTEX
  8
0
  6
CONTINUOUS
 10
5.221920
 20
3.420120
  0
VERTEX
  8
0
  6
CONTINUOUS
 10
5.191120
 20
3.455320
  0
SEQEND
  8
0
  0
SOLID
  8
0
 62
    15
 10
5.221920
 20
3.420120
 11
5.865640
 21
3.787080
 12
5.248320
 22
3.382280
 13
5.892040
 23
3.749240
  0
POLYLINE
  8
0
  6
CONTINUOUS
 66
     1
 40
0.000000
 41
0.000000
  0
VERTEX
  8
0
  6
CONTINUOUS
 10
5.221920
 20
3.420120
  0
VERTEX
  8
0
  6
CONTINUOUS
 10
5.865640
 20
3.787080
  0
VERTEX
  8
0
  6
CONTINUOUS
 10
5.892040
 20
3.749240
  0
VERTEX
  8
0
  6
CONTINUOUS
 10
5.248320
 20
3.382280
  0
VERTEX
  8
0
  6
CONTINUOUS
 10
5.221920
 20
3.420120
  0
SEQEND
  8
0
  0
SOLID
  8
0
 62
    15
 10
5.248320
 20
3.382280
 11
5.892040
 21
3.749240
 12
5.270320
 22
3.342240
 13
5.914040
 23
3.708760
  0
POLYLINE
  8
0
  6
CONTINUOUS
 66
     1
 40
0.000000
 41
0.000000
  0
VERTEX
  8
0
  6
CONTINUOUS
 10
5.248320
 20
3.382280
  0
VERTEX
  8
0
  6
CONTINUOUS
 10
5.892040
 20
3.749240
  0
VERTEX
  8
0
  6
CONTINUOUS
 10
5.914040
 20
3.708760
  0
VERTEX
  8
0
  6
CONTINUOUS
 10
5.270320
 20
3.342240
  0
VERTEX
  8
0
  6
CONTINUOUS
 10
5.248320
 20
3.382280
  0
SEQEND
  8
0
  0
SOLID
  8
0
 62
    15
 10
4.828560
 20
3.582040
 11
5.472280
 21
3.948560
 12
4.897640
 22
3.579840
 13
5.541360
 23
3.946360
  0
POLYLINE
  8
0
  6
CONTINUOUS
 66
     1
 40
0.000000
 41
0.000000
  0
VERTEX
  8
0
  6
CONTINUOUS
 10
4.828560
 20
3.582040
  0
VERTEX
  8
0
  6
CONTINUOUS
 10
5.472280
 20
3.948560
  0
VERTEX
  8
0
  6
CONTINUOUS
 10
5.541360
 20
3.946360
  0
VERTEX
  8
0
  6
CONTINUOUS
 10
4.897640
 20
3.579840
  0
VERTEX
  8
0
  6
CONTINUOUS
 10
4.828560
 20
3.582040
  0
SEQEND
  8
0
  0
SOLID
  8
0
 62
    15
 10
5.288800
 20
3.300000
 11
5.932520
 21
3.666520
 12
5.303320
 22
3.256000
 13
5.947040
 23
3.622520
  0
POLYLINE
  8
0
  6
CONTINUOUS
 66
     1
 40
0.000000
 41
0.000000
  0
VERTEX
  8
0
  6
CONTINUOUS
 10
5.288800
 20
3.300000
  0
VERTEX
  8
0
  6
CONTINUOUS
 10
5.932520
 20
3.666520
  0
VERTEX
  8
0
  6
CONTINUOUS
 10
5.947040
 20
3.622520
  0
VERTEX
  8
0
  6
CONTINUOUS
 10
5.303320
 20
3.256000
  0
VERTEX
  8
0
  6
CONTINUOUS
 10
5.288800
 20
3.300000
  0
SEQEND
  8
0
  0
SOLID
  8
0
 62
    15
 10
5.303320
 20
3.256000
 11
5.947040
 21
3.622520
 12
5.322240
 22
3.165800
 13
5.965960
 23
3.532320
  0
POLYLINE
  8
0
  6
CONTINUOUS
 66
     1
 40
0.000000
 41
0.000000
  0
VERTEX
  8
0
  6
CONTINUOUS
 10
5.303320
 20
3.256000
  0
VERTEX
  8
0
  6
CONTINUOUS
 10
5.947040
 20
3.622520
  0
VERTEX
  8
0
  6
CONTINUOUS
 10
5.965960
 20
3.532320
  0
VERTEX
  8
0
  6
CONTINUOUS
 10
5.322240
 20
3.165800
  0
VERTEX
  8
0
  6
CONTINUOUS
 10
5.303320
 20
3.256000
  0
SEQEND
  8
0
  0
SOLID
  8
0
 62
    15
 10
5.322240
 20
3.165800
 11
5.965960
 21
3.532320
 12
5.329720
 22
3.074280
 13
5.973440
 23
3.440800
  0
POLYLINE
  8
0
  6
CONTINUOUS
 66
     1
 40
0.000000
 41
0.000000
  0
VERTEX
  8
0
  6
CONTINUOUS
 10
5.322240
 20
3.165800
  0
VERTEX
  8
0
  6
CONTINUOUS
 10
5.965960
 20
3.532320
  0
VERTEX
  8
0
  6
CONTINUOUS
 10
5.973440
 20
3.440800
  0
VERTEX
  8
0
  6
CONTINUOUS
 10
5.329720
 20
3.074280
  0
VERTEX
  8
0
  6
CONTINUOUS
 10
5.322240
 20
3.165800
  0
SEQEND
  8
0
  0
SOLID
  8
0
 62
    15
 10
5.329720
 20
3.074280
 11
5.973440
 21
3.440800
 12
5.329720
 22
3.072960
 13
5.973440
 23
3.439480
  0
POLYLINE
  8
0
  6
CONTINUOUS
 66
     1
 40
0.000000
 41
0.000000
  0
VERTEX
  8
0
  6
CONTINUOUS
 10
5.329720
 20
3.074280
  0
VERTEX
  8
0
  6
CONTINUOUS
 10
5.973440
 20
3.440800
  0
VERTEX
  8
0
  6
CONTINUOUS
 10
5.973440
 20
3.439480
  0
VERTEX
  8
0
  6
CONTINUOUS
 10
5.329720
 20
3.072960
  0
VERTEX
  8
0
  6
CONTINUOUS
 10
5.329720
 20
3.074280
  0
SEQEND
  8
0
  0
SOLID
  8
0
 62
    15
 10
1.818960
 20
3.798080
 11
2.462680
 21
4.164600
 12
4.823280
 22
3.798080
 13
5.467000
 23
4.164600
  0
POLYLINE
  8
0
  6
CONTINUOUS
 66
     1
 40
0.000000
 41
0.000000
  0
VERTEX
  8
0
  6
CONTINUOUS
 10
1.818960
 20
3.798080
  0
VERTEX
  8
0
  6
CONTINUOUS
 10
2.462680
 20
4.164600
  0
VERTEX
  8
0
  6
CONTINUOUS
 10
5.467000
 20
4.164600
  0
VERTEX
  8
0
  6
CONTINUOUS
 10
4.823280
 20
3.798080
  0
VERTEX
  8
0
  6
CONTINUOUS
 10
1.818960
 20
3.798080
  0
SEQEND
  8
0
  0
SOLID
  8
0
 62
    15
 10
4.823280
 20
3.798080
 11
5.467000
 21
4.164600
 12
4.821960
 22
3.796760
 13
5.465680
 23
4.163280
  0
POLYLINE
  8
0
  6
CONTINUOUS
 66
     1
 40
0.000000
 41
0.000000
  0
VERTEX
  8
0
  6
CONTINUOUS
 10
4.823280
 20
3.798080
  0
VERTEX
  8
0
  6
CONTINUOUS
 10
5.467000
 20
4.164600
  0
VERTEX
  8
0
  6
CONTINUOUS
 10
5.465680
 20
4.163280
  0
VERTEX
  8
0
  6
CONTINUOUS
 10
4.821960
 20
3.796760
  0
VERTEX
  8
0
  6
CONTINUOUS
 10
4.823280
 20
3.798080
  0
SEQEND
  8
0
  0
SOLID
  8
0
 62
    15
 10
4.821960
 20
3.796760
 11
5.465680
 21
4.163280
 12
4.821960
 22
3.583360
 13
5.465680
 23
3.950320
  0
POLYLINE
  8
0
  6
CONTINUOUS
 66
     1
 40
0.000000
 41
0.000000
  0
VERTEX
  8
0
  6
CONTINUOUS
 10
4.821960
 20
3.796760
  0
VERTEX
  8
0
  6
CONTINUOUS
 10
5.465680
 20
4.163280
  0
VERTEX
  8
0
  6
CONTINUOUS
 10
5.465680
 20
3.950320
  0
VERTEX
  8
0
  6
CONTINUOUS
 10
4.821960
 20
3.583360
  0
VERTEX
  8
0
  6
CONTINUOUS
 10
4.821960
 20
3.796760
  0
SEQEND
  8
0
  0
SOLID
  8
0
 62
    15
 10
4.821960
 20
3.583360
 11
5.465680
 21
3.950320
 12
4.825040
 22
3.582920
 13
5.468760
 23
3.949440
  0
POLYLINE
  8
0
  6
CONTINUOUS
 66
     1
 40
0.000000
 41
0.000000
  0
VERTEX
  8
0
  6
CONTINUOUS
 10
4.821960
 20
3.583360
  0
VERTEX
  8
0
  6
CONTINUOUS
 10
5.465680
 20
3.950320
  0
VERTEX
  8
0
  6
CONTINUOUS
 10
5.468760
 20
3.949440
  0
VERTEX
  8
0
  6
CONTINUOUS
 10
4.825040
 20
3.582920
  0
VERTEX
  8
0
  6
CONTINUOUS
 10
4.821960
 20
3.583360
  0
SEQEND
  8
0
  0
SOLID
  8
0
 62
    15
 10
4.825040
 20
3.582920
 11
5.468760
 21
3.949440
 12
4.828560
 22
3.582040
 13
5.472280
 23
3.948560
  0
POLYLINE
  8
0
  6
CONTINUOUS
 66
     1
 40
0.000000
 41
0.000000
  0
VERTEX
  8
0
  6
CONTINUOUS
 10
4.825040
 20
3.582920
  0
VERTEX
  8
0
  6
CONTINUOUS
 10
5.468760
 20
3.949440
  0
VERTEX
  8
0
  6
CONTINUOUS
 10
5.472280
 20
3.948560
  0
VERTEX
  8
0
  6
CONTINUOUS
 10
4.828560
 20
3.582040
  0
VERTEX
  8
0
  6
CONTINUOUS
 10
4.825040
 20
3.582920
  0
SEQEND
  8
0
  0
POLYLINE
  8
0
  6
CONTINUOUS
 66
     1
 40
0.000000
 41
0.000000
  0
VERTEX
  8
0
  6
CONTINUOUS
 10
4.828560
 20
3.582040
  0
VERTEX
  8
0
  6
CONTINUOUS
 10
4.897640
 20
3.579840
  0
VERTEX
  8
0
  6
CONTINUOUS
 10
4.960560
 20
3.571480
  0
VERTEX
  8
0
  6
CONTINUOUS
 10
5.017760
 20
3.557400
  0
VERTEX
  8
0
  6
CONTINUOUS
 10
5.068800
 20
3.538480
  0
VERTEX
  8
0
  6
CONTINUOUS
 10
5.114560
 20
3.514720
  0
VERTEX
  8
0
  6
CONTINUOUS
 10
5.155480
 20
3.487000
  0
VERTEX
  8
0
  6
CONTINUOUS
 10
5.191120
 20
3.455320
  0
VERTEX
  8
0
  6
CONTINUOUS
 10
5.221920
 20
3.420120
  0
VERTEX
  8
0
  6
CONTINUOUS
 10
5.248320
 20
3.382280
  0
VERTEX
  8
0
  6
CONTINUOUS
 10
5.270320
 20
3.342240
  0
VERTEX
  8
0
  6
CONTINUOUS
 10
5.288800
 20
3.300000
  0
VERTEX
  8
0
  6
CONTINUOUS
 10
5.303320
 20
3.256000
  0
VERTEX
  8
0
  6
CONTINUOUS
 10
5.322240
 20
3.165800
  0
VERTEX
  8
0
  6
CONTINUOUS
 10
5.329720
 20
3.074280
  0
VERTEX
  8
0
  6
CONTINUOUS
 10
5.329720
 20
3.072960
  0
VERTEX
  8
0
  6
CONTINUOUS
 10
1.818960
 20
3.072960
  0
VERTEX
  8
0
  6
CONTINUOUS
 10
1.818960
 20
3.798080
  0
VERTEX
  8
0
  6
CONTINUOUS
 10
4.823280
 20
3.798080
  0
VERTEX
  8
0
  6
CONTINUOUS
 10
4.821960
 20
3.796760
  0
VERTEX
  8
0
  6
CONTINUOUS
 10
4.821960
 20
3.583360
  0
VERTEX
  8
0
  6
CONTINUOUS
 10
4.825040
 20
3.582920
  0
VERTEX
  8
0
  6
CONTINUOUS
 10
4.828560
 20
3.582040
  0
SEQEND
  8
0
  0
TEXT
  8
0
 10
3.600960
 20
2.823040
 40
0.138070
  1
BA  128
 41
1.000000
  7
SN0
 71
     0
 72
     5
 11
4.190335
 21
2.823040
  0
TEXT
  8
0
 10
3.444760
 20
2.631640
 40
0.138070
  1
3/4" x 3-1/2"
 41
1.000000
  7
SN0
 71
     0
 72
     5
 11
4.344092
 21
2.631640
  0
ENDSEC
  0
EOF
