  0
SECTION
  2
HEADER
  9
$ACADVER
  1
AC1006
  9
$EXTMIN
 10
2.925120
 20
1.262360
  9
$EXTMAX
 10
5.724840
 20
6.985440
  9
$LTSCALE
 40
0.044000
  9
$PDMODE
 70
    35
  9
$PDSIZE
 40
0.035200
  0
ENDSEC
  0
SECTION
  2
TABLES
  0
TABLE
  2
LTYPE
 70
     9
  0
LTYPE
  2
CONTINUOUS
 70
    64
  3
Solid line
 72
    65
 73
     0
 40
0.000000
  0
LTYPE
  2
DASHED
 70
    64
  3
__ __ __ __ __ __ __ __ __ __ __ __ __ __ __
 72
    65
 73
     2
 40
0.000330
 49
0.000220
 49
-0.000110
  0
LTYPE
  2
HIDDEN
 70
    64
  3
 _ _ _ _ _ _ _ _ _ _ _ _ _ _ _ _ _ _ _ _ _ _
 72
    65
 73
     2
 40
0.000165
 49
0.000110
 49
-0.000055
  0
LTYPE
  2
CENTER
 70
    64
  3
____ _ ____ _ ____ _ ____ _ ____ _ ____ _ ____
 72
    65
 73
     4
 40
0.000880
 49
0.000550
 49
-0.000110
 49
0.000110
 49
-0.000110
  0
LTYPE
  2
PHANTOM
 70
    64
  3
_____ _ _ _____ _ _ _____ _ _ _____ _ _ ____
 72
    65
 73
     6
 40
0.001100
 49
0.000550
 49
-0.000110
 49
0.000110
 49
-0.000110
 49
0.000110
 49
-0.000110
  0
LTYPE
  2
DOT
 70
    64
  3
...............................................
 72
    65
 73
     2
 40
0.000110
 49
0.000000
 49
-0.000110
  0
LTYPE
  2
DASHDOT
 70
    64
  3
__ . __ . __ . __ . __ . __ . __ . __ . __ . __
 72
    65
 73
     4
 40
0.000440
 49
0.000220
 49
-0.000110
 49
0.000000
 49
-0.000110
  0
LTYPE
  2
BORDER
 70
    64
  3
__ __ . __ __ . __ __ . __ __ . __ __ . __ __
 72
    65
 73
     6
 40
0.000770
 49
0.000220
 49
-0.000110
 49
0.000220
 49
-0.000110
 49
0.000000
 49
-0.000110
  0
LTYPE
  2
DIVIDE
 70
    64
  3
__ . . __ . . __ . . __ . . __ . . __ . . __
 72
    65
 73
     6
 40
0.000550
 49
0.000220
 49
-0.000110
 49
0.000000
 49
-0.000110
 49
0.000000
 49
-0.000110
  0
LTYPE
  2
DOTDOT
 70
    64
  3
 . .  . .  . .  . .  . .  . . 
 72
    65
 73
     5
 40
0.000242
 49
-0.000110
 49
0.000000
 49
-0.000110
 49
0.000000
 49
-0.000110
  0
ENDTAB
  0
TABLE
  2
STYLE
 70
     2
  0
STYLE
 70
     0
  2
SN0
 40
0.000000
 41
0.000440
 50
0.000000
 71
     0
 42
0.000000
  3
ROMAND
  0
STYLE
 70
    68
  2
SV0
 40
0.000000
 41
0.000440
 50
0.000000
 71
     0
 42
0.000000
  3
ROMAND
  0
ENDTAB
  0
TABLE
  2
LAYER
 70
     3
  0
LAYER
  2
FOREGROUND
 70
    64
 62
     7
  6
CONTINUOUS
  0
LAYER
  2
BACKGROUND
 70
    65
 62
    -7
  6
CONTINUOUS
  0
LAYER
  2
0
 70
    64
 62
     7
  6
CONTINUOUS
  0
ENDTAB
  0
ENDSEC
  0
SECTION
  2
ENTITIES
  0
POLYLINE
  8
FOREGROUND
  6
CONTINUOUS
 66
     1
 40
0.000000
 41
0.000000
  0
VERTEX
  8
FOREGROUND
  6
CONTINUOUS
 10
0.000000
 20
8.247800
  0
VERTEX
  8
FOREGROUND
  6
CONTINUOUS
 10
8.499920
 20
8.247800
  0
VERTEX
  8
FOREGROUND
  6
CONTINUOUS
 10
8.499920
 20
-2.752200
  0
VERTEX
  8
FOREGROUND
  6
CONTINUOUS
 10
0.000000
 20
-2.752200
  0
VERTEX
  8
FOREGROUND
  6
CONTINUOUS
 10
0.000000
 20
8.247800
  0
SEQEND
  8
0
  0
POLYLINE
  8
FOREGROUND
  6
CONTINUOUS
 66
     1
 40
0.000000
 41
0.000000
  0
VERTEX
  8
FOREGROUND
  6
CONTINUOUS
 10
0.000000
 20
8.247800
  0
VERTEX
  8
FOREGROUND
  6
CONTINUOUS
 10
8.499920
 20
8.247800
  0
VERTEX
  8
FOREGROUND
  6
CONTINUOUS
 10
8.499920
 20
-2.752200
  0
VERTEX
  8
FOREGROUND
  6
CONTINUOUS
 10
0.000000
 20
-2.752200
  0
VERTEX
  8
FOREGROUND
  6
CONTINUOUS
 10
0.000000
 20
8.247800
  0
SEQEND
  8
0
  0
POLYLINE
  8
0
  6
CONTINUOUS
 66
     1
 40
0.014080
 41
0.014080
  0
VERTEX
  8
0
  6
CONTINUOUS
 10
4.054160
 20
6.977960
  0
VERTEX
  8
0
  6
CONTINUOUS
 10
4.151840
 20
6.975760
  0
VERTEX
  8
0
  6
CONTINUOUS
 10
4.250840
 20
6.970480
  0
VERTEX
  8
0
  6
CONTINUOUS
 10
4.349840
 20
6.961680
  0
VERTEX
  8
0
  6
CONTINUOUS
 10
4.447960
 20
6.949360
  0
VERTEX
  8
0
  6
CONTINUOUS
 10
4.544320
 20
6.933080
  0
VERTEX
  8
0
  6
CONTINUOUS
 10
4.637600
 20
6.912840
  0
VERTEX
  8
0
  6
CONTINUOUS
 10
4.726480
 20
6.888640
  0
VERTEX
  8
0
  6
CONTINUOUS
 10
4.769160
 20
6.875000
  0
VERTEX
  8
0
  6
CONTINUOUS
 10
4.810080
 20
6.860040
  0
VERTEX
  8
0
  6
CONTINUOUS
 10
4.887520
 20
6.826600
  0
VERTEX
  8
0
  6
CONTINUOUS
 10
4.923160
 20
6.808120
  0
VERTEX
  8
0
  6
CONTINUOUS
 10
4.973320
 20
6.778200
  0
VERTEX
  8
0
  6
CONTINUOUS
 10
5.018640
 20
6.745200
  0
VERTEX
  8
0
  6
CONTINUOUS
 10
5.058240
 20
6.709560
  0
VERTEX
  8
0
  6
CONTINUOUS
 10
5.081560
 20
6.683600
  0
VERTEX
  8
0
  6
CONTINUOUS
 10
5.111480
 20
6.642680
  0
VERTEX
  8
0
  6
CONTINUOUS
 10
5.127760
 20
6.613640
  0
VERTEX
  8
0
  6
CONTINUOUS
 10
5.145800
 20
6.567440
  0
VERTEX
  8
0
  6
CONTINUOUS
 10
5.154160
 20
6.534440
  0
VERTEX
  8
0
  6
CONTINUOUS
 10
5.159000
 20
6.500120
  0
VERTEX
  8
0
  6
CONTINUOUS
 10
5.160320
 20
6.464480
  0
VERTEX
  8
0
  6
CONTINUOUS
 10
5.159440
 20
6.446000
  0
VERTEX
  8
0
  6
CONTINUOUS
 10
5.148440
 20
6.366360
  0
VERTEX
  8
0
  6
CONTINUOUS
 10
5.139640
 20
6.322360
  0
VERTEX
  8
0
  6
CONTINUOUS
 10
5.129520
 20
6.284520
  0
VERTEX
  8
0
  6
CONTINUOUS
 10
5.111920
 20
6.236120
  0
VERTEX
  8
0
  6
CONTINUOUS
 10
5.099160
 20
6.207960
  0
VERTEX
  8
0
  6
CONTINUOUS
 10
5.069240
 20
6.156920
  0
VERTEX
  8
0
  6
CONTINUOUS
 10
5.007640
 20
6.059680
  0
VERTEX
  8
0
  6
CONTINUOUS
 10
4.966720
 20
5.984000
  0
VERTEX
  8
0
  6
CONTINUOUS
 10
4.934160
 20
5.910960
  0
VERTEX
  8
0
  6
CONTINUOUS
 10
4.884440
 20
5.779400
  0
VERTEX
  8
0
  6
CONTINUOUS
 10
4.855400
 20
5.695360
  0
VERTEX
  8
0
  6
CONTINUOUS
 10
4.834720
 20
5.624960
  0
VERTEX
  8
0
  6
CONTINUOUS
 10
4.815360
 20
5.533880
  0
VERTEX
  8
0
  6
CONTINUOUS
 10
4.787200
 20
5.356560
  0
VERTEX
  8
0
  6
CONTINUOUS
 10
4.788520
 20
5.355240
  0
VERTEX
  8
0
  6
CONTINUOUS
 10
4.804800
 20
5.352600
  0
VERTEX
  8
0
  6
CONTINUOUS
 10
4.835160
 20
5.342920
  0
VERTEX
  8
0
  6
CONTINUOUS
 10
4.863320
 20
5.327960
  0
VERTEX
  8
0
  6
CONTINUOUS
 10
4.887520
 20
5.308600
  0
VERTEX
  8
0
  6
CONTINUOUS
 10
4.898520
 20
5.297600
  0
VERTEX
  8
0
  6
CONTINUOUS
 10
4.916560
 20
5.272080
  0
VERTEX
  8
0
  6
CONTINUOUS
 10
4.930640
 20
5.243920
  0
VERTEX
  8
0
  6
CONTINUOUS
 10
4.939000
 20
5.213120
  0
VERTEX
  8
0
  6
CONTINUOUS
 10
4.942080
 20
5.180560
  0
VERTEX
  8
0
  6
CONTINUOUS
 10
4.941200
 20
5.163400
  0
VERTEX
  8
0
  6
CONTINUOUS
 10
4.934600
 20
5.130840
  0
VERTEX
  8
0
  6
CONTINUOUS
 10
4.929320
 20
5.115000
  0
VERTEX
  8
0
  6
CONTINUOUS
 10
4.913920
 20
5.085960
  0
VERTEX
  8
0
  6
CONTINUOUS
 10
4.894120
 20
5.060440
  0
VERTEX
  8
0
  6
CONTINUOUS
 10
4.869920
 20
5.038880
  0
VERTEX
  8
0
  6
CONTINUOUS
 10
4.841760
 20
5.022600
  0
VERTEX
  8
0
  6
CONTINUOUS
 10
4.810960
 20
5.011600
  0
VERTEX
  8
0
  6
CONTINUOUS
 10
4.794680
 20
5.008520
  0
VERTEX
  8
0
  6
CONTINUOUS
 10
4.775320
 20
5.007200
  0
VERTEX
  8
0
  6
CONTINUOUS
 10
4.775320
 20
4.832520
  0
VERTEX
  8
0
  6
CONTINUOUS
 10
4.772680
 20
4.824600
  0
VERTEX
  8
0
  6
CONTINUOUS
 10
3.388440
 20
4.824600
  0
VERTEX
  8
0
  6
CONTINUOUS
 10
3.383160
 20
4.827240
  0
VERTEX
  8
0
  6
CONTINUOUS
 10
3.383160
 20
5.001920
  0
VERTEX
  8
0
  6
CONTINUOUS
 10
3.363800
 20
5.003240
  0
VERTEX
  8
0
  6
CONTINUOUS
 10
3.347520
 20
5.006320
  0
VERTEX
  8
0
  6
CONTINUOUS
 10
3.316720
 20
5.017320
  0
VERTEX
  8
0
  6
CONTINUOUS
 10
3.302200
 20
5.024800
  0
VERTEX
  8
0
  6
CONTINUOUS
 10
3.276240
 20
5.043720
  0
VERTEX
  8
0
  6
CONTINUOUS
 10
3.254240
 20
5.067480
  0
VERTEX
  8
0
  6
CONTINUOUS
 10
3.244560
 20
5.080680
  0
VERTEX
  8
0
  6
CONTINUOUS
 10
3.229600
 20
5.109720
  0
VERTEX
  8
0
  6
CONTINUOUS
 10
3.220360
 20
5.141400
  0
VERTEX
  8
0
  6
CONTINUOUS
 10
3.217720
 20
5.158120
  0
VERTEX
  8
0
  6
CONTINUOUS
 10
3.216840
 20
5.175280
  0
VERTEX
  8
0
  6
CONTINUOUS
 10
3.219920
 20
5.207840
  0
VERTEX
  8
0
  6
CONTINUOUS
 10
3.228280
 20
5.238640
  0
VERTEX
  8
0
  6
CONTINUOUS
 10
3.241920
 20
5.266800
  0
VERTEX
  8
0
  6
CONTINUOUS
 10
3.260400
 20
5.292320
  0
VERTEX
  8
0
  6
CONTINUOUS
 10
3.282840
 20
5.313440
  0
VERTEX
  8
0
  6
CONTINUOUS
 10
3.308800
 20
5.330600
  0
VERTEX
  8
0
  6
CONTINUOUS
 10
3.323320
 20
5.337640
  0
VERTEX
  8
0
  6
CONTINUOUS
 10
3.353680
 20
5.347320
  0
VERTEX
  8
0
  6
CONTINUOUS
 10
3.369960
 20
5.349960
  0
VERTEX
  8
0
  6
CONTINUOUS
 10
3.366000
 20
5.356560
  0
VERTEX
  8
0
  6
CONTINUOUS
 10
3.337840
 20
5.533880
  0
VERTEX
  8
0
  6
CONTINUOUS
 10
3.318480
 20
5.624960
  0
VERTEX
  8
0
  6
CONTINUOUS
 10
3.289440
 20
5.721320
  0
VERTEX
  8
0
  6
CONTINUOUS
 10
3.230480
 20
5.882800
  0
VERTEX
  8
0
  6
CONTINUOUS
 10
3.197040
 20
5.961560
  0
VERTEX
  8
0
  6
CONTINUOUS
 10
3.165360
 20
6.024480
  0
VERTEX
  8
0
  6
CONTINUOUS
 10
3.126640
 20
6.090480
  0
VERTEX
  8
0
  6
CONTINUOUS
 10
3.068560
 20
6.182000
  0
VERTEX
  8
0
  6
CONTINUOUS
 10
3.047440
 20
6.221600
  0
VERTEX
  8
0
  6
CONTINUOUS
 10
3.029400
 20
6.267360
  0
VERTEX
  8
0
  6
CONTINUOUS
 10
3.018400
 20
6.302560
  0
VERTEX
  8
0
  6
CONTINUOUS
 10
3.008720
 20
6.343480
  0
VERTEX
  8
0
  6
CONTINUOUS
 10
2.997280
 20
6.417400
  0
VERTEX
  8
0
  6
CONTINUOUS
 10
2.993760
 20
6.446000
  0
VERTEX
  8
0
  6
CONTINUOUS
 10
2.993320
 20
6.482520
  0
VERTEX
  8
0
  6
CONTINUOUS
 10
2.995960
 20
6.517720
  0
VERTEX
  8
0
  6
CONTINUOUS
 10
3.002560
 20
6.551160
  0
VERTEX
  8
0
  6
CONTINUOUS
 10
3.018840
 20
6.598680
  0
VERTEX
  8
0
  6
CONTINUOUS
 10
3.033360
 20
6.628600
  0
VERTEX
  8
0
  6
CONTINUOUS
 10
3.061080
 20
6.670400
  0
VERTEX
  8
0
  6
CONTINUOUS
 10
3.082640
 20
6.696800
  0
VERTEX
  8
0
  6
CONTINUOUS
 10
3.120480
 20
6.733760
  0
VERTEX
  8
0
  6
CONTINUOUS
 10
3.164040
 20
6.767640
  0
VERTEX
  8
0
  6
CONTINUOUS
 10
3.195720
 20
6.788320
  0
VERTEX
  8
0
  6
CONTINUOUS
 10
3.230040
 20
6.808120
  0
VERTEX
  8
0
  6
CONTINUOUS
 10
3.265680
 20
6.826600
  0
VERTEX
  8
0
  6
CONTINUOUS
 10
3.343120
 20
6.860040
  0
VERTEX
  8
0
  6
CONTINUOUS
 10
3.426720
 20
6.888640
  0
VERTEX
  8
0
  6
CONTINUOUS
 10
3.470720
 20
6.901400
  0
VERTEX
  8
0
  6
CONTINUOUS
 10
3.561800
 20
6.923400
  0
VERTEX
  8
0
  6
CONTINUOUS
 10
3.656840
 20
6.941440
  0
VERTEX
  8
0
  6
CONTINUOUS
 10
3.754080
 20
6.955960
  0
VERTEX
  8
0
  6
CONTINUOUS
 10
3.853080
 20
6.966520
  0
VERTEX
  8
0
  6
CONTINUOUS
 10
3.952080
 20
6.973560
  0
VERTEX
  8
0
  6
CONTINUOUS
 10
4.050640
 20
6.977080
  0
VERTEX
  8
0
  6
CONTINUOUS
 10
4.099480
 20
6.977960
  0
VERTEX
  8
0
  6
CONTINUOUS
 10
4.054160
 20
6.977960
  0
SEQEND
  8
0
  0
SOLID
  8
0
 62
    15
 10
4.829000
 20
2.750000
 11
5.462600
 21
3.104200
 12
4.816240
 22
2.716120
 13
5.449840
 23
3.069880
  0
POLYLINE
  8
0
  6
CONTINUOUS
 66
     1
 40
0.000000
 41
0.000000
  0
VERTEX
  8
0
  6
CONTINUOUS
 10
4.829000
 20
2.750000
  0
VERTEX
  8
0
  6
CONTINUOUS
 10
5.462600
 20
3.104200
  0
VERTEX
  8
0
  6
CONTINUOUS
 10
5.449840
 20
3.069880
  0
VERTEX
  8
0
  6
CONTINUOUS
 10
4.816240
 20
2.716120
  0
VERTEX
  8
0
  6
CONTINUOUS
 10
4.829000
 20
2.750000
  0
SEQEND
  8
0
  0
SOLID
  8
0
 62
    15
 10
4.182200
 20
3.906320
 11
4.815800
 21
4.260520
 12
4.379760
 22
3.885200
 13
5.013360
 23
4.239400
  0
POLYLINE
  8
0
  6
CONTINUOUS
 66
     1
 40
0.000000
 41
0.000000
  0
VERTEX
  8
0
  6
CONTINUOUS
 10
4.182200
 20
3.906320
  0
VERTEX
  8
0
  6
CONTINUOUS
 10
4.815800
 20
4.260520
  0
VERTEX
  8
0
  6
CONTINUOUS
 10
5.013360
 20
4.239400
  0
VERTEX
  8
0
  6
CONTINUOUS
 10
4.379760
 20
3.885200
  0
VERTEX
  8
0
  6
CONTINUOUS
 10
4.182200
 20
3.906320
  0
SEQEND
  8
0
  0
SOLID
  8
0
 62
    15
 10
4.379760
 20
3.885200
 11
5.013360
 21
4.239400
 12
4.568960
 22
3.849120
 13
5.202560
 23
4.202880
  0
POLYLINE
  8
0
  6
CONTINUOUS
 66
     1
 40
0.000000
 41
0.000000
  0
VERTEX
  8
0
  6
CONTINUOUS
 10
4.379760
 20
3.885200
  0
VERTEX
  8
0
  6
CONTINUOUS
 10
5.013360
 20
4.239400
  0
VERTEX
  8
0
  6
CONTINUOUS
 10
5.202560
 20
4.202880
  0
VERTEX
  8
0
  6
CONTINUOUS
 10
4.568960
 20
3.849120
  0
VERTEX
  8
0
  6
CONTINUOUS
 10
4.379760
 20
3.885200
  0
SEQEND
  8
0
  0
SOLID
  8
0
 62
    15
 10
4.568960
 20
3.849120
 11
5.202560
 21
4.202880
 12
4.741880
 22
3.796320
 13
5.375480
 23
4.150080
  0
POLYLINE
  8
0
  6
CONTINUOUS
 66
     1
 40
0.000000
 41
0.000000
  0
VERTEX
  8
0
  6
CONTINUOUS
 10
4.568960
 20
3.849120
  0
VERTEX
  8
0
  6
CONTINUOUS
 10
5.202560
 20
4.202880
  0
VERTEX
  8
0
  6
CONTINUOUS
 10
5.375480
 20
4.150080
  0
VERTEX
  8
0
  6
CONTINUOUS
 10
4.741880
 20
3.796320
  0
VERTEX
  8
0
  6
CONTINUOUS
 10
4.568960
 20
3.849120
  0
SEQEND
  8
0
  0
SOLID
  8
0
 62
    15
 10
4.741880
 20
3.796320
 11
5.375480
 21
4.150080
 12
4.888840
 22
3.724600
 13
5.522440
 23
4.078360
  0
POLYLINE
  8
0
  6
CONTINUOUS
 66
     1
 40
0.000000
 41
0.000000
  0
VERTEX
  8
0
  6
CONTINUOUS
 10
4.741880
 20
3.796320
  0
VERTEX
  8
0
  6
CONTINUOUS
 10
5.375480
 20
4.150080
  0
VERTEX
  8
0
  6
CONTINUOUS
 10
5.522440
 20
4.078360
  0
VERTEX
  8
0
  6
CONTINUOUS
 10
4.888840
 20
3.724600
  0
VERTEX
  8
0
  6
CONTINUOUS
 10
4.741880
 20
3.796320
  0
SEQEND
  8
0
  0
SOLID
  8
0
 62
    15
 10
4.888840
 20
3.724600
 11
5.522440
 21
4.078360
 12
4.950440
 22
3.681480
 13
5.584040
 23
4.035240
  0
POLYLINE
  8
0
  6
CONTINUOUS
 66
     1
 40
0.000000
 41
0.000000
  0
VERTEX
  8
0
  6
CONTINUOUS
 10
4.888840
 20
3.724600
  0
VERTEX
  8
0
  6
CONTINUOUS
 10
5.522440
 20
4.078360
  0
VERTEX
  8
0
  6
CONTINUOUS
 10
5.584040
 20
4.035240
  0
VERTEX
  8
0
  6
CONTINUOUS
 10
4.950440
 20
3.681480
  0
VERTEX
  8
0
  6
CONTINUOUS
 10
4.888840
 20
3.724600
  0
SEQEND
  8
0
  0
SOLID
  8
0
 62
    15
 10
4.950440
 20
3.681480
 11
5.584040
 21
4.035240
 12
5.001920
 22
3.633080
 13
5.635520
 23
3.986840
  0
POLYLINE
  8
0
  6
CONTINUOUS
 66
     1
 40
0.000000
 41
0.000000
  0
VERTEX
  8
0
  6
CONTINUOUS
 10
4.950440
 20
3.681480
  0
VERTEX
  8
0
  6
CONTINUOUS
 10
5.584040
 20
4.035240
  0
VERTEX
  8
0
  6
CONTINUOUS
 10
5.635520
 20
3.986840
  0
VERTEX
  8
0
  6
CONTINUOUS
 10
5.001920
 20
3.633080
  0
VERTEX
  8
0
  6
CONTINUOUS
 10
4.950440
 20
3.681480
  0
SEQEND
  8
0
  0
SOLID
  8
0
 62
    15
 10
5.001920
 20
3.633080
 11
5.635520
 21
3.986840
 12
5.043280
 22
3.578960
 13
5.676880
 23
3.932720
  0
POLYLINE
  8
0
  6
CONTINUOUS
 66
     1
 40
0.000000
 41
0.000000
  0
VERTEX
  8
0
  6
CONTINUOUS
 10
5.001920
 20
3.633080
  0
VERTEX
  8
0
  6
CONTINUOUS
 10
5.635520
 20
3.986840
  0
VERTEX
  8
0
  6
CONTINUOUS
 10
5.676880
 20
3.932720
  0
VERTEX
  8
0
  6
CONTINUOUS
 10
5.043280
 20
3.578960
  0
VERTEX
  8
0
  6
CONTINUOUS
 10
5.001920
 20
3.633080
  0
SEQEND
  8
0
  0
SOLID
  8
0
 62
    15
 10
5.043280
 20
3.578960
 11
5.676880
 21
3.932720
 12
5.072320
 22
3.519120
 13
5.705920
 23
3.873320
  0
POLYLINE
  8
0
  6
CONTINUOUS
 66
     1
 40
0.000000
 41
0.000000
  0
VERTEX
  8
0
  6
CONTINUOUS
 10
5.043280
 20
3.578960
  0
VERTEX
  8
0
  6
CONTINUOUS
 10
5.676880
 20
3.932720
  0
VERTEX
  8
0
  6
CONTINUOUS
 10
5.705920
 20
3.873320
  0
VERTEX
  8
0
  6
CONTINUOUS
 10
5.072320
 20
3.519120
  0
VERTEX
  8
0
  6
CONTINUOUS
 10
5.043280
 20
3.578960
  0
SEQEND
  8
0
  0
SOLID
  8
0
 62
    15
 10
5.072320
 20
3.519120
 11
5.705920
 21
3.873320
 12
5.088600
 22
3.453560
 13
5.722200
 23
3.807760
  0
POLYLINE
  8
0
  6
CONTINUOUS
 66
     1
 40
0.000000
 41
0.000000
  0
VERTEX
  8
0
  6
CONTINUOUS
 10
5.072320
 20
3.519120
  0
VERTEX
  8
0
  6
CONTINUOUS
 10
5.705920
 20
3.873320
  0
VERTEX
  8
0
  6
CONTINUOUS
 10
5.722200
 20
3.807760
  0
VERTEX
  8
0
  6
CONTINUOUS
 10
5.088600
 20
3.453560
  0
VERTEX
  8
0
  6
CONTINUOUS
 10
5.072320
 20
3.519120
  0
SEQEND
  8
0
  0
SOLID
  8
0
 62
    15
 10
5.088600
 20
3.453560
 11
5.722200
 21
3.807760
 12
5.090800
 22
3.382280
 13
5.724400
 23
3.736040
  0
POLYLINE
  8
0
  6
CONTINUOUS
 66
     1
 40
0.000000
 41
0.000000
  0
VERTEX
  8
0
  6
CONTINUOUS
 10
5.088600
 20
3.453560
  0
VERTEX
  8
0
  6
CONTINUOUS
 10
5.722200
 20
3.807760
  0
VERTEX
  8
0
  6
CONTINUOUS
 10
5.724400
 20
3.736040
  0
VERTEX
  8
0
  6
CONTINUOUS
 10
5.090800
 20
3.382280
  0
VERTEX
  8
0
  6
CONTINUOUS
 10
5.088600
 20
3.453560
  0
SEQEND
  8
0
  0
SOLID
  8
0
 62
    15
 10
5.090800
 20
3.382280
 11
5.724400
 21
3.736040
 12
5.075840
 22
3.279760
 13
5.709440
 23
3.633520
  0
POLYLINE
  8
0
  6
CONTINUOUS
 66
     1
 40
0.000000
 41
0.000000
  0
VERTEX
  8
0
  6
CONTINUOUS
 10
5.090800
 20
3.382280
  0
VERTEX
  8
0
  6
CONTINUOUS
 10
5.724400
 20
3.736040
  0
VERTEX
  8
0
  6
CONTINUOUS
 10
5.709440
 20
3.633520
  0
VERTEX
  8
0
  6
CONTINUOUS
 10
5.075840
 20
3.279760
  0
VERTEX
  8
0
  6
CONTINUOUS
 10
5.090800
 20
3.382280
  0
SEQEND
  8
0
  0
SOLID
  8
0
 62
    15
 10
5.075840
 20
3.279760
 11
5.709440
 21
3.633520
 12
5.055600
 22
3.203200
 13
5.689200
 23
3.557400
  0
POLYLINE
  8
0
  6
CONTINUOUS
 66
     1
 40
0.000000
 41
0.000000
  0
VERTEX
  8
0
  6
CONTINUOUS
 10
5.075840
 20
3.279760
  0
VERTEX
  8
0
  6
CONTINUOUS
 10
5.709440
 20
3.633520
  0
VERTEX
  8
0
  6
CONTINUOUS
 10
5.689200
 20
3.557400
  0
VERTEX
  8
0
  6
CONTINUOUS
 10
5.055600
 20
3.203200
  0
VERTEX
  8
0
  6
CONTINUOUS
 10
5.075840
 20
3.279760
  0
SEQEND
  8
0
  0
SOLID
  8
0
 62
    15
 10
5.055600
 20
3.203200
 11
5.689200
 21
3.557400
 12
5.001040
 22
3.092760
 13
5.634640
 23
3.446960
  0
POLYLINE
  8
0
  6
CONTINUOUS
 66
     1
 40
0.000000
 41
0.000000
  0
VERTEX
  8
0
  6
CONTINUOUS
 10
5.055600
 20
3.203200
  0
VERTEX
  8
0
  6
CONTINUOUS
 10
5.689200
 20
3.557400
  0
VERTEX
  8
0
  6
CONTINUOUS
 10
5.634640
 20
3.446960
  0
VERTEX
  8
0
  6
CONTINUOUS
 10
5.001040
 20
3.092760
  0
VERTEX
  8
0
  6
CONTINUOUS
 10
5.055600
 20
3.203200
  0
SEQEND
  8
0
  0
SOLID
  8
0
 62
    15
 10
5.001040
 20
3.092760
 11
5.634640
 21
3.446960
 12
4.984320
 22
3.067680
 13
5.618360
 23
3.421440
  0
POLYLINE
  8
0
  6
CONTINUOUS
 66
     1
 40
0.000000
 41
0.000000
  0
VERTEX
  8
0
  6
CONTINUOUS
 10
5.001040
 20
3.092760
  0
VERTEX
  8
0
  6
CONTINUOUS
 10
5.634640
 20
3.446960
  0
VERTEX
  8
0
  6
CONTINUOUS
 10
5.618360
 20
3.421440
  0
VERTEX
  8
0
  6
CONTINUOUS
 10
4.984320
 20
3.067680
  0
VERTEX
  8
0
  6
CONTINUOUS
 10
5.001040
 20
3.092760
  0
SEQEND
  8
0
  0
SOLID
  8
0
 62
    15
 10
4.984320
 20
3.067680
 11
5.618360
 21
3.421440
 12
4.975960
 22
3.054480
 13
5.609560
 23
3.408240
  0
POLYLINE
  8
0
  6
CONTINUOUS
 66
     1
 40
0.000000
 41
0.000000
  0
VERTEX
  8
0
  6
CONTINUOUS
 10
4.984320
 20
3.067680
  0
VERTEX
  8
0
  6
CONTINUOUS
 10
5.618360
 20
3.421440
  0
VERTEX
  8
0
  6
CONTINUOUS
 10
5.609560
 20
3.408240
  0
VERTEX
  8
0
  6
CONTINUOUS
 10
4.975960
 20
3.054480
  0
VERTEX
  8
0
  6
CONTINUOUS
 10
4.984320
 20
3.067680
  0
SEQEND
  8
0
  0
SOLID
  8
0
 62
    15
 10
4.975960
 20
3.054480
 11
5.609560
 21
3.408240
 12
4.967160
 22
3.040840
 13
5.600760
 23
3.394600
  0
POLYLINE
  8
0
  6
CONTINUOUS
 66
     1
 40
0.000000
 41
0.000000
  0
VERTEX
  8
0
  6
CONTINUOUS
 10
4.975960
 20
3.054480
  0
VERTEX
  8
0
  6
CONTINUOUS
 10
5.609560
 20
3.408240
  0
VERTEX
  8
0
  6
CONTINUOUS
 10
5.600760
 20
3.394600
  0
VERTEX
  8
0
  6
CONTINUOUS
 10
4.967160
 20
3.040840
  0
VERTEX
  8
0
  6
CONTINUOUS
 10
4.975960
 20
3.054480
  0
SEQEND
  8
0
  0
SOLID
  8
0
 62
    15
 10
4.967160
 20
3.040840
 11
5.600760
 21
3.394600
 12
4.929320
 22
2.978800
 13
5.562920
 23
3.332560
  0
POLYLINE
  8
0
  6
CONTINUOUS
 66
     1
 40
0.000000
 41
0.000000
  0
VERTEX
  8
0
  6
CONTINUOUS
 10
4.967160
 20
3.040840
  0
VERTEX
  8
0
  6
CONTINUOUS
 10
5.600760
 20
3.394600
  0
VERTEX
  8
0
  6
CONTINUOUS
 10
5.562920
 20
3.332560
  0
VERTEX
  8
0
  6
CONTINUOUS
 10
4.929320
 20
2.978800
  0
VERTEX
  8
0
  6
CONTINUOUS
 10
4.967160
 20
3.040840
  0
SEQEND
  8
0
  0
SOLID
  8
0
 62
    15
 10
4.929320
 20
2.978800
 11
5.562920
 21
3.332560
 12
4.887960
 22
2.897840
 13
5.521560
 23
3.251600
  0
POLYLINE
  8
0
  6
CONTINUOUS
 66
     1
 40
0.000000
 41
0.000000
  0
VERTEX
  8
0
  6
CONTINUOUS
 10
4.929320
 20
2.978800
  0
VERTEX
  8
0
  6
CONTINUOUS
 10
5.562920
 20
3.332560
  0
VERTEX
  8
0
  6
CONTINUOUS
 10
5.521560
 20
3.251600
  0
VERTEX
  8
0
  6
CONTINUOUS
 10
4.887960
 20
2.897840
  0
VERTEX
  8
0
  6
CONTINUOUS
 10
4.929320
 20
2.978800
  0
SEQEND
  8
0
  0
SOLID
  8
0
 62
    15
 10
4.887960
 20
2.897840
 11
5.521560
 21
3.251600
 12
4.843080
 22
2.788720
 13
5.476680
 23
3.142480
  0
POLYLINE
  8
0
  6
CONTINUOUS
 66
     1
 40
0.000000
 41
0.000000
  0
VERTEX
  8
0
  6
CONTINUOUS
 10
4.887960
 20
2.897840
  0
VERTEX
  8
0
  6
CONTINUOUS
 10
5.521560
 20
3.251600
  0
VERTEX
  8
0
  6
CONTINUOUS
 10
5.476680
 20
3.142480
  0
VERTEX
  8
0
  6
CONTINUOUS
 10
4.843080
 20
2.788720
  0
VERTEX
  8
0
  6
CONTINUOUS
 10
4.887960
 20
2.897840
  0
SEQEND
  8
0
  0
SOLID
  8
0
 62
    15
 10
4.843080
 20
2.788720
 11
5.476680
 21
3.142480
 12
4.829000
 22
2.750000
 13
5.462600
 23
3.104200
  0
POLYLINE
  8
0
  6
CONTINUOUS
 66
     1
 40
0.000000
 41
0.000000
  0
VERTEX
  8
0
  6
CONTINUOUS
 10
4.843080
 20
2.788720
  0
VERTEX
  8
0
  6
CONTINUOUS
 10
5.476680
 20
3.142480
  0
VERTEX
  8
0
  6
CONTINUOUS
 10
5.462600
 20
3.104200
  0
VERTEX
  8
0
  6
CONTINUOUS
 10
4.829000
 20
2.750000
  0
VERTEX
  8
0
  6
CONTINUOUS
 10
4.843080
 20
2.788720
  0
SEQEND
  8
0
  0
SOLID
  8
0
 62
    15
 10
4.642000
 20
4.267120
 11
4.815800
 21
4.260520
 12
4.008400
 22
3.913360
 13
4.182200
 23
3.906320
  0
POLYLINE
  8
0
  6
CONTINUOUS
 66
     1
 40
0.000000
 41
0.000000
  0
VERTEX
  8
0
  6
CONTINUOUS
 10
4.642000
 20
4.267120
  0
VERTEX
  8
0
  6
CONTINUOUS
 10
4.815800
 20
4.260520
  0
VERTEX
  8
0
  6
CONTINUOUS
 10
4.182200
 20
3.906320
  0
VERTEX
  8
0
  6
CONTINUOUS
 10
4.008400
 20
3.913360
  0
VERTEX
  8
0
  6
CONTINUOUS
 10
4.642000
 20
4.267120
  0
SEQEND
  8
0
  0
SOLID
  8
0
 62
    15
 10
3.834160
 20
3.906320
 11
4.467760
 21
4.260520
 12
4.030840
 22
3.914240
 13
4.664440
 23
4.268000
  0
POLYLINE
  8
0
  6
CONTINUOUS
 66
     1
 40
0.000000
 41
0.000000
  0
VERTEX
  8
0
  6
CONTINUOUS
 10
3.834160
 20
3.906320
  0
VERTEX
  8
0
  6
CONTINUOUS
 10
4.467760
 20
4.260520
  0
VERTEX
  8
0
  6
CONTINUOUS
 10
4.664440
 20
4.268000
  0
VERTEX
  8
0
  6
CONTINUOUS
 10
4.030840
 20
3.914240
  0
VERTEX
  8
0
  6
CONTINUOUS
 10
3.834160
 20
3.906320
  0
SEQEND
  8
0
  0
SOLID
  8
0
 62
    15
 10
4.816240
 20
2.716120
 11
5.449840
 21
3.069880
 12
4.795560
 22
2.657600
 13
5.429160
 23
3.011360
  0
POLYLINE
  8
0
  6
CONTINUOUS
 66
     1
 40
0.000000
 41
0.000000
  0
VERTEX
  8
0
  6
CONTINUOUS
 10
4.816240
 20
2.716120
  0
VERTEX
  8
0
  6
CONTINUOUS
 10
5.449840
 20
3.069880
  0
VERTEX
  8
0
  6
CONTINUOUS
 10
5.429160
 20
3.011360
  0
VERTEX
  8
0
  6
CONTINUOUS
 10
4.795560
 20
2.657600
  0
VERTEX
  8
0
  6
CONTINUOUS
 10
4.816240
 20
2.716120
  0
SEQEND
  8
0
  0
SOLID
  8
0
 62
    15
 10
4.795560
 20
2.657600
 11
5.429160
 21
3.011360
 12
4.766520
 22
2.561240
 13
5.400120
 23
2.915000
  0
POLYLINE
  8
0
  6
CONTINUOUS
 66
     1
 40
0.000000
 41
0.000000
  0
VERTEX
  8
0
  6
CONTINUOUS
 10
4.795560
 20
2.657600
  0
VERTEX
  8
0
  6
CONTINUOUS
 10
5.429160
 20
3.011360
  0
VERTEX
  8
0
  6
CONTINUOUS
 10
5.400120
 20
2.915000
  0
VERTEX
  8
0
  6
CONTINUOUS
 10
4.766520
 20
2.561240
  0
VERTEX
  8
0
  6
CONTINUOUS
 10
4.795560
 20
2.657600
  0
SEQEND
  8
0
  0
SOLID
  8
0
 62
    15
 10
4.766520
 20
2.561240
 11
5.400120
 21
2.915000
 12
4.744520
 22
2.454760
 13
5.378120
 23
2.808960
  0
POLYLINE
  8
0
  6
CONTINUOUS
 66
     1
 40
0.000000
 41
0.000000
  0
VERTEX
  8
0
  6
CONTINUOUS
 10
4.766520
 20
2.561240
  0
VERTEX
  8
0
  6
CONTINUOUS
 10
5.400120
 20
2.915000
  0
VERTEX
  8
0
  6
CONTINUOUS
 10
5.378120
 20
2.808960
  0
VERTEX
  8
0
  6
CONTINUOUS
 10
4.744520
 20
2.454760
  0
VERTEX
  8
0
  6
CONTINUOUS
 10
4.766520
 20
2.561240
  0
SEQEND
  8
0
  0
SOLID
  8
0
 62
    15
 10
4.744520
 20
2.454760
 11
5.378120
 21
2.808960
 12
4.732640
 22
2.383480
 13
5.366240
 23
2.737680
  0
POLYLINE
  8
0
  6
CONTINUOUS
 66
     1
 40
0.000000
 41
0.000000
  0
VERTEX
  8
0
  6
CONTINUOUS
 10
4.744520
 20
2.454760
  0
VERTEX
  8
0
  6
CONTINUOUS
 10
5.378120
 20
2.808960
  0
VERTEX
  8
0
  6
CONTINUOUS
 10
5.366240
 20
2.737680
  0
VERTEX
  8
0
  6
CONTINUOUS
 10
4.732640
 20
2.383480
  0
VERTEX
  8
0
  6
CONTINUOUS
 10
4.744520
 20
2.454760
  0
SEQEND
  8
0
  0
SOLID
  8
0
 62
    15
 10
4.732640
 20
2.383480
 11
5.366240
 21
2.737680
 12
4.719000
 22
2.292840
 13
5.352600
 23
2.646600
  0
POLYLINE
  8
0
  6
CONTINUOUS
 66
     1
 40
0.000000
 41
0.000000
  0
VERTEX
  8
0
  6
CONTINUOUS
 10
4.732640
 20
2.383480
  0
VERTEX
  8
0
  6
CONTINUOUS
 10
5.366240
 20
2.737680
  0
VERTEX
  8
0
  6
CONTINUOUS
 10
5.352600
 20
2.646600
  0
VERTEX
  8
0
  6
CONTINUOUS
 10
4.719000
 20
2.292840
  0
VERTEX
  8
0
  6
CONTINUOUS
 10
4.732640
 20
2.383480
  0
SEQEND
  8
0
  0
SOLID
  8
0
 62
     7
 10
4.719000
 20
2.292840
 11
5.352600
 21
2.646600
 12
4.720320
 22
2.291520
 13
5.353920
 23
2.645280
  0
POLYLINE
  8
0
  6
CONTINUOUS
 66
     1
 40
0.000000
 41
0.000000
  0
VERTEX
  8
0
  6
CONTINUOUS
 10
4.719000
 20
2.292840
  0
VERTEX
  8
0
  6
CONTINUOUS
 10
5.352600
 20
2.646600
  0
VERTEX
  8
0
  6
CONTINUOUS
 10
5.353920
 20
2.645280
  0
VERTEX
  8
0
  6
CONTINUOUS
 10
4.720320
 20
2.291520
  0
VERTEX
  8
0
  6
CONTINUOUS
 10
4.719000
 20
2.292840
  0
SEQEND
  8
0
  0
SOLID
  8
0
 62
    15
 10
4.720320
 20
2.291520
 11
5.353920
 21
2.645280
 12
4.781480
 22
2.272160
 13
5.415080
 23
2.625920
  0
POLYLINE
  8
0
  6
CONTINUOUS
 66
     1
 40
0.000000
 41
0.000000
  0
VERTEX
  8
0
  6
CONTINUOUS
 10
4.720320
 20
2.291520
  0
VERTEX
  8
0
  6
CONTINUOUS
 10
5.353920
 20
2.645280
  0
VERTEX
  8
0
  6
CONTINUOUS
 10
5.415080
 20
2.625920
  0
VERTEX
  8
0
  6
CONTINUOUS
 10
4.781480
 20
2.272160
  0
VERTEX
  8
0
  6
CONTINUOUS
 10
4.720320
 20
2.291520
  0
SEQEND
  8
0
  0
SOLID
  8
0
 62
     7
 10
4.781480
 20
2.272160
 11
5.415080
 21
2.625920
 12
4.829880
 22
2.233440
 13
5.463480
 23
2.587640
  0
POLYLINE
  8
0
  6
CONTINUOUS
 66
     1
 40
0.000000
 41
0.000000
  0
VERTEX
  8
0
  6
CONTINUOUS
 10
4.781480
 20
2.272160
  0
VERTEX
  8
0
  6
CONTINUOUS
 10
5.415080
 20
2.625920
  0
VERTEX
  8
0
  6
CONTINUOUS
 10
5.463480
 20
2.587640
  0
VERTEX
  8
0
  6
CONTINUOUS
 10
4.829880
 20
2.233440
  0
VERTEX
  8
0
  6
CONTINUOUS
 10
4.781480
 20
2.272160
  0
SEQEND
  8
0
  0
SOLID
  8
0
 62
     7
 10
4.829880
 20
2.233440
 11
5.463480
 21
2.587640
 12
4.862000
 22
2.180200
 13
5.495600
 23
2.533960
  0
POLYLINE
  8
0
  6
CONTINUOUS
 66
     1
 40
0.000000
 41
0.000000
  0
VERTEX
  8
0
  6
CONTINUOUS
 10
4.829880
 20
2.233440
  0
VERTEX
  8
0
  6
CONTINUOUS
 10
5.463480
 20
2.587640
  0
VERTEX
  8
0
  6
CONTINUOUS
 10
5.495600
 20
2.533960
  0
VERTEX
  8
0
  6
CONTINUOUS
 10
4.862000
 20
2.180200
  0
VERTEX
  8
0
  6
CONTINUOUS
 10
4.829880
 20
2.233440
  0
SEQEND
  8
0
  0
SOLID
  8
0
 62
    15
 10
4.862000
 20
2.180200
 11
5.495600
 21
2.533960
 12
4.873440
 22
2.116840
 13
5.507040
 23
2.470600
  0
POLYLINE
  8
0
  6
CONTINUOUS
 66
     1
 40
0.000000
 41
0.000000
  0
VERTEX
  8
0
  6
CONTINUOUS
 10
4.862000
 20
2.180200
  0
VERTEX
  8
0
  6
CONTINUOUS
 10
5.495600
 20
2.533960
  0
VERTEX
  8
0
  6
CONTINUOUS
 10
5.507040
 20
2.470600
  0
VERTEX
  8
0
  6
CONTINUOUS
 10
4.873440
 20
2.116840
  0
VERTEX
  8
0
  6
CONTINUOUS
 10
4.862000
 20
2.180200
  0
SEQEND
  8
0
  0
SOLID
  8
0
 62
    15
 10
4.873440
 20
2.116840
 11
5.507040
 21
2.470600
 12
4.860680
 22
2.051280
 13
5.494280
 23
2.405040
  0
POLYLINE
  8
0
  6
CONTINUOUS
 66
     1
 40
0.000000
 41
0.000000
  0
VERTEX
  8
0
  6
CONTINUOUS
 10
4.873440
 20
2.116840
  0
VERTEX
  8
0
  6
CONTINUOUS
 10
5.507040
 20
2.470600
  0
VERTEX
  8
0
  6
CONTINUOUS
 10
5.494280
 20
2.405040
  0
VERTEX
  8
0
  6
CONTINUOUS
 10
4.860680
 20
2.051280
  0
VERTEX
  8
0
  6
CONTINUOUS
 10
4.873440
 20
2.116840
  0
SEQEND
  8
0
  0
SOLID
  8
0
 62
    15
 10
4.707120
 20
1.943480
 11
5.340720
 21
2.297240
 12
4.707120
 22
1.768800
 13
5.340720
 23
2.122560
  0
POLYLINE
  8
0
  6
CONTINUOUS
 66
     1
 40
0.000000
 41
0.000000
  0
VERTEX
  8
0
  6
CONTINUOUS
 10
4.707120
 20
1.943480
  0
VERTEX
  8
0
  6
CONTINUOUS
 10
5.340720
 20
2.297240
  0
VERTEX
  8
0
  6
CONTINUOUS
 10
5.340720
 20
2.122560
  0
VERTEX
  8
0
  6
CONTINUOUS
 10
4.707120
 20
1.768800
  0
VERTEX
  8
0
  6
CONTINUOUS
 10
4.707120
 20
1.943480
  0
SEQEND
  8
0
  0
SOLID
  8
0
 62
    15
 10
4.825480
 20
1.996720
 11
5.459080
 21
2.350480
 12
4.773560
 22
1.958880
 13
5.407160
 23
2.312640
  0
POLYLINE
  8
0
  6
CONTINUOUS
 66
     1
 40
0.000000
 41
0.000000
  0
VERTEX
  8
0
  6
CONTINUOUS
 10
4.825480
 20
1.996720
  0
VERTEX
  8
0
  6
CONTINUOUS
 10
5.459080
 20
2.350480
  0
VERTEX
  8
0
  6
CONTINUOUS
 10
5.407160
 20
2.312640
  0
VERTEX
  8
0
  6
CONTINUOUS
 10
4.773560
 20
1.958880
  0
VERTEX
  8
0
  6
CONTINUOUS
 10
4.825480
 20
1.996720
  0
SEQEND
  8
0
  0
SOLID
  8
0
 62
    15
 10
4.860680
 20
2.051280
 11
5.494280
 21
2.405040
 12
4.825480
 22
1.996720
 13
5.459080
 23
2.350480
  0
POLYLINE
  8
0
  6
CONTINUOUS
 66
     1
 40
0.000000
 41
0.000000
  0
VERTEX
  8
0
  6
CONTINUOUS
 10
4.860680
 20
2.051280
  0
VERTEX
  8
0
  6
CONTINUOUS
 10
5.494280
 20
2.405040
  0
VERTEX
  8
0
  6
CONTINUOUS
 10
5.459080
 20
2.350480
  0
VERTEX
  8
0
  6
CONTINUOUS
 10
4.825480
 20
1.996720
  0
VERTEX
  8
0
  6
CONTINUOUS
 10
4.860680
 20
2.051280
  0
SEQEND
  8
0
  0
SOLID
  8
0
 62
    15
 10
4.707120
 20
1.768800
 11
5.340720
 21
2.122560
 12
4.704040
 22
1.760880
 13
5.338080
 23
2.114640
  0
POLYLINE
  8
0
  6
CONTINUOUS
 66
     1
 40
0.000000
 41
0.000000
  0
VERTEX
  8
0
  6
CONTINUOUS
 10
4.707120
 20
1.768800
  0
VERTEX
  8
0
  6
CONTINUOUS
 10
5.340720
 20
2.122560
  0
VERTEX
  8
0
  6
CONTINUOUS
 10
5.338080
 20
2.114640
  0
VERTEX
  8
0
  6
CONTINUOUS
 10
4.704040
 20
1.760880
  0
VERTEX
  8
0
  6
CONTINUOUS
 10
4.707120
 20
1.768800
  0
SEQEND
  8
0
  0
SOLID
  8
0
 62
    15
 10
3.240600
 20
2.266880
 11
3.874200
 21
2.620640
 12
3.301760
 22
2.286240
 13
3.935360
 23
2.640000
  0
POLYLINE
  8
0
  6
CONTINUOUS
 66
     1
 40
0.000000
 41
0.000000
  0
VERTEX
  8
0
  6
CONTINUOUS
 10
3.240600
 20
2.266880
  0
VERTEX
  8
0
  6
CONTINUOUS
 10
3.874200
 20
2.620640
  0
VERTEX
  8
0
  6
CONTINUOUS
 10
3.935360
 20
2.640000
  0
VERTEX
  8
0
  6
CONTINUOUS
 10
3.301760
 20
2.286240
  0
VERTEX
  8
0
  6
CONTINUOUS
 10
3.240600
 20
2.266880
  0
SEQEND
  8
0
  0
SOLID
  8
0
 62
    15
 10
3.127520
 20
3.724600
 11
3.761120
 21
4.078360
 12
3.274920
 22
3.796320
 13
3.908520
 23
4.150080
  0
POLYLINE
  8
0
  6
CONTINUOUS
 66
     1
 40
0.000000
 41
0.000000
  0
VERTEX
  8
0
  6
CONTINUOUS
 10
3.127520
 20
3.724600
  0
VERTEX
  8
0
  6
CONTINUOUS
 10
3.761120
 20
4.078360
  0
VERTEX
  8
0
  6
CONTINUOUS
 10
3.908520
 20
4.150080
  0
VERTEX
  8
0
  6
CONTINUOUS
 10
3.274920
 20
3.796320
  0
VERTEX
  8
0
  6
CONTINUOUS
 10
3.127520
 20
3.724600
  0
SEQEND
  8
0
  0
SOLID
  8
0
 62
    15
 10
3.274920
 20
3.796320
 11
3.908520
 21
4.150080
 12
3.447400
 22
3.849120
 13
4.081000
 23
4.202880
  0
POLYLINE
  8
0
  6
CONTINUOUS
 66
     1
 40
0.000000
 41
0.000000
  0
VERTEX
  8
0
  6
CONTINUOUS
 10
3.274920
 20
3.796320
  0
VERTEX
  8
0
  6
CONTINUOUS
 10
3.908520
 20
4.150080
  0
VERTEX
  8
0
  6
CONTINUOUS
 10
4.081000
 20
4.202880
  0
VERTEX
  8
0
  6
CONTINUOUS
 10
3.447400
 20
3.849120
  0
VERTEX
  8
0
  6
CONTINUOUS
 10
3.274920
 20
3.796320
  0
SEQEND
  8
0
  0
SOLID
  8
0
 62
    15
 10
3.447400
 20
3.849120
 11
4.081000
 21
4.202880
 12
3.636600
 22
3.885200
 13
4.270640
 23
4.239400
  0
POLYLINE
  8
0
  6
CONTINUOUS
 66
     1
 40
0.000000
 41
0.000000
  0
VERTEX
  8
0
  6
CONTINUOUS
 10
3.447400
 20
3.849120
  0
VERTEX
  8
0
  6
CONTINUOUS
 10
4.081000
 20
4.202880
  0
VERTEX
  8
0
  6
CONTINUOUS
 10
4.270640
 20
4.239400
  0
VERTEX
  8
0
  6
CONTINUOUS
 10
3.636600
 20
3.885200
  0
VERTEX
  8
0
  6
CONTINUOUS
 10
3.447400
 20
3.849120
  0
SEQEND
  8
0
  0
SOLID
  8
0
 62
    15
 10
3.636600
 20
3.885200
 11
4.270640
 21
4.239400
 12
3.834160
 22
3.906320
 13
4.467760
 23
4.260520
  0
POLYLINE
  8
0
  6
CONTINUOUS
 66
     1
 40
0.000000
 41
0.000000
  0
VERTEX
  8
0
  6
CONTINUOUS
 10
3.636600
 20
3.885200
  0
VERTEX
  8
0
  6
CONTINUOUS
 10
4.270640
 20
4.239400
  0
VERTEX
  8
0
  6
CONTINUOUS
 10
4.467760
 20
4.260520
  0
VERTEX
  8
0
  6
CONTINUOUS
 10
3.834160
 20
3.906320
  0
VERTEX
  8
0
  6
CONTINUOUS
 10
3.636600
 20
3.885200
  0
SEQEND
  8
0
  0
SOLID
  8
0
 62
    15
 10
3.985520
 20
3.914240
 11
4.619120
 21
4.268000
 12
4.008400
 22
3.913360
 13
4.642000
 23
4.267120
  0
POLYLINE
  8
0
  6
CONTINUOUS
 66
     1
 40
0.000000
 41
0.000000
  0
VERTEX
  8
0
  6
CONTINUOUS
 10
3.985520
 20
3.914240
  0
VERTEX
  8
0
  6
CONTINUOUS
 10
4.619120
 20
4.268000
  0
VERTEX
  8
0
  6
CONTINUOUS
 10
4.642000
 20
4.267120
  0
VERTEX
  8
0
  6
CONTINUOUS
 10
4.008400
 20
3.913360
  0
VERTEX
  8
0
  6
CONTINUOUS
 10
3.985520
 20
3.914240
  0
SEQEND
  8
0
  0
POLYLINE
  8
0
  6
CONTINUOUS
 66
     1
 40
0.000000
 41
0.000000
  0
VERTEX
  8
0
  6
CONTINUOUS
 10
3.985520
 20
3.914240
  0
VERTEX
  8
0
  6
CONTINUOUS
 10
4.182200
 20
3.906320
  0
VERTEX
  8
0
  6
CONTINUOUS
 10
4.379760
 20
3.885200
  0
VERTEX
  8
0
  6
CONTINUOUS
 10
4.568960
 20
3.849120
  0
VERTEX
  8
0
  6
CONTINUOUS
 10
4.741880
 20
3.796320
  0
VERTEX
  8
0
  6
CONTINUOUS
 10
4.888840
 20
3.724600
  0
VERTEX
  8
0
  6
CONTINUOUS
 10
4.950440
 20
3.681480
  0
VERTEX
  8
0
  6
CONTINUOUS
 10
5.001920
 20
3.633080
  0
VERTEX
  8
0
  6
CONTINUOUS
 10
5.043280
 20
3.578960
  0
VERTEX
  8
0
  6
CONTINUOUS
 10
5.072320
 20
3.519120
  0
VERTEX
  8
0
  6
CONTINUOUS
 10
5.088600
 20
3.453560
  0
VERTEX
  8
0
  6
CONTINUOUS
 10
5.090800
 20
3.382280
  0
VERTEX
  8
0
  6
CONTINUOUS
 10
5.075840
 20
3.279760
  0
VERTEX
  8
0
  6
CONTINUOUS
 10
5.055600
 20
3.203200
  0
VERTEX
  8
0
  6
CONTINUOUS
 10
5.001040
 20
3.092760
  0
VERTEX
  8
0
  6
CONTINUOUS
 10
4.967160
 20
3.040840
  0
VERTEX
  8
0
  6
CONTINUOUS
 10
4.929320
 20
2.978800
  0
VERTEX
  8
0
  6
CONTINUOUS
 10
4.887960
 20
2.897840
  0
VERTEX
  8
0
  6
CONTINUOUS
 10
4.843080
 20
2.788720
  0
VERTEX
  8
0
  6
CONTINUOUS
 10
4.795560
 20
2.657600
  0
VERTEX
  8
0
  6
CONTINUOUS
 10
4.766520
 20
2.561240
  0
VERTEX
  8
0
  6
CONTINUOUS
 10
4.744520
 20
2.454760
  0
VERTEX
  8
0
  6
CONTINUOUS
 10
4.719000
 20
2.292840
  0
VERTEX
  8
0
  6
CONTINUOUS
 10
4.720320
 20
2.291520
  0
VERTEX
  8
0
  6
CONTINUOUS
 10
4.781480
 20
2.272160
  0
VERTEX
  8
0
  6
CONTINUOUS
 10
4.829880
 20
2.233440
  0
VERTEX
  8
0
  6
CONTINUOUS
 10
4.862000
 20
2.180200
  0
VERTEX
  8
0
  6
CONTINUOUS
 10
4.873440
 20
2.116840
  0
VERTEX
  8
0
  6
CONTINUOUS
 10
4.860680
 20
2.051280
  0
VERTEX
  8
0
  6
CONTINUOUS
 10
4.825480
 20
1.996720
  0
VERTEX
  8
0
  6
CONTINUOUS
 10
4.773560
 20
1.958880
  0
VERTEX
  8
0
  6
CONTINUOUS
 10
4.707120
 20
1.943480
  0
VERTEX
  8
0
  6
CONTINUOUS
 10
4.707120
 20
1.768800
  0
VERTEX
  8
0
  6
CONTINUOUS
 10
4.704040
 20
1.760880
  0
VERTEX
  8
0
  6
CONTINUOUS
 10
3.320240
 20
1.760880
  0
VERTEX
  8
0
  6
CONTINUOUS
 10
3.314960
 20
1.763520
  0
VERTEX
  8
0
  6
CONTINUOUS
 10
3.314960
 20
1.938200
  0
VERTEX
  8
0
  6
CONTINUOUS
 10
3.248520
 20
1.953600
  0
VERTEX
  8
0
  6
CONTINUOUS
 10
3.196160
 20
1.991440
  0
VERTEX
  8
0
  6
CONTINUOUS
 10
3.161400
 20
2.046000
  0
VERTEX
  8
0
  6
CONTINUOUS
 10
3.148200
 20
2.111560
  0
VERTEX
  8
0
  6
CONTINUOUS
 10
3.160080
 20
2.174920
  0
VERTEX
  8
0
  6
CONTINUOUS
 10
3.191760
 20
2.228160
  0
VERTEX
  8
0
  6
CONTINUOUS
 10
3.240600
 20
2.266880
  0
VERTEX
  8
0
  6
CONTINUOUS
 10
3.301760
 20
2.286240
  0
VERTEX
  8
0
  6
CONTINUOUS
 10
3.297800
 20
2.292840
  0
VERTEX
  8
0
  6
CONTINUOUS
 10
3.271840
 20
2.454760
  0
VERTEX
  8
0
  6
CONTINUOUS
 10
3.250280
 20
2.561240
  0
VERTEX
  8
0
  6
CONTINUOUS
 10
3.220800
 20
2.657600
  0
VERTEX
  8
0
  6
CONTINUOUS
 10
3.173720
 20
2.788720
  0
VERTEX
  8
0
  6
CONTINUOUS
 10
3.128840
 20
2.897840
  0
VERTEX
  8
0
  6
CONTINUOUS
 10
3.087040
 20
2.978800
  0
VERTEX
  8
0
  6
CONTINUOUS
 10
3.032040
 20
3.067680
  0
VERTEX
  8
0
  6
CONTINUOUS
 10
3.015760
 20
3.092760
  0
VERTEX
  8
0
  6
CONTINUOUS
 10
2.961200
 20
3.203200
  0
VERTEX
  8
0
  6
CONTINUOUS
 10
2.940960
 20
3.279760
  0
VERTEX
  8
0
  6
CONTINUOUS
 10
2.925560
 20
3.382280
  0
VERTEX
  8
0
  6
CONTINUOUS
 10
2.927760
 20
3.453560
  0
VERTEX
  8
0
  6
CONTINUOUS
 10
2.944480
 20
3.519120
  0
VERTEX
  8
0
  6
CONTINUOUS
 10
2.973520
 20
3.578960
  0
VERTEX
  8
0
  6
CONTINUOUS
 10
3.014440
 20
3.633080
  0
VERTEX
  8
0
  6
CONTINUOUS
 10
3.066360
 20
3.681480
  0
VERTEX
  8
0
  6
CONTINUOUS
 10
3.127520
 20
3.724600
  0
VERTEX
  8
0
  6
CONTINUOUS
 10
3.274920
 20
3.796320
  0
VERTEX
  8
0
  6
CONTINUOUS
 10
3.447400
 20
3.849120
  0
VERTEX
  8
0
  6
CONTINUOUS
 10
3.636600
 20
3.885200
  0
VERTEX
  8
0
  6
CONTINUOUS
 10
3.834160
 20
3.906320
  0
VERTEX
  8
0
  6
CONTINUOUS
 10
4.030840
 20
3.914240
  0
VERTEX
  8
0
  6
CONTINUOUS
 10
3.985520
 20
3.914240
  0
SEQEND
  8
0
  0
TEXT
  8
0
 10
4.030400
 20
1.496880
 40
0.138241
  1
BA  127
 41
1.000000
  7
SN0
 71
     0
 72
     5
 11
4.621594
 21
1.496880
  0
TEXT
  8
0
 10
3.800720
 20
1.305480
 40
0.138241
  1
2-1/8" x 2-1/8"
 41
1.000000
  7
SN0
 71
     0
 72
     5
 11
4.851191
 21
1.305480
  0
ENDSEC
  0
EOF
