  0
SECTION
  2
HEADER
  9
$ACADVER
  1
AC1006
  9
$EXTMIN
 10
2.819080
 20
4.413640
  9
$EXTMAX
 10
5.680840
 20
6.585920
  9
$LTSCALE
 40
0.044000
  9
$PDMODE
 70
    35
  9
$PDSIZE
 40
0.035200
  0
ENDSEC
  0
SECTION
  2
TABLES
  0
TABLE
  2
LTYPE
 70
     9
  0
LTYPE
  2
CONTINUOUS
 70
    64
  3
Solid line
 72
    65
 73
     0
 40
0.000000
  0
LTYPE
  2
DASHED
 70
    64
  3
__ __ __ __ __ __ __ __ __ __ __ __ __ __ __
 72
    65
 73
     2
 40
0.000330
 49
0.000220
 49
-0.000110
  0
LTYPE
  2
HIDDEN
 70
    64
  3
 _ _ _ _ _ _ _ _ _ _ _ _ _ _ _ _ _ _ _ _ _ _
 72
    65
 73
     2
 40
0.000165
 49
0.000110
 49
-0.000055
  0
LTYPE
  2
CENTER
 70
    64
  3
____ _ ____ _ ____ _ ____ _ ____ _ ____ _ ____
 72
    65
 73
     4
 40
0.000880
 49
0.000550
 49
-0.000110
 49
0.000110
 49
-0.000110
  0
LTYPE
  2
PHANTOM
 70
    64
  3
_____ _ _ _____ _ _ _____ _ _ _____ _ _ ____
 72
    65
 73
     6
 40
0.001100
 49
0.000550
 49
-0.000110
 49
0.000110
 49
-0.000110
 49
0.000110
 49
-0.000110
  0
LTYPE
  2
DOT
 70
    64
  3
...............................................
 72
    65
 73
     2
 40
0.000110
 49
0.000000
 49
-0.000110
  0
LTYPE
  2
DASHDOT
 70
    64
  3
__ . __ . __ . __ . __ . __ . __ . __ . __ . __
 72
    65
 73
     4
 40
0.000440
 49
0.000220
 49
-0.000110
 49
0.000000
 49
-0.000110
  0
LTYPE
  2
BORDER
 70
    64
  3
__ __ . __ __ . __ __ . __ __ . __ __ . __ __
 72
    65
 73
     6
 40
0.000770
 49
0.000220
 49
-0.000110
 49
0.000220
 49
-0.000110
 49
0.000000
 49
-0.000110
  0
LTYPE
  2
DIVIDE
 70
    64
  3
__ . . __ . . __ . . __ . . __ . . __ . . __
 72
    65
 73
     6
 40
0.000550
 49
0.000220
 49
-0.000110
 49
0.000000
 49
-0.000110
 49
0.000000
 49
-0.000110
  0
LTYPE
  2
DOTDOT
 70
    64
  3
 . .  . .  . .  . .  . .  . . 
 72
    65
 73
     5
 40
0.000242
 49
-0.000110
 49
0.000000
 49
-0.000110
 49
0.000000
 49
-0.000110
  0
ENDTAB
  0
TABLE
  2
STYLE
 70
     2
  0
STYLE
 70
     0
  2
SN0
 40
0.000000
 41
0.000440
 50
0.000000
 71
     0
 42
0.000000
  3
ROMAND
  0
STYLE
 70
    68
  2
SV0
 40
0.000000
 41
0.000440
 50
0.000000
 71
     0
 42
0.000000
  3
ROMAND
  0
ENDTAB
  0
TABLE
  2
LAYER
 70
     3
  0
LAYER
  2
FOREGROUND
 70
    64
 62
     7
  6
CONTINUOUS
  0
LAYER
  2
BACKGROUND
 70
    65
 62
    -7
  6
CONTINUOUS
  0
LAYER
  2
0
 70
    64
 62
     7
  6
CONTINUOUS
  0
ENDTAB
  0
ENDSEC
  0
SECTION
  2
ENTITIES
  0
POLYLINE
  8
FOREGROUND
  6
CONTINUOUS
 66
     1
 40
0.000000
 41
0.000000
  0
VERTEX
  8
FOREGROUND
  6
CONTINUOUS
 10
0.000000
 20
10.999560
  0
VERTEX
  8
FOREGROUND
  6
CONTINUOUS
 10
8.499920
 20
10.999560
  0
VERTEX
  8
FOREGROUND
  6
CONTINUOUS
 10
8.499920
 20
-0.000440
  0
VERTEX
  8
FOREGROUND
  6
CONTINUOUS
 10
0.000000
 20
-0.000440
  0
VERTEX
  8
FOREGROUND
  6
CONTINUOUS
 10
0.000000
 20
10.999560
  0
SEQEND
  8
0
  0
POLYLINE
  8
FOREGROUND
  6
CONTINUOUS
 66
     1
 40
0.000000
 41
0.000000
  0
VERTEX
  8
FOREGROUND
  6
CONTINUOUS
 10
0.000000
 20
10.999560
  0
VERTEX
  8
FOREGROUND
  6
CONTINUOUS
 10
8.499920
 20
10.999560
  0
VERTEX
  8
FOREGROUND
  6
CONTINUOUS
 10
8.499920
 20
-0.000440
  0
VERTEX
  8
FOREGROUND
  6
CONTINUOUS
 10
0.000000
 20
-0.000440
  0
VERTEX
  8
FOREGROUND
  6
CONTINUOUS
 10
0.000000
 20
10.999560
  0
SEQEND
  8
0
  0
TEXT
  8
0
 10
3.098480
 20
4.648160
 40
0.138121
  1
BA  126
 41
1.000000
  7
SN0
 71
     0
 72
     5
 11
3.688146
 21
4.648160
  0
TEXT
  8
0
 10
2.942280
 20
4.456760
 40
0.138121
  1
7/8" x 1-1/8"
 41
1.000000
  7
SN0
 71
     0
 72
     5
 11
3.841731
 21
4.456760
  0
SOLID
  8
0
 62
    15
 10
3.652440
 20
5.462160
 11
3.648480
 21
6.212800
 12
3.682800
 22
5.407600
 13
3.678840
 23
6.158240
  0
POLYLINE
  8
0
  6
CONTINUOUS
 66
     1
 40
0.000000
 41
0.000000
  0
VERTEX
  8
0
  6
CONTINUOUS
 10
3.652440
 20
5.462160
  0
VERTEX
  8
0
  6
CONTINUOUS
 10
3.648480
 20
6.212800
  0
VERTEX
  8
0
  6
CONTINUOUS
 10
3.678840
 20
6.158240
  0
VERTEX
  8
0
  6
CONTINUOUS
 10
3.682800
 20
5.407600
  0
VERTEX
  8
0
  6
CONTINUOUS
 10
3.652440
 20
5.462160
  0
SEQEND
  8
0
  0
SOLID
  8
0
 62
    15
 10
3.089240
 20
5.740680
 11
3.085280
 21
6.491320
 12
3.164920
 22
5.739360
 13
3.160960
 23
6.490000
  0
POLYLINE
  8
0
  6
CONTINUOUS
 66
     1
 40
0.000000
 41
0.000000
  0
VERTEX
  8
0
  6
CONTINUOUS
 10
3.089240
 20
5.740680
  0
VERTEX
  8
0
  6
CONTINUOUS
 10
3.085280
 20
6.491320
  0
VERTEX
  8
0
  6
CONTINUOUS
 10
3.160960
 20
6.490000
  0
VERTEX
  8
0
  6
CONTINUOUS
 10
3.164920
 20
5.739360
  0
VERTEX
  8
0
  6
CONTINUOUS
 10
3.089240
 20
5.740680
  0
SEQEND
  8
0
  0
SOLID
  8
0
 62
    15
 10
3.164920
 20
5.739360
 11
3.160960
 21
6.490000
 12
3.236200
 22
5.731440
 13
3.232240
 23
6.482080
  0
POLYLINE
  8
0
  6
CONTINUOUS
 66
     1
 40
0.000000
 41
0.000000
  0
VERTEX
  8
0
  6
CONTINUOUS
 10
3.164920
 20
5.739360
  0
VERTEX
  8
0
  6
CONTINUOUS
 10
3.160960
 20
6.490000
  0
VERTEX
  8
0
  6
CONTINUOUS
 10
3.232240
 20
6.482080
  0
VERTEX
  8
0
  6
CONTINUOUS
 10
3.236200
 20
5.731440
  0
VERTEX
  8
0
  6
CONTINUOUS
 10
3.164920
 20
5.739360
  0
SEQEND
  8
0
  0
SOLID
  8
0
 62
    15
 10
3.236200
 20
5.731440
 11
3.232240
 21
6.482080
 12
3.303520
 22
5.716920
 13
3.299560
 23
6.467560
  0
POLYLINE
  8
0
  6
CONTINUOUS
 66
     1
 40
0.000000
 41
0.000000
  0
VERTEX
  8
0
  6
CONTINUOUS
 10
3.236200
 20
5.731440
  0
VERTEX
  8
0
  6
CONTINUOUS
 10
3.232240
 20
6.482080
  0
VERTEX
  8
0
  6
CONTINUOUS
 10
3.299560
 20
6.467560
  0
VERTEX
  8
0
  6
CONTINUOUS
 10
3.303520
 20
5.716920
  0
VERTEX
  8
0
  6
CONTINUOUS
 10
3.236200
 20
5.731440
  0
SEQEND
  8
0
  0
SOLID
  8
0
 62
    15
 10
3.303520
 20
5.716920
 11
3.299560
 21
6.467560
 12
3.366880
 22
5.696240
 13
3.362920
 23
6.446880
  0
POLYLINE
  8
0
  6
CONTINUOUS
 66
     1
 40
0.000000
 41
0.000000
  0
VERTEX
  8
0
  6
CONTINUOUS
 10
3.303520
 20
5.716920
  0
VERTEX
  8
0
  6
CONTINUOUS
 10
3.299560
 20
6.467560
  0
VERTEX
  8
0
  6
CONTINUOUS
 10
3.362920
 20
6.446880
  0
VERTEX
  8
0
  6
CONTINUOUS
 10
3.366880
 20
5.696240
  0
VERTEX
  8
0
  6
CONTINUOUS
 10
3.303520
 20
5.716920
  0
SEQEND
  8
0
  0
SOLID
  8
0
 62
    15
 10
3.366880
 20
5.696240
 11
3.362920
 21
6.446880
 12
3.425840
 22
5.669840
 13
3.421880
 23
6.420480
  0
POLYLINE
  8
0
  6
CONTINUOUS
 66
     1
 40
0.000000
 41
0.000000
  0
VERTEX
  8
0
  6
CONTINUOUS
 10
3.366880
 20
5.696240
  0
VERTEX
  8
0
  6
CONTINUOUS
 10
3.362920
 20
6.446880
  0
VERTEX
  8
0
  6
CONTINUOUS
 10
3.421880
 20
6.420480
  0
VERTEX
  8
0
  6
CONTINUOUS
 10
3.425840
 20
5.669840
  0
VERTEX
  8
0
  6
CONTINUOUS
 10
3.366880
 20
5.696240
  0
SEQEND
  8
0
  0
SOLID
  8
0
 62
    15
 10
3.425840
 20
5.669840
 11
3.421880
 21
6.420480
 12
3.480400
 22
5.637720
 13
3.476440
 23
6.388360
  0
POLYLINE
  8
0
  6
CONTINUOUS
 66
     1
 40
0.000000
 41
0.000000
  0
VERTEX
  8
0
  6
CONTINUOUS
 10
3.425840
 20
5.669840
  0
VERTEX
  8
0
  6
CONTINUOUS
 10
3.421880
 20
6.420480
  0
VERTEX
  8
0
  6
CONTINUOUS
 10
3.476440
 20
6.388360
  0
VERTEX
  8
0
  6
CONTINUOUS
 10
3.480400
 20
5.637720
  0
VERTEX
  8
0
  6
CONTINUOUS
 10
3.425840
 20
5.669840
  0
SEQEND
  8
0
  0
SOLID
  8
0
 62
    15
 10
3.480400
 20
5.637720
 11
3.476440
 21
6.388360
 12
3.530560
 22
5.600760
 13
3.526600
 23
6.351400
  0
POLYLINE
  8
0
  6
CONTINUOUS
 66
     1
 40
0.000000
 41
0.000000
  0
VERTEX
  8
0
  6
CONTINUOUS
 10
3.480400
 20
5.637720
  0
VERTEX
  8
0
  6
CONTINUOUS
 10
3.476440
 20
6.388360
  0
VERTEX
  8
0
  6
CONTINUOUS
 10
3.526600
 20
6.351400
  0
VERTEX
  8
0
  6
CONTINUOUS
 10
3.530560
 20
5.600760
  0
VERTEX
  8
0
  6
CONTINUOUS
 10
3.480400
 20
5.637720
  0
SEQEND
  8
0
  0
SOLID
  8
0
 62
    15
 10
3.530560
 20
5.600760
 11
3.526600
 21
6.351400
 12
3.575880
 22
5.558960
 13
3.571920
 23
6.309600
  0
POLYLINE
  8
0
  6
CONTINUOUS
 66
     1
 40
0.000000
 41
0.000000
  0
VERTEX
  8
0
  6
CONTINUOUS
 10
3.530560
 20
5.600760
  0
VERTEX
  8
0
  6
CONTINUOUS
 10
3.526600
 20
6.351400
  0
VERTEX
  8
0
  6
CONTINUOUS
 10
3.571920
 20
6.309600
  0
VERTEX
  8
0
  6
CONTINUOUS
 10
3.575880
 20
5.558960
  0
VERTEX
  8
0
  6
CONTINUOUS
 10
3.530560
 20
5.600760
  0
SEQEND
  8
0
  0
SOLID
  8
0
 62
    15
 10
3.575880
 20
5.558960
 11
3.571920
 21
6.309600
 12
3.616360
 22
5.512760
 13
3.612840
 23
6.263400
  0
POLYLINE
  8
0
  6
CONTINUOUS
 66
     1
 40
0.000000
 41
0.000000
  0
VERTEX
  8
0
  6
CONTINUOUS
 10
3.575880
 20
5.558960
  0
VERTEX
  8
0
  6
CONTINUOUS
 10
3.571920
 20
6.309600
  0
VERTEX
  8
0
  6
CONTINUOUS
 10
3.612840
 20
6.263400
  0
VERTEX
  8
0
  6
CONTINUOUS
 10
3.616360
 20
5.512760
  0
VERTEX
  8
0
  6
CONTINUOUS
 10
3.575880
 20
5.558960
  0
SEQEND
  8
0
  0
SOLID
  8
0
 62
    15
 10
3.616360
 20
5.512760
 11
3.612840
 21
6.263400
 12
3.652440
 22
5.462160
 13
3.648480
 23
6.212800
  0
POLYLINE
  8
0
  6
CONTINUOUS
 66
     1
 40
0.000000
 41
0.000000
  0
VERTEX
  8
0
  6
CONTINUOUS
 10
3.616360
 20
5.512760
  0
VERTEX
  8
0
  6
CONTINUOUS
 10
3.612840
 20
6.263400
  0
VERTEX
  8
0
  6
CONTINUOUS
 10
3.648480
 20
6.212800
  0
VERTEX
  8
0
  6
CONTINUOUS
 10
3.652440
 20
5.462160
  0
VERTEX
  8
0
  6
CONTINUOUS
 10
3.616360
 20
5.512760
  0
SEQEND
  8
0
  0
SOLID
  8
0
 62
    15
 10
3.010040
 20
5.734960
 11
3.006080
 21
6.485600
 12
3.089240
 22
5.740680
 13
3.085280
 23
6.491320
  0
POLYLINE
  8
0
  6
CONTINUOUS
 66
     1
 40
0.000000
 41
0.000000
  0
VERTEX
  8
0
  6
CONTINUOUS
 10
3.010040
 20
5.734960
  0
VERTEX
  8
0
  6
CONTINUOUS
 10
3.006080
 20
6.485600
  0
VERTEX
  8
0
  6
CONTINUOUS
 10
3.085280
 20
6.491320
  0
VERTEX
  8
0
  6
CONTINUOUS
 10
3.089240
 20
5.740680
  0
VERTEX
  8
0
  6
CONTINUOUS
 10
3.010040
 20
5.734960
  0
SEQEND
  8
0
  0
SOLID
  8
0
 62
    15
 10
3.682800
 20
5.407600
 11
3.678840
 21
6.158240
 12
3.708320
 22
5.349960
 13
3.704360
 23
6.100600
  0
POLYLINE
  8
0
  6
CONTINUOUS
 66
     1
 40
0.000000
 41
0.000000
  0
VERTEX
  8
0
  6
CONTINUOUS
 10
3.682800
 20
5.407600
  0
VERTEX
  8
0
  6
CONTINUOUS
 10
3.678840
 20
6.158240
  0
VERTEX
  8
0
  6
CONTINUOUS
 10
3.704360
 20
6.100600
  0
VERTEX
  8
0
  6
CONTINUOUS
 10
3.708320
 20
5.349960
  0
VERTEX
  8
0
  6
CONTINUOUS
 10
3.682800
 20
5.407600
  0
SEQEND
  8
0
  0
SOLID
  8
0
 62
    15
 10
3.708320
 20
5.349960
 11
3.704360
 21
6.100600
 12
3.728560
 22
5.288800
 13
3.724600
 23
6.039440
  0
POLYLINE
  8
0
  6
CONTINUOUS
 66
     1
 40
0.000000
 41
0.000000
  0
VERTEX
  8
0
  6
CONTINUOUS
 10
3.708320
 20
5.349960
  0
VERTEX
  8
0
  6
CONTINUOUS
 10
3.704360
 20
6.100600
  0
VERTEX
  8
0
  6
CONTINUOUS
 10
3.724600
 20
6.039440
  0
VERTEX
  8
0
  6
CONTINUOUS
 10
3.728560
 20
5.288800
  0
VERTEX
  8
0
  6
CONTINUOUS
 10
3.708320
 20
5.349960
  0
SEQEND
  8
0
  0
SOLID
  8
0
 62
    15
 10
3.728560
 20
5.288800
 11
3.724600
 21
6.039440
 12
3.743520
 22
5.225000
 13
3.739560
 23
5.975640
  0
POLYLINE
  8
0
  6
CONTINUOUS
 66
     1
 40
0.000000
 41
0.000000
  0
VERTEX
  8
0
  6
CONTINUOUS
 10
3.728560
 20
5.288800
  0
VERTEX
  8
0
  6
CONTINUOUS
 10
3.724600
 20
6.039440
  0
VERTEX
  8
0
  6
CONTINUOUS
 10
3.739560
 20
5.975640
  0
VERTEX
  8
0
  6
CONTINUOUS
 10
3.743520
 20
5.225000
  0
VERTEX
  8
0
  6
CONTINUOUS
 10
3.728560
 20
5.288800
  0
SEQEND
  8
0
  0
SOLID
  8
0
 62
    15
 10
3.743520
 20
5.225000
 11
3.739560
 21
5.975640
 12
3.752760
 22
5.159000
 13
3.748800
 23
5.909200
  0
POLYLINE
  8
0
  6
CONTINUOUS
 66
     1
 40
0.000000
 41
0.000000
  0
VERTEX
  8
0
  6
CONTINUOUS
 10
3.743520
 20
5.225000
  0
VERTEX
  8
0
  6
CONTINUOUS
 10
3.739560
 20
5.975640
  0
VERTEX
  8
0
  6
CONTINUOUS
 10
3.748800
 20
5.909200
  0
VERTEX
  8
0
  6
CONTINUOUS
 10
3.752760
 20
5.159000
  0
VERTEX
  8
0
  6
CONTINUOUS
 10
3.743520
 20
5.225000
  0
SEQEND
  8
0
  0
SOLID
  8
0
 62
    15
 10
3.752760
 20
5.159000
 11
3.748800
 21
5.909200
 12
3.970120
 22
5.159000
 13
3.966160
 23
5.909200
  0
POLYLINE
  8
0
  6
CONTINUOUS
 66
     1
 40
0.000000
 41
0.000000
  0
VERTEX
  8
0
  6
CONTINUOUS
 10
3.752760
 20
5.159000
  0
VERTEX
  8
0
  6
CONTINUOUS
 10
3.748800
 20
5.909200
  0
VERTEX
  8
0
  6
CONTINUOUS
 10
3.966160
 20
5.909200
  0
VERTEX
  8
0
  6
CONTINUOUS
 10
3.970120
 20
5.159000
  0
VERTEX
  8
0
  6
CONTINUOUS
 10
3.752760
 20
5.159000
  0
SEQEND
  8
0
  0
SOLID
  8
0
 62
    15
 10
2.823480
 20
4.954840
 11
2.819520
 21
5.705480
 12
2.823480
 22
5.834840
 13
2.819520
 23
6.585480
  0
POLYLINE
  8
0
  6
CONTINUOUS
 66
     1
 40
0.000000
 41
0.000000
  0
VERTEX
  8
0
  6
CONTINUOUS
 10
2.823480
 20
4.954840
  0
VERTEX
  8
0
  6
CONTINUOUS
 10
2.819520
 20
5.705480
  0
VERTEX
  8
0
  6
CONTINUOUS
 10
2.819520
 20
6.585480
  0
VERTEX
  8
0
  6
CONTINUOUS
 10
2.823480
 20
5.834840
  0
VERTEX
  8
0
  6
CONTINUOUS
 10
2.823480
 20
4.954840
  0
SEQEND
  8
0
  0
SOLID
  8
0
 62
    15
 10
2.991560
 20
5.734960
 11
2.987600
 21
6.485600
 12
3.004760
 22
5.734960
 13
3.000800
 23
6.485600
  0
POLYLINE
  8
0
  6
CONTINUOUS
 66
     1
 40
0.000000
 41
0.000000
  0
VERTEX
  8
0
  6
CONTINUOUS
 10
2.991560
 20
5.734960
  0
VERTEX
  8
0
  6
CONTINUOUS
 10
2.987600
 20
6.485600
  0
VERTEX
  8
0
  6
CONTINUOUS
 10
3.000800
 20
6.485600
  0
VERTEX
  8
0
  6
CONTINUOUS
 10
3.004760
 20
5.734960
  0
VERTEX
  8
0
  6
CONTINUOUS
 10
2.991560
 20
5.734960
  0
SEQEND
  8
0
  0
SOLID
  8
0
 62
    15
 10
2.990240
 20
5.764000
 11
2.986280
 21
6.514640
 12
2.991560
 22
5.767960
 13
2.987600
 23
6.518600
  0
POLYLINE
  8
0
  6
CONTINUOUS
 66
     1
 40
0.000000
 41
0.000000
  0
VERTEX
  8
0
  6
CONTINUOUS
 10
2.990240
 20
5.764000
  0
VERTEX
  8
0
  6
CONTINUOUS
 10
2.986280
 20
6.514640
  0
VERTEX
  8
0
  6
CONTINUOUS
 10
2.987600
 20
6.518600
  0
VERTEX
  8
0
  6
CONTINUOUS
 10
2.991560
 20
5.767960
  0
VERTEX
  8
0
  6
CONTINUOUS
 10
2.990240
 20
5.764000
  0
SEQEND
  8
0
  0
SOLID
  8
0
 62
    15
 10
2.823480
 20
5.834840
 11
2.819520
 21
6.585480
 12
2.990240
 22
5.834840
 13
2.986280
 23
6.585480
  0
POLYLINE
  8
0
  6
CONTINUOUS
 66
     1
 40
0.000000
 41
0.000000
  0
VERTEX
  8
0
  6
CONTINUOUS
 10
2.823480
 20
5.834840
  0
VERTEX
  8
0
  6
CONTINUOUS
 10
2.819520
 20
6.585480
  0
VERTEX
  8
0
  6
CONTINUOUS
 10
2.986280
 20
6.585480
  0
VERTEX
  8
0
  6
CONTINUOUS
 10
2.990240
 20
5.834840
  0
VERTEX
  8
0
  6
CONTINUOUS
 10
2.823480
 20
5.834840
  0
SEQEND
  8
0
  0
SOLID
  8
0
 62
    15
 10
3.004760
 20
5.734960
 11
3.000800
 21
6.485600
 12
3.010040
 22
5.734960
 13
3.006080
 23
6.485600
  0
POLYLINE
  8
0
  6
CONTINUOUS
 66
     1
 40
0.000000
 41
0.000000
  0
VERTEX
  8
0
  6
CONTINUOUS
 10
3.004760
 20
5.734960
  0
VERTEX
  8
0
  6
CONTINUOUS
 10
3.000800
 20
6.485600
  0
VERTEX
  8
0
  6
CONTINUOUS
 10
3.006080
 20
6.485600
  0
VERTEX
  8
0
  6
CONTINUOUS
 10
3.010040
 20
5.734960
  0
VERTEX
  8
0
  6
CONTINUOUS
 10
3.004760
 20
5.734960
  0
SEQEND
  8
0
  0
POLYLINE
  8
0
  6
CONTINUOUS
 66
     1
 40
0.000000
 41
0.000000
  0
VERTEX
  8
0
  6
CONTINUOUS
 10
3.010040
 20
5.734960
  0
VERTEX
  8
0
  6
CONTINUOUS
 10
3.089240
 20
5.740680
  0
VERTEX
  8
0
  6
CONTINUOUS
 10
3.164920
 20
5.739360
  0
VERTEX
  8
0
  6
CONTINUOUS
 10
3.236200
 20
5.731440
  0
VERTEX
  8
0
  6
CONTINUOUS
 10
3.303520
 20
5.716920
  0
VERTEX
  8
0
  6
CONTINUOUS
 10
3.366880
 20
5.696240
  0
VERTEX
  8
0
  6
CONTINUOUS
 10
3.425840
 20
5.669840
  0
VERTEX
  8
0
  6
CONTINUOUS
 10
3.480400
 20
5.637720
  0
VERTEX
  8
0
  6
CONTINUOUS
 10
3.530560
 20
5.600760
  0
VERTEX
  8
0
  6
CONTINUOUS
 10
3.575880
 20
5.558960
  0
VERTEX
  8
0
  6
CONTINUOUS
 10
3.616360
 20
5.512760
  0
VERTEX
  8
0
  6
CONTINUOUS
 10
3.652440
 20
5.462160
  0
VERTEX
  8
0
  6
CONTINUOUS
 10
3.682800
 20
5.407600
  0
VERTEX
  8
0
  6
CONTINUOUS
 10
3.708320
 20
5.349960
  0
VERTEX
  8
0
  6
CONTINUOUS
 10
3.728560
 20
5.288800
  0
VERTEX
  8
0
  6
CONTINUOUS
 10
3.743520
 20
5.225000
  0
VERTEX
  8
0
  6
CONTINUOUS
 10
3.752760
 20
5.159000
  0
VERTEX
  8
0
  6
CONTINUOUS
 10
3.970120
 20
5.159000
  0
VERTEX
  8
0
  6
CONTINUOUS
 10
3.970120
 20
4.954840
  0
VERTEX
  8
0
  6
CONTINUOUS
 10
2.823480
 20
4.954840
  0
VERTEX
  8
0
  6
CONTINUOUS
 10
2.823480
 20
5.834840
  0
VERTEX
  8
0
  6
CONTINUOUS
 10
2.990240
 20
5.834840
  0
VERTEX
  8
0
  6
CONTINUOUS
 10
2.990240
 20
5.764000
  0
VERTEX
  8
0
  6
CONTINUOUS
 10
2.991560
 20
5.767960
  0
VERTEX
  8
0
  6
CONTINUOUS
 10
2.991560
 20
5.734960
  0
VERTEX
  8
0
  6
CONTINUOUS
 10
3.004760
 20
5.734960
  0
VERTEX
  8
0
  6
CONTINUOUS
 10
3.010040
 20
5.734960
  0
SEQEND
  8
0
  0
POLYLINE
  8
0
  6
CONTINUOUS
 66
     1
 40
0.014080
 41
0.014080
  0
VERTEX
  8
0
  6
CONTINUOUS
 10
4.708000
 20
5.723080
  0
VERTEX
  8
0
  6
CONTINUOUS
 10
4.694800
 20
5.723080
  0
VERTEX
  8
0
  6
CONTINUOUS
 10
4.694800
 20
5.742880
  0
VERTEX
  8
0
  6
CONTINUOUS
 10
4.694800
 20
5.738920
  0
VERTEX
  8
0
  6
CONTINUOUS
 10
4.694800
 20
5.756080
  0
VERTEX
  8
0
  6
CONTINUOUS
 10
4.693480
 20
5.752120
  0
VERTEX
  8
0
  6
CONTINUOUS
 10
4.693480
 20
5.822960
  0
VERTEX
  8
0
  6
CONTINUOUS
 10
4.692160
 20
5.822960
  0
VERTEX
  8
0
  6
CONTINUOUS
 10
4.526720
 20
5.822960
  0
VERTEX
  8
0
  6
CONTINUOUS
 10
4.526720
 20
4.942960
  0
VERTEX
  8
0
  6
CONTINUOUS
 10
5.673360
 20
4.942960
  0
VERTEX
  8
0
  6
CONTINUOUS
 10
5.673360
 20
5.146680
  0
VERTEX
  8
0
  6
CONTINUOUS
 10
5.673360
 20
5.147120
  0
VERTEX
  8
0
  6
CONTINUOUS
 10
5.456000
 20
5.147120
  0
VERTEX
  8
0
  6
CONTINUOUS
 10
5.452040
 20
5.180560
  0
VERTEX
  8
0
  6
CONTINUOUS
 10
5.446760
 20
5.213560
  0
VERTEX
  8
0
  6
CONTINUOUS
 10
5.440160
 20
5.245680
  0
VERTEX
  8
0
  6
CONTINUOUS
 10
5.431800
 20
5.277360
  0
VERTEX
  8
0
  6
CONTINUOUS
 10
5.422560
 20
5.308160
  0
VERTEX
  8
0
  6
CONTINUOUS
 10
5.411560
 20
5.338080
  0
VERTEX
  8
0
  6
CONTINUOUS
 10
5.399680
 20
5.367560
  0
VERTEX
  8
0
  6
CONTINUOUS
 10
5.386040
 20
5.396160
  0
VERTEX
  8
0
  6
CONTINUOUS
 10
5.371520
 20
5.423880
  0
VERTEX
  8
0
  6
CONTINUOUS
 10
5.355680
 20
5.450280
  0
VERTEX
  8
0
  6
CONTINUOUS
 10
5.338520
 20
5.476240
  0
VERTEX
  8
0
  6
CONTINUOUS
 10
5.320040
 20
5.500880
  0
VERTEX
  8
0
  6
CONTINUOUS
 10
5.300240
 20
5.524640
  0
VERTEX
  8
0
  6
CONTINUOUS
 10
5.279120
 20
5.547080
  0
VERTEX
  8
0
  6
CONTINUOUS
 10
5.257120
 20
5.568640
  0
VERTEX
  8
0
  6
CONTINUOUS
 10
5.233800
 20
5.588880
  0
VERTEX
  8
0
  6
CONTINUOUS
 10
5.209600
 20
5.608240
  0
VERTEX
  8
0
  6
CONTINUOUS
 10
5.183640
 20
5.626280
  0
VERTEX
  8
0
  6
CONTINUOUS
 10
5.157240
 20
5.642560
  0
VERTEX
  8
0
  6
CONTINUOUS
 10
5.129080
 20
5.657960
  0
VERTEX
  8
0
  6
CONTINUOUS
 10
5.100480
 20
5.672040
  0
VERTEX
  8
0
  6
CONTINUOUS
 10
5.070120
 20
5.684360
  0
VERTEX
  8
0
  6
CONTINUOUS
 10
5.039320
 20
5.695360
  0
VERTEX
  8
0
  6
CONTINUOUS
 10
5.006760
 20
5.705040
  0
VERTEX
  8
0
  6
CONTINUOUS
 10
4.973760
 20
5.712960
  0
VERTEX
  8
0
  6
CONTINUOUS
 10
4.939440
 20
5.719560
  0
VERTEX
  8
0
  6
CONTINUOUS
 10
4.904240
 20
5.724400
  0
VERTEX
  8
0
  6
CONTINUOUS
 10
4.868160
 20
5.727480
  0
VERTEX
  8
0
  6
CONTINUOUS
 10
4.830760
 20
5.729240
  0
VERTEX
  8
0
  6
CONTINUOUS
 10
4.792920
 20
5.728800
  0
VERTEX
  8
0
  6
CONTINUOUS
 10
4.753760
 20
5.727040
  0
VERTEX
  8
0
  6
CONTINUOUS
 10
4.713720
 20
5.723080
  0
VERTEX
  8
0
  6
CONTINUOUS
 10
4.708000
 20
5.723080
  0
SEQEND
  8
0
  0
TEXT
  8
0
 10
4.814920
 20
4.648160
 40
0.138121
  1
BA  126
 41
1.000000
  7
SN0
 71
     0
 72
     5
 11
5.404586
 21
4.648160
  0
TEXT
  8
0
 10
4.658720
 20
4.456760
 40
0.138121
  1
7/8" x 1-1/8"
 41
1.000000
  7
SN0
 71
     0
 72
     5
 11
5.558171
 21
4.456760
  0
ENDSEC
  0
EOF
