  0
SECTION
  2
HEADER
  9
$ACADVER
  1
AC1006
  9
$EXTMIN
 10
1.774520
 20
1.526360
  9
$EXTMAX
 10
5.147120
 20
3.846920
  9
$LTSCALE
 40
0.044000
  9
$PDMODE
 70
    35
  9
$PDSIZE
 40
0.035200
  0
ENDSEC
  0
SECTION
  2
TABLES
  0
TABLE
  2
LTYPE
 70
     9
  0
LTYPE
  2
CONTINUOUS
 70
    64
  3
Solid line
 72
    65
 73
     0
 40
0.000000
  0
LTYPE
  2
DASHED
 70
    64
  3
__ __ __ __ __ __ __ __ __ __ __ __ __ __ __
 72
    65
 73
     2
 40
0.000330
 49
0.000220
 49
-0.000110
  0
LTYPE
  2
HIDDEN
 70
    64
  3
 _ _ _ _ _ _ _ _ _ _ _ _ _ _ _ _ _ _ _ _ _ _
 72
    65
 73
     2
 40
0.000165
 49
0.000110
 49
-0.000055
  0
LTYPE
  2
CENTER
 70
    64
  3
____ _ ____ _ ____ _ ____ _ ____ _ ____ _ ____
 72
    65
 73
     4
 40
0.000880
 49
0.000550
 49
-0.000110
 49
0.000110
 49
-0.000110
  0
LTYPE
  2
PHANTOM
 70
    64
  3
_____ _ _ _____ _ _ _____ _ _ _____ _ _ ____
 72
    65
 73
     6
 40
0.001100
 49
0.000550
 49
-0.000110
 49
0.000110
 49
-0.000110
 49
0.000110
 49
-0.000110
  0
LTYPE
  2
DOT
 70
    64
  3
...............................................
 72
    65
 73
     2
 40
0.000110
 49
0.000000
 49
-0.000110
  0
LTYPE
  2
DASHDOT
 70
    64
  3
__ . __ . __ . __ . __ . __ . __ . __ . __ . __
 72
    65
 73
     4
 40
0.000440
 49
0.000220
 49
-0.000110
 49
0.000000
 49
-0.000110
  0
LTYPE
  2
BORDER
 70
    64
  3
__ __ . __ __ . __ __ . __ __ . __ __ . __ __
 72
    65
 73
     6
 40
0.000770
 49
0.000220
 49
-0.000110
 49
0.000220
 49
-0.000110
 49
0.000000
 49
-0.000110
  0
LTYPE
  2
DIVIDE
 70
    64
  3
__ . . __ . . __ . . __ . . __ . . __ . . __
 72
    65
 73
     6
 40
0.000550
 49
0.000220
 49
-0.000110
 49
0.000000
 49
-0.000110
 49
0.000000
 49
-0.000110
  0
LTYPE
  2
DOTDOT
 70
    64
  3
 . .  . .  . .  . .  . .  . . 
 72
    65
 73
     5
 40
0.000242
 49
-0.000110
 49
0.000000
 49
-0.000110
 49
0.000000
 49
-0.000110
  0
ENDTAB
  0
TABLE
  2
STYLE
 70
     2
  0
STYLE
 70
     0
  2
SN0
 40
0.000000
 41
0.000440
 50
0.000000
 71
     0
 42
0.000000
  3
ROMAND
  0
STYLE
 70
    68
  2
SV0
 40
0.000000
 41
0.000440
 50
0.000000
 71
     0
 42
0.000000
  3
ROMAND
  0
ENDTAB
  0
TABLE
  2
LAYER
 70
     3
  0
LAYER
  2
FOREGROUND
 70
    64
 62
     7
  6
CONTINUOUS
  0
LAYER
  2
BACKGROUND
 70
    65
 62
    -7
  6
CONTINUOUS
  0
LAYER
  2
0
 70
    64
 62
     7
  6
CONTINUOUS
  0
ENDTAB
  0
ENDSEC
  0
SECTION
  2
ENTITIES
  0
POLYLINE
  8
FOREGROUND
  6
CONTINUOUS
 66
     1
 40
0.000000
 41
0.000000
  0
VERTEX
  8
FOREGROUND
  6
CONTINUOUS
 10
0.000000
 20
5.373280
  0
VERTEX
  8
FOREGROUND
  6
CONTINUOUS
 10
8.499920
 20
5.373280
  0
VERTEX
  8
FOREGROUND
  6
CONTINUOUS
 10
8.499920
 20
-5.626720
  0
VERTEX
  8
FOREGROUND
  6
CONTINUOUS
 10
0.000000
 20
-5.626720
  0
VERTEX
  8
FOREGROUND
  6
CONTINUOUS
 10
0.000000
 20
5.373280
  0
SEQEND
  8
0
  0
POLYLINE
  8
FOREGROUND
  6
CONTINUOUS
 66
     1
 40
0.000000
 41
0.000000
  0
VERTEX
  8
FOREGROUND
  6
CONTINUOUS
 10
0.000000
 20
5.373280
  0
VERTEX
  8
FOREGROUND
  6
CONTINUOUS
 10
8.499920
 20
5.373280
  0
VERTEX
  8
FOREGROUND
  6
CONTINUOUS
 10
8.499920
 20
-5.626720
  0
VERTEX
  8
FOREGROUND
  6
CONTINUOUS
 10
0.000000
 20
-5.626720
  0
VERTEX
  8
FOREGROUND
  6
CONTINUOUS
 10
0.000000
 20
5.373280
  0
SEQEND
  8
0
  0
POLYLINE
  8
0
  6
CONTINUOUS
 66
     1
 40
0.014080
 41
0.014080
  0
VERTEX
  8
0
  6
CONTINUOUS
 10
4.205520
 20
3.459720
  0
VERTEX
  8
0
  6
CONTINUOUS
 10
4.205520
 20
3.474240
  0
VERTEX
  8
0
  6
CONTINUOUS
 10
4.380200
 20
3.474240
  0
VERTEX
  8
0
  6
CONTINUOUS
 10
4.380200
 20
3.331680
  0
VERTEX
  8
0
  6
CONTINUOUS
 10
4.396040
 20
3.318040
  0
VERTEX
  8
0
  6
CONTINUOUS
 10
4.426400
 20
3.317160
  0
VERTEX
  8
0
  6
CONTINUOUS
 10
4.461160
 20
3.310560
  0
VERTEX
  8
0
  6
CONTINUOUS
 10
4.487120
 20
3.298680
  0
VERTEX
  8
0
  6
CONTINUOUS
 10
4.499000
 20
3.288560
  0
VERTEX
  8
0
  6
CONTINUOUS
 10
4.507360
 20
3.277120
  0
VERTEX
  8
0
  6
CONTINUOUS
 10
4.512200
 20
3.264800
  0
VERTEX
  8
0
  6
CONTINUOUS
 10
4.513520
 20
3.252040
  0
VERTEX
  8
0
  6
CONTINUOUS
 10
4.511760
 20
3.239280
  0
VERTEX
  8
0
  6
CONTINUOUS
 10
4.503400
 20
3.220800
  0
VERTEX
  8
0
  6
CONTINUOUS
 10
4.488880
 20
3.204960
  0
VERTEX
  8
0
  6
CONTINUOUS
 10
4.469080
 20
3.192640
  0
VERTEX
  8
0
  6
CONTINUOUS
 10
4.453240
 20
3.187360
  0
VERTEX
  8
0
  6
CONTINUOUS
 10
4.435200
 20
3.184720
  0
VERTEX
  8
0
  6
CONTINUOUS
 10
4.425520
 20
3.184720
  0
VERTEX
  8
0
  6
CONTINUOUS
 10
4.406600
 20
3.168000
  0
VERTEX
  8
0
  6
CONTINUOUS
 10
4.400440
 20
3.159640
  0
VERTEX
  8
0
  6
CONTINUOUS
 10
4.396920
 20
3.150840
  0
VERTEX
  8
0
  6
CONTINUOUS
 10
4.395160
 20
3.142040
  0
VERTEX
  8
0
  6
CONTINUOUS
 10
4.395600
 20
3.133680
  0
VERTEX
  8
0
  6
CONTINUOUS
 10
4.397800
 20
3.124880
  0
VERTEX
  8
0
  6
CONTINUOUS
 10
4.408360
 20
3.108160
  0
VERTEX
  8
0
  6
CONTINUOUS
 10
4.426400
 20
3.092760
  0
VERTEX
  8
0
  6
CONTINUOUS
 10
4.451040
 20
3.078680
  0
VERTEX
  8
0
  6
CONTINUOUS
 10
4.482280
 20
3.067240
  0
VERTEX
  8
0
  6
CONTINUOUS
 10
4.499880
 20
3.062400
  0
VERTEX
  8
0
  6
CONTINUOUS
 10
4.537720
 20
3.056240
  0
VERTEX
  8
0
  6
CONTINUOUS
 10
4.586120
 20
3.045240
  0
VERTEX
  8
0
  6
CONTINUOUS
 10
4.642440
 20
3.029840
  0
VERTEX
  8
0
  6
CONTINUOUS
 10
4.735720
 20
2.998160
  0
VERTEX
  8
0
  6
CONTINUOUS
 10
4.800400
 20
2.972640
  0
VERTEX
  8
0
  6
CONTINUOUS
 10
4.863760
 20
2.943600
  0
VERTEX
  8
0
  6
CONTINUOUS
 10
4.923600
 20
2.911480
  0
VERTEX
  8
0
  6
CONTINUOUS
 10
4.976840
 20
2.877160
  0
VERTEX
  8
0
  6
CONTINUOUS
 10
5.021280
 20
2.840640
  0
VERTEX
  8
0
  6
CONTINUOUS
 10
5.046800
 20
2.812040
  0
VERTEX
  8
0
  6
CONTINUOUS
 10
5.065280
 20
2.782560
  0
VERTEX
  8
0
  6
CONTINUOUS
 10
5.072320
 20
2.762320
  0
VERTEX
  8
0
  6
CONTINUOUS
 10
5.075840
 20
2.742080
  0
VERTEX
  8
0
  6
CONTINUOUS
 10
5.075840
 20
2.731960
  0
VERTEX
  8
0
  6
CONTINUOUS
 10
5.071880
 20
2.711280
  0
VERTEX
  8
0
  6
CONTINUOUS
 10
5.063520
 20
2.690600
  0
VERTEX
  8
0
  6
CONTINUOUS
 10
5.049440
 20
2.669920
  0
VERTEX
  8
0
  6
CONTINUOUS
 10
5.017760
 20
2.638680
  0
VERTEX
  8
0
  6
CONTINUOUS
 10
4.989160
 20
2.618000
  0
VERTEX
  8
0
  6
CONTINUOUS
 10
4.934160
 20
2.587200
  0
VERTEX
  8
0
  6
CONTINUOUS
 10
4.912160
 20
2.577080
  0
VERTEX
  8
0
  6
CONTINUOUS
 10
4.892800
 20
2.547160
  0
VERTEX
  8
0
  6
CONTINUOUS
 10
4.885760
 20
2.527360
  0
VERTEX
  8
0
  6
CONTINUOUS
 10
4.884000
 20
2.509320
  0
VERTEX
  8
0
  6
CONTINUOUS
 10
4.885760
 20
2.498760
  0
VERTEX
  8
0
  6
CONTINUOUS
 10
4.889720
 20
2.488640
  0
VERTEX
  8
0
  6
CONTINUOUS
 10
4.903800
 20
2.471480
  0
VERTEX
  8
0
  6
CONTINUOUS
 10
4.924480
 20
2.458280
  0
VERTEX
  8
0
  6
CONTINUOUS
 10
4.950880
 20
2.449040
  0
VERTEX
  8
0
  6
CONTINUOUS
 10
4.982120
 20
2.443320
  0
VERTEX
  8
0
  6
CONTINUOUS
 10
5.000160
 20
2.442000
  0
VERTEX
  8
0
  6
CONTINUOUS
 10
5.053400
 20
2.442000
  0
VERTEX
  8
0
  6
CONTINUOUS
 10
5.065280
 20
2.441120
  0
VERTEX
  8
0
  6
CONTINUOUS
 10
5.075840
 20
2.438920
  0
VERTEX
  8
0
  6
CONTINUOUS
 10
5.094760
 20
2.430120
  0
VERTEX
  8
0
  6
CONTINUOUS
 10
5.109720
 20
2.417360
  0
VERTEX
  8
0
  6
CONTINUOUS
 10
5.121600
 20
2.401520
  0
VERTEX
  8
0
  6
CONTINUOUS
 10
5.130400
 20
2.383920
  0
VERTEX
  8
0
  6
CONTINUOUS
 10
5.138320
 20
2.356640
  0
VERTEX
  8
0
  6
CONTINUOUS
 10
5.140080
 20
2.331560
  0
VERTEX
  8
0
  6
CONTINUOUS
 10
5.140080
 20
2.000680
  0
VERTEX
  8
0
  6
CONTINUOUS
 10
4.205520
 20
2.000680
  0
VERTEX
  8
0
  6
CONTINUOUS
 10
4.205520
 20
3.467640
  0
VERTEX
  8
0
  6
CONTINUOUS
 10
4.205520
 20
3.459720
  0
SEQEND
  8
0
  0
SOLID
  8
0
 62
     7
 10
2.520760
 20
2.891680
 11
3.165800
 21
3.266560
 12
2.570040
 22
2.856040
 13
3.215080
 23
3.230920
  0
POLYLINE
  8
0
  6
CONTINUOUS
 66
     1
 40
0.000000
 41
0.000000
  0
VERTEX
  8
0
  6
CONTINUOUS
 10
2.520760
 20
2.891680
  0
VERTEX
  8
0
  6
CONTINUOUS
 10
3.165800
 20
3.266560
  0
VERTEX
  8
0
  6
CONTINUOUS
 10
3.215080
 20
3.230920
  0
VERTEX
  8
0
  6
CONTINUOUS
 10
2.570040
 20
2.856040
  0
VERTEX
  8
0
  6
CONTINUOUS
 10
2.520760
 20
2.891680
  0
SEQEND
  8
0
  0
SOLID
  8
0
 62
    15
 10
1.949640
 20
3.471160
 11
2.595120
 21
3.846040
 12
1.949640
 22
3.328600
 13
2.595120
 23
3.703480
  0
POLYLINE
  8
0
  6
CONTINUOUS
 66
     1
 40
0.000000
 41
0.000000
  0
VERTEX
  8
0
  6
CONTINUOUS
 10
1.949640
 20
3.471160
  0
VERTEX
  8
0
  6
CONTINUOUS
 10
2.595120
 20
3.846040
  0
VERTEX
  8
0
  6
CONTINUOUS
 10
2.595120
 20
3.703480
  0
VERTEX
  8
0
  6
CONTINUOUS
 10
1.949640
 20
3.328600
  0
VERTEX
  8
0
  6
CONTINUOUS
 10
1.949640
 20
3.471160
  0
SEQEND
  8
0
  0
SOLID
  8
0
 62
     7
 10
1.949640
 20
3.328600
 11
2.595120
 21
3.703480
 12
1.965920
 22
3.315400
 13
2.610960
 23
3.690280
  0
POLYLINE
  8
0
  6
CONTINUOUS
 66
     1
 40
0.000000
 41
0.000000
  0
VERTEX
  8
0
  6
CONTINUOUS
 10
1.949640
 20
3.328600
  0
VERTEX
  8
0
  6
CONTINUOUS
 10
2.595120
 20
3.703480
  0
VERTEX
  8
0
  6
CONTINUOUS
 10
2.610960
 20
3.690280
  0
VERTEX
  8
0
  6
CONTINUOUS
 10
1.965920
 20
3.315400
  0
VERTEX
  8
0
  6
CONTINUOUS
 10
1.949640
 20
3.328600
  0
SEQEND
  8
0
  0
SOLID
  8
0
 62
    15
 10
1.965920
 20
3.315400
 11
2.610960
 21
3.690280
 12
1.995840
 22
3.314520
 13
2.641320
 23
3.689400
  0
POLYLINE
  8
0
  6
CONTINUOUS
 66
     1
 40
0.000000
 41
0.000000
  0
VERTEX
  8
0
  6
CONTINUOUS
 10
1.965920
 20
3.315400
  0
VERTEX
  8
0
  6
CONTINUOUS
 10
2.610960
 20
3.690280
  0
VERTEX
  8
0
  6
CONTINUOUS
 10
2.641320
 20
3.689400
  0
VERTEX
  8
0
  6
CONTINUOUS
 10
1.995840
 20
3.314520
  0
VERTEX
  8
0
  6
CONTINUOUS
 10
1.965920
 20
3.315400
  0
SEQEND
  8
0
  0
SOLID
  8
0
 62
    15
 10
1.995840
 20
3.314520
 11
2.641320
 21
3.689400
 12
2.020480
 22
3.310560
 13
2.665520
 23
3.685440
  0
POLYLINE
  8
0
  6
CONTINUOUS
 66
     1
 40
0.000000
 41
0.000000
  0
VERTEX
  8
0
  6
CONTINUOUS
 10
1.995840
 20
3.314520
  0
VERTEX
  8
0
  6
CONTINUOUS
 10
2.641320
 20
3.689400
  0
VERTEX
  8
0
  6
CONTINUOUS
 10
2.665520
 20
3.685440
  0
VERTEX
  8
0
  6
CONTINUOUS
 10
2.020480
 20
3.310560
  0
VERTEX
  8
0
  6
CONTINUOUS
 10
1.995840
 20
3.314520
  0
SEQEND
  8
0
  0
SOLID
  8
0
 62
    15
 10
2.020480
 20
3.310560
 11
2.665520
 21
3.685440
 12
2.040720
 22
3.304400
 13
2.685760
 23
3.679280
  0
POLYLINE
  8
0
  6
CONTINUOUS
 66
     1
 40
0.000000
 41
0.000000
  0
VERTEX
  8
0
  6
CONTINUOUS
 10
2.020480
 20
3.310560
  0
VERTEX
  8
0
  6
CONTINUOUS
 10
2.665520
 20
3.685440
  0
VERTEX
  8
0
  6
CONTINUOUS
 10
2.685760
 20
3.679280
  0
VERTEX
  8
0
  6
CONTINUOUS
 10
2.040720
 20
3.304400
  0
VERTEX
  8
0
  6
CONTINUOUS
 10
2.020480
 20
3.310560
  0
SEQEND
  8
0
  0
SOLID
  8
0
 62
     7
 10
2.040720
 20
3.304400
 11
2.685760
 21
3.679280
 12
2.056560
 22
3.295600
 13
2.701600
 23
3.670480
  0
POLYLINE
  8
0
  6
CONTINUOUS
 66
     1
 40
0.000000
 41
0.000000
  0
VERTEX
  8
0
  6
CONTINUOUS
 10
2.040720
 20
3.304400
  0
VERTEX
  8
0
  6
CONTINUOUS
 10
2.685760
 20
3.679280
  0
VERTEX
  8
0
  6
CONTINUOUS
 10
2.701600
 20
3.670480
  0
VERTEX
  8
0
  6
CONTINUOUS
 10
2.056560
 20
3.295600
  0
VERTEX
  8
0
  6
CONTINUOUS
 10
2.040720
 20
3.304400
  0
SEQEND
  8
0
  0
SOLID
  8
0
 62
     7
 10
2.056560
 20
3.295600
 11
2.701600
 21
3.670480
 12
2.076800
 22
3.274040
 13
2.722280
 23
3.648920
  0
POLYLINE
  8
0
  6
CONTINUOUS
 66
     1
 40
0.000000
 41
0.000000
  0
VERTEX
  8
0
  6
CONTINUOUS
 10
2.056560
 20
3.295600
  0
VERTEX
  8
0
  6
CONTINUOUS
 10
2.701600
 20
3.670480
  0
VERTEX
  8
0
  6
CONTINUOUS
 10
2.722280
 20
3.648920
  0
VERTEX
  8
0
  6
CONTINUOUS
 10
2.076800
 20
3.274040
  0
VERTEX
  8
0
  6
CONTINUOUS
 10
2.056560
 20
3.295600
  0
SEQEND
  8
0
  0
SOLID
  8
0
 62
     7
 10
2.076800
 20
3.274040
 11
2.722280
 21
3.648920
 12
2.082960
 22
3.248960
 13
2.728440
 23
3.623840
  0
POLYLINE
  8
0
  6
CONTINUOUS
 66
     1
 40
0.000000
 41
0.000000
  0
VERTEX
  8
0
  6
CONTINUOUS
 10
2.076800
 20
3.274040
  0
VERTEX
  8
0
  6
CONTINUOUS
 10
2.722280
 20
3.648920
  0
VERTEX
  8
0
  6
CONTINUOUS
 10
2.728440
 20
3.623840
  0
VERTEX
  8
0
  6
CONTINUOUS
 10
2.082960
 20
3.248960
  0
VERTEX
  8
0
  6
CONTINUOUS
 10
2.076800
 20
3.274040
  0
SEQEND
  8
0
  0
SOLID
  8
0
 62
    15
 10
1.994960
 20
3.182080
 11
2.640440
 21
3.556960
 12
1.976040
 22
3.165360
 13
2.621520
 23
3.540240
  0
POLYLINE
  8
0
  6
CONTINUOUS
 66
     1
 40
0.000000
 41
0.000000
  0
VERTEX
  8
0
  6
CONTINUOUS
 10
1.994960
 20
3.182080
  0
VERTEX
  8
0
  6
CONTINUOUS
 10
2.640440
 20
3.556960
  0
VERTEX
  8
0
  6
CONTINUOUS
 10
2.621520
 20
3.540240
  0
VERTEX
  8
0
  6
CONTINUOUS
 10
1.976040
 20
3.165360
  0
VERTEX
  8
0
  6
CONTINUOUS
 10
1.994960
 20
3.182080
  0
SEQEND
  8
0
  0
SOLID
  8
0
 62
    15
 10
1.976040
 20
3.165360
 11
2.621520
 21
3.540240
 12
1.966360
 22
3.148200
 13
2.611840
 23
3.523080
  0
POLYLINE
  8
0
  6
CONTINUOUS
 66
     1
 40
0.000000
 41
0.000000
  0
VERTEX
  8
0
  6
CONTINUOUS
 10
1.976040
 20
3.165360
  0
VERTEX
  8
0
  6
CONTINUOUS
 10
2.621520
 20
3.540240
  0
VERTEX
  8
0
  6
CONTINUOUS
 10
2.611840
 20
3.523080
  0
VERTEX
  8
0
  6
CONTINUOUS
 10
1.966360
 20
3.148200
  0
VERTEX
  8
0
  6
CONTINUOUS
 10
1.976040
 20
3.165360
  0
SEQEND
  8
0
  0
SOLID
  8
0
 62
    15
 10
2.082960
 20
3.248960
 11
2.728440
 21
3.623840
 12
2.076360
 22
3.223880
 13
2.721840
 23
3.598760
  0
POLYLINE
  8
0
  6
CONTINUOUS
 66
     1
 40
0.000000
 41
0.000000
  0
VERTEX
  8
0
  6
CONTINUOUS
 10
2.082960
 20
3.248960
  0
VERTEX
  8
0
  6
CONTINUOUS
 10
2.728440
 20
3.623840
  0
VERTEX
  8
0
  6
CONTINUOUS
 10
2.721840
 20
3.598760
  0
VERTEX
  8
0
  6
CONTINUOUS
 10
2.076360
 20
3.223880
  0
VERTEX
  8
0
  6
CONTINUOUS
 10
2.082960
 20
3.248960
  0
SEQEND
  8
0
  0
SOLID
  8
0
 62
    15
 10
2.076360
 20
3.223880
 11
2.721840
 21
3.598760
 12
2.058760
 22
3.202320
 13
2.703800
 23
3.577200
  0
POLYLINE
  8
0
  6
CONTINUOUS
 66
     1
 40
0.000000
 41
0.000000
  0
VERTEX
  8
0
  6
CONTINUOUS
 10
2.076360
 20
3.223880
  0
VERTEX
  8
0
  6
CONTINUOUS
 10
2.721840
 20
3.598760
  0
VERTEX
  8
0
  6
CONTINUOUS
 10
2.703800
 20
3.577200
  0
VERTEX
  8
0
  6
CONTINUOUS
 10
2.058760
 20
3.202320
  0
VERTEX
  8
0
  6
CONTINUOUS
 10
2.076360
 20
3.223880
  0
SEQEND
  8
0
  0
SOLID
  8
0
 62
    15
 10
1.966360
 20
3.148200
 11
2.611840
 21
3.523080
 12
1.965040
 22
3.130600
 13
2.610520
 23
3.505480
  0
POLYLINE
  8
0
  6
CONTINUOUS
 66
     1
 40
0.000000
 41
0.000000
  0
VERTEX
  8
0
  6
CONTINUOUS
 10
1.966360
 20
3.148200
  0
VERTEX
  8
0
  6
CONTINUOUS
 10
2.611840
 20
3.523080
  0
VERTEX
  8
0
  6
CONTINUOUS
 10
2.610520
 20
3.505480
  0
VERTEX
  8
0
  6
CONTINUOUS
 10
1.965040
 20
3.130600
  0
VERTEX
  8
0
  6
CONTINUOUS
 10
1.966360
 20
3.148200
  0
SEQEND
  8
0
  0
SOLID
  8
0
 62
     7
 10
1.965040
 20
3.130600
 11
2.610520
 21
3.505480
 12
1.972080
 22
3.113880
 13
2.617120
 23
3.488320
  0
POLYLINE
  8
0
  6
CONTINUOUS
 66
     1
 40
0.000000
 41
0.000000
  0
VERTEX
  8
0
  6
CONTINUOUS
 10
1.965040
 20
3.130600
  0
VERTEX
  8
0
  6
CONTINUOUS
 10
2.610520
 20
3.505480
  0
VERTEX
  8
0
  6
CONTINUOUS
 10
2.617120
 20
3.488320
  0
VERTEX
  8
0
  6
CONTINUOUS
 10
1.972080
 20
3.113880
  0
VERTEX
  8
0
  6
CONTINUOUS
 10
1.965040
 20
3.130600
  0
SEQEND
  8
0
  0
SOLID
  8
0
 62
     7
 10
1.972080
 20
3.113880
 11
2.617120
 21
3.488320
 12
1.986160
 22
3.097600
 13
2.631640
 23
3.472040
  0
POLYLINE
  8
0
  6
CONTINUOUS
 66
     1
 40
0.000000
 41
0.000000
  0
VERTEX
  8
0
  6
CONTINUOUS
 10
1.972080
 20
3.113880
  0
VERTEX
  8
0
  6
CONTINUOUS
 10
2.617120
 20
3.488320
  0
VERTEX
  8
0
  6
CONTINUOUS
 10
2.631640
 20
3.472040
  0
VERTEX
  8
0
  6
CONTINUOUS
 10
1.986160
 20
3.097600
  0
VERTEX
  8
0
  6
CONTINUOUS
 10
1.972080
 20
3.113880
  0
SEQEND
  8
0
  0
SOLID
  8
0
 62
     7
 10
1.986160
 20
3.097600
 11
2.631640
 21
3.472040
 12
2.007720
 22
3.082640
 13
2.652760
 23
3.457520
  0
POLYLINE
  8
0
  6
CONTINUOUS
 66
     1
 40
0.000000
 41
0.000000
  0
VERTEX
  8
0
  6
CONTINUOUS
 10
1.986160
 20
3.097600
  0
VERTEX
  8
0
  6
CONTINUOUS
 10
2.631640
 20
3.472040
  0
VERTEX
  8
0
  6
CONTINUOUS
 10
2.652760
 20
3.457520
  0
VERTEX
  8
0
  6
CONTINUOUS
 10
2.007720
 20
3.082640
  0
VERTEX
  8
0
  6
CONTINUOUS
 10
1.986160
 20
3.097600
  0
SEQEND
  8
0
  0
SOLID
  8
0
 62
     7
 10
2.007720
 20
3.082640
 11
2.652760
 21
3.457520
 12
2.035880
 22
3.069880
 13
2.680920
 23
3.444760
  0
POLYLINE
  8
0
  6
CONTINUOUS
 66
     1
 40
0.000000
 41
0.000000
  0
VERTEX
  8
0
  6
CONTINUOUS
 10
2.007720
 20
3.082640
  0
VERTEX
  8
0
  6
CONTINUOUS
 10
2.652760
 20
3.457520
  0
VERTEX
  8
0
  6
CONTINUOUS
 10
2.680920
 20
3.444760
  0
VERTEX
  8
0
  6
CONTINUOUS
 10
2.035880
 20
3.069880
  0
VERTEX
  8
0
  6
CONTINUOUS
 10
2.007720
 20
3.082640
  0
SEQEND
  8
0
  0
SOLID
  8
0
 62
     7
 10
2.035880
 20
3.069880
 11
2.680920
 21
3.444760
 12
2.069760
 22
3.059320
 13
2.714800
 23
3.434200
  0
POLYLINE
  8
0
  6
CONTINUOUS
 66
     1
 40
0.000000
 41
0.000000
  0
VERTEX
  8
0
  6
CONTINUOUS
 10
2.035880
 20
3.069880
  0
VERTEX
  8
0
  6
CONTINUOUS
 10
2.680920
 20
3.444760
  0
VERTEX
  8
0
  6
CONTINUOUS
 10
2.714800
 20
3.434200
  0
VERTEX
  8
0
  6
CONTINUOUS
 10
2.069760
 20
3.059320
  0
VERTEX
  8
0
  6
CONTINUOUS
 10
2.035880
 20
3.069880
  0
SEQEND
  8
0
  0
SOLID
  8
0
 62
    15
 10
2.069760
 20
3.059320
 11
2.714800
 21
3.434200
 12
2.107600
 22
3.053600
 13
2.752640
 23
3.428040
  0
POLYLINE
  8
0
  6
CONTINUOUS
 66
     1
 40
0.000000
 41
0.000000
  0
VERTEX
  8
0
  6
CONTINUOUS
 10
2.069760
 20
3.059320
  0
VERTEX
  8
0
  6
CONTINUOUS
 10
2.714800
 20
3.434200
  0
VERTEX
  8
0
  6
CONTINUOUS
 10
2.752640
 20
3.428040
  0
VERTEX
  8
0
  6
CONTINUOUS
 10
2.107600
 20
3.053600
  0
VERTEX
  8
0
  6
CONTINUOUS
 10
2.069760
 20
3.059320
  0
SEQEND
  8
0
  0
SOLID
  8
0
 62
    15
 10
2.107600
 20
3.053600
 11
2.752640
 21
3.428040
 12
2.156000
 22
3.042600
 13
2.801040
 23
3.417040
  0
POLYLINE
  8
0
  6
CONTINUOUS
 66
     1
 40
0.000000
 41
0.000000
  0
VERTEX
  8
0
  6
CONTINUOUS
 10
2.107600
 20
3.053600
  0
VERTEX
  8
0
  6
CONTINUOUS
 10
2.752640
 20
3.428040
  0
VERTEX
  8
0
  6
CONTINUOUS
 10
2.801040
 20
3.417040
  0
VERTEX
  8
0
  6
CONTINUOUS
 10
2.156000
 20
3.042600
  0
VERTEX
  8
0
  6
CONTINUOUS
 10
2.107600
 20
3.053600
  0
SEQEND
  8
0
  0
SOLID
  8
0
 62
     7
 10
2.156000
 20
3.042600
 11
2.801040
 21
3.417040
 12
2.212320
 22
3.026760
 13
2.857360
 23
3.401640
  0
POLYLINE
  8
0
  6
CONTINUOUS
 66
     1
 40
0.000000
 41
0.000000
  0
VERTEX
  8
0
  6
CONTINUOUS
 10
2.156000
 20
3.042600
  0
VERTEX
  8
0
  6
CONTINUOUS
 10
2.801040
 20
3.417040
  0
VERTEX
  8
0
  6
CONTINUOUS
 10
2.857360
 20
3.401640
  0
VERTEX
  8
0
  6
CONTINUOUS
 10
2.212320
 20
3.026760
  0
VERTEX
  8
0
  6
CONTINUOUS
 10
2.156000
 20
3.042600
  0
SEQEND
  8
0
  0
SOLID
  8
0
 62
     7
 10
2.212320
 20
3.026760
 11
2.857360
 21
3.401640
 12
2.273480
 22
3.006960
 13
2.918960
 23
3.381400
  0
POLYLINE
  8
0
  6
CONTINUOUS
 66
     1
 40
0.000000
 41
0.000000
  0
VERTEX
  8
0
  6
CONTINUOUS
 10
2.212320
 20
3.026760
  0
VERTEX
  8
0
  6
CONTINUOUS
 10
2.857360
 20
3.401640
  0
VERTEX
  8
0
  6
CONTINUOUS
 10
2.918960
 20
3.381400
  0
VERTEX
  8
0
  6
CONTINUOUS
 10
2.273480
 20
3.006960
  0
VERTEX
  8
0
  6
CONTINUOUS
 10
2.212320
 20
3.026760
  0
SEQEND
  8
0
  0
SOLID
  8
0
 62
     7
 10
2.273480
 20
3.006960
 11
2.918960
 21
3.381400
 12
2.401960
 22
2.955480
 13
3.047440
 23
3.330360
  0
POLYLINE
  8
0
  6
CONTINUOUS
 66
     1
 40
0.000000
 41
0.000000
  0
VERTEX
  8
0
  6
CONTINUOUS
 10
2.273480
 20
3.006960
  0
VERTEX
  8
0
  6
CONTINUOUS
 10
2.918960
 20
3.381400
  0
VERTEX
  8
0
  6
CONTINUOUS
 10
3.047440
 20
3.330360
  0
VERTEX
  8
0
  6
CONTINUOUS
 10
2.401960
 20
2.955480
  0
VERTEX
  8
0
  6
CONTINUOUS
 10
2.273480
 20
3.006960
  0
SEQEND
  8
0
  0
SOLID
  8
0
 62
     7
 10
2.401960
 20
2.955480
 11
3.047440
 21
3.330360
 12
2.464000
 22
2.925120
 13
3.109040
 23
3.299560
  0
POLYLINE
  8
0
  6
CONTINUOUS
 66
     1
 40
0.000000
 41
0.000000
  0
VERTEX
  8
0
  6
CONTINUOUS
 10
2.401960
 20
2.955480
  0
VERTEX
  8
0
  6
CONTINUOUS
 10
3.047440
 20
3.330360
  0
VERTEX
  8
0
  6
CONTINUOUS
 10
3.109040
 20
3.299560
  0
VERTEX
  8
0
  6
CONTINUOUS
 10
2.464000
 20
2.925120
  0
VERTEX
  8
0
  6
CONTINUOUS
 10
2.401960
 20
2.955480
  0
SEQEND
  8
0
  0
SOLID
  8
0
 62
     7
 10
2.464000
 20
2.925120
 11
3.109040
 21
3.299560
 12
2.520760
 22
2.891680
 13
3.165800
 23
3.266560
  0
POLYLINE
  8
0
  6
CONTINUOUS
 66
     1
 40
0.000000
 41
0.000000
  0
VERTEX
  8
0
  6
CONTINUOUS
 10
2.464000
 20
2.925120
  0
VERTEX
  8
0
  6
CONTINUOUS
 10
3.109040
 20
3.299560
  0
VERTEX
  8
0
  6
CONTINUOUS
 10
3.165800
 20
3.266560
  0
VERTEX
  8
0
  6
CONTINUOUS
 10
2.520760
 20
2.891680
  0
VERTEX
  8
0
  6
CONTINUOUS
 10
2.464000
 20
2.925120
  0
SEQEND
  8
0
  0
SOLID
  8
0
 62
    15
 10
1.774960
 20
3.464560
 11
2.420440
 21
3.839440
 12
1.774960
 22
3.456640
 13
2.420440
 23
3.831520
  0
POLYLINE
  8
0
  6
CONTINUOUS
 66
     1
 40
0.000000
 41
0.000000
  0
VERTEX
  8
0
  6
CONTINUOUS
 10
1.774960
 20
3.464560
  0
VERTEX
  8
0
  6
CONTINUOUS
 10
2.420440
 20
3.839440
  0
VERTEX
  8
0
  6
CONTINUOUS
 10
2.420440
 20
3.831520
  0
VERTEX
  8
0
  6
CONTINUOUS
 10
1.774960
 20
3.456640
  0
VERTEX
  8
0
  6
CONTINUOUS
 10
1.774960
 20
3.464560
  0
SEQEND
  8
0
  0
SOLID
  8
0
 62
     7
 10
2.570040
 20
2.856040
 11
3.215080
 21
3.230920
 12
2.608760
 22
2.818640
 13
3.253800
 23
3.193520
  0
POLYLINE
  8
0
  6
CONTINUOUS
 66
     1
 40
0.000000
 41
0.000000
  0
VERTEX
  8
0
  6
CONTINUOUS
 10
2.570040
 20
2.856040
  0
VERTEX
  8
0
  6
CONTINUOUS
 10
3.215080
 20
3.230920
  0
VERTEX
  8
0
  6
CONTINUOUS
 10
3.253800
 20
3.193520
  0
VERTEX
  8
0
  6
CONTINUOUS
 10
2.608760
 20
2.818640
  0
VERTEX
  8
0
  6
CONTINUOUS
 10
2.570040
 20
2.856040
  0
SEQEND
  8
0
  0
SOLID
  8
0
 62
     7
 10
2.608760
 20
2.818640
 11
3.253800
 21
3.193520
 12
2.634720
 22
2.779480
 13
3.279760
 23
3.154360
  0
POLYLINE
  8
0
  6
CONTINUOUS
 66
     1
 40
0.000000
 41
0.000000
  0
VERTEX
  8
0
  6
CONTINUOUS
 10
2.608760
 20
2.818640
  0
VERTEX
  8
0
  6
CONTINUOUS
 10
3.253800
 20
3.193520
  0
VERTEX
  8
0
  6
CONTINUOUS
 10
3.279760
 20
3.154360
  0
VERTEX
  8
0
  6
CONTINUOUS
 10
2.634720
 20
2.779480
  0
VERTEX
  8
0
  6
CONTINUOUS
 10
2.608760
 20
2.818640
  0
SEQEND
  8
0
  0
SOLID
  8
0
 62
     7
 10
2.634720
 20
2.779480
 11
3.279760
 21
3.154360
 12
2.645280
 22
2.739000
 13
3.290760
 23
3.113880
  0
POLYLINE
  8
0
  6
CONTINUOUS
 66
     1
 40
0.000000
 41
0.000000
  0
VERTEX
  8
0
  6
CONTINUOUS
 10
2.634720
 20
2.779480
  0
VERTEX
  8
0
  6
CONTINUOUS
 10
3.279760
 20
3.154360
  0
VERTEX
  8
0
  6
CONTINUOUS
 10
3.290760
 20
3.113880
  0
VERTEX
  8
0
  6
CONTINUOUS
 10
2.645280
 20
2.739000
  0
VERTEX
  8
0
  6
CONTINUOUS
 10
2.634720
 20
2.779480
  0
SEQEND
  8
0
  0
SOLID
  8
0
 62
    15
 10
2.645280
 20
2.739000
 11
3.290760
 21
3.113880
 12
2.643960
 22
2.718760
 13
3.289440
 23
3.093640
  0
POLYLINE
  8
0
  6
CONTINUOUS
 66
     1
 40
0.000000
 41
0.000000
  0
VERTEX
  8
0
  6
CONTINUOUS
 10
2.645280
 20
2.739000
  0
VERTEX
  8
0
  6
CONTINUOUS
 10
3.290760
 20
3.113880
  0
VERTEX
  8
0
  6
CONTINUOUS
 10
3.289440
 20
3.093640
  0
VERTEX
  8
0
  6
CONTINUOUS
 10
2.643960
 20
2.718760
  0
VERTEX
  8
0
  6
CONTINUOUS
 10
2.645280
 20
2.739000
  0
SEQEND
  8
0
  0
SOLID
  8
0
 62
    15
 10
2.643960
 20
2.718760
 11
3.289440
 21
3.093640
 12
2.637800
 22
2.698080
 13
3.283280
 23
3.072960
  0
POLYLINE
  8
0
  6
CONTINUOUS
 66
     1
 40
0.000000
 41
0.000000
  0
VERTEX
  8
0
  6
CONTINUOUS
 10
2.643960
 20
2.718760
  0
VERTEX
  8
0
  6
CONTINUOUS
 10
3.289440
 20
3.093640
  0
VERTEX
  8
0
  6
CONTINUOUS
 10
3.283280
 20
3.072960
  0
VERTEX
  8
0
  6
CONTINUOUS
 10
2.637800
 20
2.698080
  0
VERTEX
  8
0
  6
CONTINUOUS
 10
2.643960
 20
2.718760
  0
SEQEND
  8
0
  0
SOLID
  8
0
 62
    15
 10
2.637800
 20
2.698080
 11
3.283280
 21
3.072960
 12
2.626800
 22
2.677400
 13
3.271840
 23
3.052280
  0
POLYLINE
  8
0
  6
CONTINUOUS
 66
     1
 40
0.000000
 41
0.000000
  0
VERTEX
  8
0
  6
CONTINUOUS
 10
2.637800
 20
2.698080
  0
VERTEX
  8
0
  6
CONTINUOUS
 10
3.283280
 20
3.072960
  0
VERTEX
  8
0
  6
CONTINUOUS
 10
3.271840
 20
3.052280
  0
VERTEX
  8
0
  6
CONTINUOUS
 10
2.626800
 20
2.677400
  0
VERTEX
  8
0
  6
CONTINUOUS
 10
2.637800
 20
2.698080
  0
SEQEND
  8
0
  0
SOLID
  8
0
 62
    15
 10
2.626800
 20
2.677400
 11
3.271840
 21
3.052280
 12
2.610080
 22
2.656720
 13
3.255120
 23
3.031160
  0
POLYLINE
  8
0
  6
CONTINUOUS
 66
     1
 40
0.000000
 41
0.000000
  0
VERTEX
  8
0
  6
CONTINUOUS
 10
2.626800
 20
2.677400
  0
VERTEX
  8
0
  6
CONTINUOUS
 10
3.271840
 20
3.052280
  0
VERTEX
  8
0
  6
CONTINUOUS
 10
3.255120
 20
3.031160
  0
VERTEX
  8
0
  6
CONTINUOUS
 10
2.610080
 20
2.656720
  0
VERTEX
  8
0
  6
CONTINUOUS
 10
2.626800
 20
2.677400
  0
SEQEND
  8
0
  0
SOLID
  8
0
 62
    15
 10
2.610080
 20
2.656720
 11
3.255120
 21
3.031160
 12
2.587640
 22
2.635600
 13
3.232680
 23
3.010480
  0
POLYLINE
  8
0
  6
CONTINUOUS
 66
     1
 40
0.000000
 41
0.000000
  0
VERTEX
  8
0
  6
CONTINUOUS
 10
2.610080
 20
2.656720
  0
VERTEX
  8
0
  6
CONTINUOUS
 10
3.255120
 20
3.031160
  0
VERTEX
  8
0
  6
CONTINUOUS
 10
3.232680
 20
3.010480
  0
VERTEX
  8
0
  6
CONTINUOUS
 10
2.587640
 20
2.635600
  0
VERTEX
  8
0
  6
CONTINUOUS
 10
2.610080
 20
2.656720
  0
SEQEND
  8
0
  0
SOLID
  8
0
 62
    15
 10
2.481600
 20
2.574000
 11
3.127080
 21
2.948880
 12
2.462680
 22
2.544080
 13
3.107720
 23
2.918960
  0
POLYLINE
  8
0
  6
CONTINUOUS
 66
     1
 40
0.000000
 41
0.000000
  0
VERTEX
  8
0
  6
CONTINUOUS
 10
2.481600
 20
2.574000
  0
VERTEX
  8
0
  6
CONTINUOUS
 10
3.127080
 20
2.948880
  0
VERTEX
  8
0
  6
CONTINUOUS
 10
3.107720
 20
2.918960
  0
VERTEX
  8
0
  6
CONTINUOUS
 10
2.462680
 20
2.544080
  0
VERTEX
  8
0
  6
CONTINUOUS
 10
2.481600
 20
2.574000
  0
SEQEND
  8
0
  0
SOLID
  8
0
 62
    15
 10
2.558600
 20
2.614920
 11
3.204080
 21
2.989800
 12
2.523840
 22
2.594680
 13
3.168880
 23
2.969120
  0
POLYLINE
  8
0
  6
CONTINUOUS
 66
     1
 40
0.000000
 41
0.000000
  0
VERTEX
  8
0
  6
CONTINUOUS
 10
2.558600
 20
2.614920
  0
VERTEX
  8
0
  6
CONTINUOUS
 10
3.204080
 20
2.989800
  0
VERTEX
  8
0
  6
CONTINUOUS
 10
3.168880
 20
2.969120
  0
VERTEX
  8
0
  6
CONTINUOUS
 10
2.523840
 20
2.594680
  0
VERTEX
  8
0
  6
CONTINUOUS
 10
2.558600
 20
2.614920
  0
SEQEND
  8
0
  0
SOLID
  8
0
 62
    15
 10
2.587640
 20
2.635600
 11
3.232680
 21
3.010480
 12
2.558600
 22
2.614920
 13
3.204080
 23
2.989800
  0
POLYLINE
  8
0
  6
CONTINUOUS
 66
     1
 40
0.000000
 41
0.000000
  0
VERTEX
  8
0
  6
CONTINUOUS
 10
2.587640
 20
2.635600
  0
VERTEX
  8
0
  6
CONTINUOUS
 10
3.232680
 20
3.010480
  0
VERTEX
  8
0
  6
CONTINUOUS
 10
3.204080
 20
2.989800
  0
VERTEX
  8
0
  6
CONTINUOUS
 10
2.558600
 20
2.614920
  0
VERTEX
  8
0
  6
CONTINUOUS
 10
2.587640
 20
2.635600
  0
SEQEND
  8
0
  0
SOLID
  8
0
 62
    15
 10
2.462680
 20
2.544080
 11
3.107720
 21
2.918960
 12
2.454320
 22
2.518120
 13
3.099360
 23
2.893000
  0
POLYLINE
  8
0
  6
CONTINUOUS
 66
     1
 40
0.000000
 41
0.000000
  0
VERTEX
  8
0
  6
CONTINUOUS
 10
2.462680
 20
2.544080
  0
VERTEX
  8
0
  6
CONTINUOUS
 10
3.107720
 20
2.918960
  0
VERTEX
  8
0
  6
CONTINUOUS
 10
3.099360
 20
2.893000
  0
VERTEX
  8
0
  6
CONTINUOUS
 10
2.454320
 20
2.518120
  0
VERTEX
  8
0
  6
CONTINUOUS
 10
2.462680
 20
2.544080
  0
SEQEND
  8
0
  0
SOLID
  8
0
 62
    15
 10
2.454320
 20
2.518120
 11
3.099360
 21
2.893000
 12
2.455640
 22
2.495680
 13
3.100680
 23
2.870560
  0
POLYLINE
  8
0
  6
CONTINUOUS
 66
     1
 40
0.000000
 41
0.000000
  0
VERTEX
  8
0
  6
CONTINUOUS
 10
2.454320
 20
2.518120
  0
VERTEX
  8
0
  6
CONTINUOUS
 10
3.099360
 20
2.893000
  0
VERTEX
  8
0
  6
CONTINUOUS
 10
3.100680
 20
2.870560
  0
VERTEX
  8
0
  6
CONTINUOUS
 10
2.455640
 20
2.495680
  0
VERTEX
  8
0
  6
CONTINUOUS
 10
2.454320
 20
2.518120
  0
SEQEND
  8
0
  0
SOLID
  8
0
 62
     7
 10
2.455640
 20
2.495680
 11
3.100680
 21
2.870560
 12
2.465760
 22
2.476760
 13
3.110800
 23
2.851640
  0
POLYLINE
  8
0
  6
CONTINUOUS
 66
     1
 40
0.000000
 41
0.000000
  0
VERTEX
  8
0
  6
CONTINUOUS
 10
2.455640
 20
2.495680
  0
VERTEX
  8
0
  6
CONTINUOUS
 10
3.100680
 20
2.870560
  0
VERTEX
  8
0
  6
CONTINUOUS
 10
3.110800
 20
2.851640
  0
VERTEX
  8
0
  6
CONTINUOUS
 10
2.465760
 20
2.476760
  0
VERTEX
  8
0
  6
CONTINUOUS
 10
2.455640
 20
2.495680
  0
SEQEND
  8
0
  0
SOLID
  8
0
 62
     7
 10
2.465760
 20
2.476760
 11
3.110800
 21
2.851640
 12
2.482920
 22
2.461800
 13
3.128400
 23
2.836240
  0
POLYLINE
  8
0
  6
CONTINUOUS
 66
     1
 40
0.000000
 41
0.000000
  0
VERTEX
  8
0
  6
CONTINUOUS
 10
2.465760
 20
2.476760
  0
VERTEX
  8
0
  6
CONTINUOUS
 10
3.110800
 20
2.851640
  0
VERTEX
  8
0
  6
CONTINUOUS
 10
3.128400
 20
2.836240
  0
VERTEX
  8
0
  6
CONTINUOUS
 10
2.482920
 20
2.461800
  0
VERTEX
  8
0
  6
CONTINUOUS
 10
2.465760
 20
2.476760
  0
SEQEND
  8
0
  0
SOLID
  8
0
 62
     7
 10
2.482920
 20
2.461800
 11
3.128400
 21
2.836240
 12
2.506680
 22
2.450360
 13
3.151720
 23
2.825240
  0
POLYLINE
  8
0
  6
CONTINUOUS
 66
     1
 40
0.000000
 41
0.000000
  0
VERTEX
  8
0
  6
CONTINUOUS
 10
2.482920
 20
2.461800
  0
VERTEX
  8
0
  6
CONTINUOUS
 10
3.128400
 20
2.836240
  0
VERTEX
  8
0
  6
CONTINUOUS
 10
3.151720
 20
2.825240
  0
VERTEX
  8
0
  6
CONTINUOUS
 10
2.506680
 20
2.450360
  0
VERTEX
  8
0
  6
CONTINUOUS
 10
2.482920
 20
2.461800
  0
SEQEND
  8
0
  0
SOLID
  8
0
 62
     7
 10
2.506680
 20
2.450360
 11
3.151720
 21
2.825240
 12
2.535720
 22
2.442880
 13
3.180760
 23
2.817760
  0
POLYLINE
  8
0
  6
CONTINUOUS
 66
     1
 40
0.000000
 41
0.000000
  0
VERTEX
  8
0
  6
CONTINUOUS
 10
2.506680
 20
2.450360
  0
VERTEX
  8
0
  6
CONTINUOUS
 10
3.151720
 20
2.825240
  0
VERTEX
  8
0
  6
CONTINUOUS
 10
3.180760
 20
2.817760
  0
VERTEX
  8
0
  6
CONTINUOUS
 10
2.535720
 20
2.442880
  0
VERTEX
  8
0
  6
CONTINUOUS
 10
2.506680
 20
2.450360
  0
SEQEND
  8
0
  0
SOLID
  8
0
 62
    15
 10
2.535720
 20
2.442880
 11
3.180760
 21
2.817760
 12
2.568280
 22
2.439360
 13
3.213760
 23
2.814240
  0
POLYLINE
  8
0
  6
CONTINUOUS
 66
     1
 40
0.000000
 41
0.000000
  0
VERTEX
  8
0
  6
CONTINUOUS
 10
2.535720
 20
2.442880
  0
VERTEX
  8
0
  6
CONTINUOUS
 10
3.180760
 20
2.817760
  0
VERTEX
  8
0
  6
CONTINUOUS
 10
3.213760
 20
2.814240
  0
VERTEX
  8
0
  6
CONTINUOUS
 10
2.568280
 20
2.439360
  0
VERTEX
  8
0
  6
CONTINUOUS
 10
2.535720
 20
2.442880
  0
SEQEND
  8
0
  0
SOLID
  8
0
 62
    15
 10
2.568280
 20
2.439360
 11
3.213760
 21
2.814240
 12
2.623280
 22
2.439360
 13
3.268320
 23
2.814240
  0
POLYLINE
  8
0
  6
CONTINUOUS
 66
     1
 40
0.000000
 41
0.000000
  0
VERTEX
  8
0
  6
CONTINUOUS
 10
2.568280
 20
2.439360
  0
VERTEX
  8
0
  6
CONTINUOUS
 10
3.213760
 20
2.814240
  0
VERTEX
  8
0
  6
CONTINUOUS
 10
3.268320
 20
2.814240
  0
VERTEX
  8
0
  6
CONTINUOUS
 10
2.623280
 20
2.439360
  0
VERTEX
  8
0
  6
CONTINUOUS
 10
2.568280
 20
2.439360
  0
SEQEND
  8
0
  0
SOLID
  8
0
 62
    15
 10
2.623280
 20
2.439360
 11
3.268320
 21
2.814240
 12
2.645720
 22
2.436280
 13
3.290760
 23
2.811160
  0
POLYLINE
  8
0
  6
CONTINUOUS
 66
     1
 40
0.000000
 41
0.000000
  0
VERTEX
  8
0
  6
CONTINUOUS
 10
2.623280
 20
2.439360
  0
VERTEX
  8
0
  6
CONTINUOUS
 10
3.268320
 20
2.814240
  0
VERTEX
  8
0
  6
CONTINUOUS
 10
3.290760
 20
2.811160
  0
VERTEX
  8
0
  6
CONTINUOUS
 10
2.645720
 20
2.436280
  0
VERTEX
  8
0
  6
CONTINUOUS
 10
2.623280
 20
2.439360
  0
SEQEND
  8
0
  0
SOLID
  8
0
 62
     7
 10
2.645720
 20
2.436280
 11
3.290760
 21
2.811160
 12
2.664200
 22
2.427480
 13
3.309680
 23
2.802360
  0
POLYLINE
  8
0
  6
CONTINUOUS
 66
     1
 40
0.000000
 41
0.000000
  0
VERTEX
  8
0
  6
CONTINUOUS
 10
2.645720
 20
2.436280
  0
VERTEX
  8
0
  6
CONTINUOUS
 10
3.290760
 20
2.811160
  0
VERTEX
  8
0
  6
CONTINUOUS
 10
3.309680
 20
2.802360
  0
VERTEX
  8
0
  6
CONTINUOUS
 10
2.664200
 20
2.427480
  0
VERTEX
  8
0
  6
CONTINUOUS
 10
2.645720
 20
2.436280
  0
SEQEND
  8
0
  0
SOLID
  8
0
 62
     7
 10
2.664200
 20
2.427480
 11
3.309680
 21
2.802360
 12
2.691480
 22
2.398440
 13
3.336520
 23
2.773320
  0
POLYLINE
  8
0
  6
CONTINUOUS
 66
     1
 40
0.000000
 41
0.000000
  0
VERTEX
  8
0
  6
CONTINUOUS
 10
2.664200
 20
2.427480
  0
VERTEX
  8
0
  6
CONTINUOUS
 10
3.309680
 20
2.802360
  0
VERTEX
  8
0
  6
CONTINUOUS
 10
3.336520
 20
2.773320
  0
VERTEX
  8
0
  6
CONTINUOUS
 10
2.691480
 20
2.398440
  0
VERTEX
  8
0
  6
CONTINUOUS
 10
2.664200
 20
2.427480
  0
SEQEND
  8
0
  0
SOLID
  8
0
 62
     7
 10
2.691480
 20
2.398440
 11
3.336520
 21
2.773320
 12
2.706000
 22
2.362800
 13
3.351040
 23
2.737680
  0
POLYLINE
  8
0
  6
CONTINUOUS
 66
     1
 40
0.000000
 41
0.000000
  0
VERTEX
  8
0
  6
CONTINUOUS
 10
2.691480
 20
2.398440
  0
VERTEX
  8
0
  6
CONTINUOUS
 10
3.336520
 20
2.773320
  0
VERTEX
  8
0
  6
CONTINUOUS
 10
3.351040
 20
2.737680
  0
VERTEX
  8
0
  6
CONTINUOUS
 10
2.706000
 20
2.362800
  0
VERTEX
  8
0
  6
CONTINUOUS
 10
2.691480
 20
2.398440
  0
SEQEND
  8
0
  0
SOLID
  8
0
 62
    15
 10
2.706000
 20
2.362800
 11
3.351040
 21
2.737680
 12
2.709960
 22
2.329800
 13
3.355000
 23
2.704680
  0
POLYLINE
  8
0
  6
CONTINUOUS
 66
     1
 40
0.000000
 41
0.000000
  0
VERTEX
  8
0
  6
CONTINUOUS
 10
2.706000
 20
2.362800
  0
VERTEX
  8
0
  6
CONTINUOUS
 10
3.351040
 20
2.737680
  0
VERTEX
  8
0
  6
CONTINUOUS
 10
3.355000
 20
2.704680
  0
VERTEX
  8
0
  6
CONTINUOUS
 10
2.709960
 20
2.329800
  0
VERTEX
  8
0
  6
CONTINUOUS
 10
2.706000
 20
2.362800
  0
SEQEND
  8
0
  0
SOLID
  8
0
 62
    15
 10
2.709960
 20
2.329800
 11
3.355000
 21
2.704680
 12
2.709960
 22
1.998040
 13
3.355000
 23
2.372920
  0
POLYLINE
  8
0
  6
CONTINUOUS
 66
     1
 40
0.000000
 41
0.000000
  0
VERTEX
  8
0
  6
CONTINUOUS
 10
2.709960
 20
2.329800
  0
VERTEX
  8
0
  6
CONTINUOUS
 10
3.355000
 20
2.704680
  0
VERTEX
  8
0
  6
CONTINUOUS
 10
3.355000
 20
2.372920
  0
VERTEX
  8
0
  6
CONTINUOUS
 10
2.709960
 20
1.998040
  0
VERTEX
  8
0
  6
CONTINUOUS
 10
2.709960
 20
2.329800
  0
SEQEND
  8
0
  0
SOLID
  8
0
 62
    15
 10
1.774960
 20
3.471160
 11
2.420440
 21
3.846040
 12
1.949640
 22
3.471160
 13
2.595120
 23
3.846040
  0
POLYLINE
  8
0
  6
CONTINUOUS
 66
     1
 40
0.000000
 41
0.000000
  0
VERTEX
  8
0
  6
CONTINUOUS
 10
1.774960
 20
3.471160
  0
VERTEX
  8
0
  6
CONTINUOUS
 10
2.420440
 20
3.846040
  0
VERTEX
  8
0
  6
CONTINUOUS
 10
2.595120
 20
3.846040
  0
VERTEX
  8
0
  6
CONTINUOUS
 10
1.949640
 20
3.471160
  0
VERTEX
  8
0
  6
CONTINUOUS
 10
1.774960
 20
3.471160
  0
SEQEND
  8
0
  0
POLYLINE
  8
0
  6
CONTINUOUS
 66
     1
 40
0.000000
 41
0.000000
  0
VERTEX
  8
0
  6
CONTINUOUS
 10
1.774960
 20
3.456640
  0
VERTEX
  8
0
  6
CONTINUOUS
 10
1.774960
 20
3.471160
  0
VERTEX
  8
0
  6
CONTINUOUS
 10
1.949640
 20
3.471160
  0
VERTEX
  8
0
  6
CONTINUOUS
 10
1.949640
 20
3.328600
  0
VERTEX
  8
0
  6
CONTINUOUS
 10
1.965920
 20
3.315400
  0
VERTEX
  8
0
  6
CONTINUOUS
 10
1.995840
 20
3.314520
  0
VERTEX
  8
0
  6
CONTINUOUS
 10
2.020480
 20
3.310560
  0
VERTEX
  8
0
  6
CONTINUOUS
 10
2.040720
 20
3.304400
  0
VERTEX
  8
0
  6
CONTINUOUS
 10
2.056560
 20
3.295600
  0
VERTEX
  8
0
  6
CONTINUOUS
 10
2.076800
 20
3.274040
  0
VERTEX
  8
0
  6
CONTINUOUS
 10
2.082960
 20
3.248960
  0
VERTEX
  8
0
  6
CONTINUOUS
 10
2.076360
 20
3.223880
  0
VERTEX
  8
0
  6
CONTINUOUS
 10
2.058760
 20
3.202320
  0
VERTEX
  8
0
  6
CONTINUOUS
 10
2.031040
 20
3.186920
  0
VERTEX
  8
0
  6
CONTINUOUS
 10
1.994960
 20
3.182080
  0
VERTEX
  8
0
  6
CONTINUOUS
 10
1.976040
 20
3.165360
  0
VERTEX
  8
0
  6
CONTINUOUS
 10
1.966360
 20
3.148200
  0
VERTEX
  8
0
  6
CONTINUOUS
 10
1.965040
 20
3.130600
  0
VERTEX
  8
0
  6
CONTINUOUS
 10
1.972080
 20
3.113880
  0
VERTEX
  8
0
  6
CONTINUOUS
 10
1.986160
 20
3.097600
  0
VERTEX
  8
0
  6
CONTINUOUS
 10
2.007720
 20
3.082640
  0
VERTEX
  8
0
  6
CONTINUOUS
 10
2.035880
 20
3.069880
  0
VERTEX
  8
0
  6
CONTINUOUS
 10
2.069760
 20
3.059320
  0
VERTEX
  8
0
  6
CONTINUOUS
 10
2.107600
 20
3.053600
  0
VERTEX
  8
0
  6
CONTINUOUS
 10
2.156000
 20
3.042600
  0
VERTEX
  8
0
  6
CONTINUOUS
 10
2.212320
 20
3.026760
  0
VERTEX
  8
0
  6
CONTINUOUS
 10
2.273480
 20
3.006960
  0
VERTEX
  8
0
  6
CONTINUOUS
 10
2.401960
 20
2.955480
  0
VERTEX
  8
0
  6
CONTINUOUS
 10
2.464000
 20
2.925120
  0
VERTEX
  8
0
  6
CONTINUOUS
 10
2.520760
 20
2.891680
  0
VERTEX
  8
0
  6
CONTINUOUS
 10
2.570040
 20
2.856040
  0
VERTEX
  8
0
  6
CONTINUOUS
 10
2.608760
 20
2.818640
  0
VERTEX
  8
0
  6
CONTINUOUS
 10
2.634720
 20
2.779480
  0
VERTEX
  8
0
  6
CONTINUOUS
 10
2.645280
 20
2.739000
  0
VERTEX
  8
0
  6
CONTINUOUS
 10
2.643960
 20
2.718760
  0
VERTEX
  8
0
  6
CONTINUOUS
 10
2.637800
 20
2.698080
  0
VERTEX
  8
0
  6
CONTINUOUS
 10
2.626800
 20
2.677400
  0
VERTEX
  8
0
  6
CONTINUOUS
 10
2.610080
 20
2.656720
  0
VERTEX
  8
0
  6
CONTINUOUS
 10
2.587640
 20
2.635600
  0
VERTEX
  8
0
  6
CONTINUOUS
 10
2.558600
 20
2.614920
  0
VERTEX
  8
0
  6
CONTINUOUS
 10
2.523840
 20
2.594680
  0
VERTEX
  8
0
  6
CONTINUOUS
 10
2.481600
 20
2.574000
  0
VERTEX
  8
0
  6
CONTINUOUS
 10
2.462680
 20
2.544080
  0
VERTEX
  8
0
  6
CONTINUOUS
 10
2.454320
 20
2.518120
  0
VERTEX
  8
0
  6
CONTINUOUS
 10
2.455640
 20
2.495680
  0
VERTEX
  8
0
  6
CONTINUOUS
 10
2.465760
 20
2.476760
  0
VERTEX
  8
0
  6
CONTINUOUS
 10
2.482920
 20
2.461800
  0
VERTEX
  8
0
  6
CONTINUOUS
 10
2.506680
 20
2.450360
  0
VERTEX
  8
0
  6
CONTINUOUS
 10
2.535720
 20
2.442880
  0
VERTEX
  8
0
  6
CONTINUOUS
 10
2.568280
 20
2.439360
  0
VERTEX
  8
0
  6
CONTINUOUS
 10
2.623280
 20
2.439360
  0
VERTEX
  8
0
  6
CONTINUOUS
 10
2.645720
 20
2.436280
  0
VERTEX
  8
0
  6
CONTINUOUS
 10
2.664200
 20
2.427480
  0
VERTEX
  8
0
  6
CONTINUOUS
 10
2.691480
 20
2.398440
  0
VERTEX
  8
0
  6
CONTINUOUS
 10
2.706000
 20
2.362800
  0
VERTEX
  8
0
  6
CONTINUOUS
 10
2.709960
 20
2.329800
  0
VERTEX
  8
0
  6
CONTINUOUS
 10
2.709960
 20
1.998040
  0
VERTEX
  8
0
  6
CONTINUOUS
 10
1.774960
 20
1.998040
  0
VERTEX
  8
0
  6
CONTINUOUS
 10
1.774960
 20
3.464560
  0
VERTEX
  8
0
  6
CONTINUOUS
 10
1.774960
 20
3.456640
  0
SEQEND
  8
0
  0
TEXT
  8
0
 10
2.267760
 20
1.761320
 40
0.138197
  1
BA  124
 41
1.000000
  7
SN0
 71
     0
 72
     5
 11
2.857796
 21
1.761320
  0
TEXT
  8
0
 10
1.973400
 20
1.569480
 40
0.138197
  1
15/16" x 1-7/16"
 41
1.000000
  7
SN0
 71
     0
 72
     5
 11
3.150606
 21
1.569480
  0
ENDSEC
  0
EOF
