  0
SECTION
  2
HEADER
  9
$ACADVER
  1
AC1006
  9
$EXTMIN
 10
2.325400
 20
0.353760
  9
$EXTMAX
 10
8.194120
 20
10.600040
  9
$LTSCALE
 40
0.044000
  9
$PDMODE
 70
    35
  9
$PDSIZE
 40
0.035200
  0
ENDSEC
  0
SECTION
  2
TABLES
  0
TABLE
  2
LTYPE
 70
     9
  0
LTYPE
  2
CONTINUOUS
 70
    64
  3
Solid line
 72
    65
 73
     0
 40
0.000000
  0
LTYPE
  2
DASHED
 70
    64
  3
__ __ __ __ __ __ __ __ __ __ __ __ __ __ __
 72
    65
 73
     2
 40
0.000330
 49
0.000220
 49
-0.000110
  0
LTYPE
  2
HIDDEN
 70
    64
  3
 _ _ _ _ _ _ _ _ _ _ _ _ _ _ _ _ _ _ _ _ _ _
 72
    65
 73
     2
 40
0.000165
 49
0.000110
 49
-0.000055
  0
LTYPE
  2
CENTER
 70
    64
  3
____ _ ____ _ ____ _ ____ _ ____ _ ____ _ ____
 72
    65
 73
     4
 40
0.000880
 49
0.000550
 49
-0.000110
 49
0.000110
 49
-0.000110
  0
LTYPE
  2
PHANTOM
 70
    64
  3
_____ _ _ _____ _ _ _____ _ _ _____ _ _ ____
 72
    65
 73
     6
 40
0.001100
 49
0.000550
 49
-0.000110
 49
0.000110
 49
-0.000110
 49
0.000110
 49
-0.000110
  0
LTYPE
  2
DOT
 70
    64
  3
...............................................
 72
    65
 73
     2
 40
0.000110
 49
0.000000
 49
-0.000110
  0
LTYPE
  2
DASHDOT
 70
    64
  3
__ . __ . __ . __ . __ . __ . __ . __ . __ . __
 72
    65
 73
     4
 40
0.000440
 49
0.000220
 49
-0.000110
 49
0.000000
 49
-0.000110
  0
LTYPE
  2
BORDER
 70
    64
  3
__ __ . __ __ . __ __ . __ __ . __ __ . __ __
 72
    65
 73
     6
 40
0.000770
 49
0.000220
 49
-0.000110
 49
0.000220
 49
-0.000110
 49
0.000000
 49
-0.000110
  0
LTYPE
  2
DIVIDE
 70
    64
  3
__ . . __ . . __ . . __ . . __ . . __ . . __
 72
    65
 73
     6
 40
0.000550
 49
0.000220
 49
-0.000110
 49
0.000000
 49
-0.000110
 49
0.000000
 49
-0.000110
  0
LTYPE
  2
DOTDOT
 70
    64
  3
 . .  . .  . .  . .  . .  . . 
 72
    65
 73
     5
 40
0.000242
 49
-0.000110
 49
0.000000
 49
-0.000110
 49
0.000000
 49
-0.000110
  0
ENDTAB
  0
TABLE
  2
STYLE
 70
     2
  0
STYLE
 70
     0
  2
SN0
 40
0.000000
 41
0.000440
 50
0.000000
 71
     0
 42
0.000000
  3
ROMAND
  0
STYLE
 70
    68
  2
SV0
 40
0.000000
 41
0.000440
 50
0.000000
 71
     0
 42
0.000000
  3
ROMAND
  0
ENDTAB
  0
TABLE
  2
LAYER
 70
     3
  0
LAYER
  2
FOREGROUND
 70
    64
 62
     7
  6
CONTINUOUS
  0
LAYER
  2
BACKGROUND
 70
    65
 62
    -7
  6
CONTINUOUS
  0
LAYER
  2
0
 70
    64
 62
     7
  6
CONTINUOUS
  0
ENDTAB
  0
ENDSEC
  0
SECTION
  2
ENTITIES
  0
POLYLINE
  8
FOREGROUND
  6
CONTINUOUS
 66
     1
 40
0.000000
 41
0.000000
  0
VERTEX
  8
FOREGROUND
  6
CONTINUOUS
 10
0.000000
 20
10.953800
  0
VERTEX
  8
FOREGROUND
  6
CONTINUOUS
 10
8.499920
 20
10.953800
  0
VERTEX
  8
FOREGROUND
  6
CONTINUOUS
 10
8.499920
 20
-0.046200
  0
VERTEX
  8
FOREGROUND
  6
CONTINUOUS
 10
0.000000
 20
-0.046200
  0
VERTEX
  8
FOREGROUND
  6
CONTINUOUS
 10
0.000000
 20
10.953800
  0
SEQEND
  8
0
  0
POLYLINE
  8
FOREGROUND
  6
CONTINUOUS
 66
     1
 40
0.000000
 41
0.000000
  0
VERTEX
  8
FOREGROUND
  6
CONTINUOUS
 10
0.000000
 20
10.953800
  0
VERTEX
  8
FOREGROUND
  6
CONTINUOUS
 10
8.499920
 20
10.953800
  0
VERTEX
  8
FOREGROUND
  6
CONTINUOUS
 10
8.499920
 20
-0.046200
  0
VERTEX
  8
FOREGROUND
  6
CONTINUOUS
 10
0.000000
 20
-0.046200
  0
VERTEX
  8
FOREGROUND
  6
CONTINUOUS
 10
0.000000
 20
10.953800
  0
SEQEND
  8
0
  0
POLYLINE
  8
0
  6
CONTINUOUS
 66
     1
 40
0.013200
 41
0.013200
  0
VERTEX
  8
0
  6
CONTINUOUS
 10
2.325840
 20
9.412480
  0
VERTEX
  8
0
  6
CONTINUOUS
 10
2.353120
 20
9.415560
  0
VERTEX
  8
0
  6
CONTINUOUS
 10
2.401080
 20
9.425240
  0
VERTEX
  8
0
  6
CONTINUOUS
 10
2.442440
 20
9.438880
  0
VERTEX
  8
0
  6
CONTINUOUS
 10
2.477640
 20
9.456040
  0
VERTEX
  8
0
  6
CONTINUOUS
 10
2.508000
 20
9.475400
  0
VERTEX
  8
0
  6
CONTINUOUS
 10
2.547160
 20
9.508840
  0
VERTEX
  8
0
  6
CONTINUOUS
 10
2.630760
 20
9.594200
  0
VERTEX
  8
0
  6
CONTINUOUS
 10
2.672560
 20
9.629400
  0
VERTEX
  8
0
  6
CONTINUOUS
 10
2.705560
 20
9.650960
  0
VERTEX
  8
0
  6
CONTINUOUS
 10
2.744280
 20
9.670320
  0
VERTEX
  8
0
  6
CONTINUOUS
 10
2.789160
 20
9.687040
  0
VERTEX
  8
0
  6
CONTINUOUS
 10
2.842400
 20
9.700680
  0
VERTEX
  8
0
  6
CONTINUOUS
 10
2.904440
 20
9.709920
  0
VERTEX
  8
0
  6
CONTINUOUS
 10
2.960760
 20
9.703760
  0
VERTEX
  8
0
  6
CONTINUOUS
 10
3.009600
 20
9.694520
  0
VERTEX
  8
0
  6
CONTINUOUS
 10
3.052720
 20
9.682640
  0
VERTEX
  8
0
  6
CONTINUOUS
 10
3.090120
 20
9.668560
  0
VERTEX
  8
0
  6
CONTINUOUS
 10
3.132800
 20
9.647000
  0
VERTEX
  8
0
  6
CONTINUOUS
 10
3.169320
 20
9.622360
  0
VERTEX
  8
0
  6
CONTINUOUS
 10
3.201440
 20
9.595960
  0
VERTEX
  8
0
  6
CONTINUOUS
 10
3.290760
 20
9.512800
  0
VERTEX
  8
0
  6
CONTINUOUS
 10
3.324200
 20
9.486400
  0
VERTEX
  8
0
  6
CONTINUOUS
 10
3.362920
 20
9.461760
  0
VERTEX
  8
0
  6
CONTINUOUS
 10
3.409120
 20
9.439760
  0
VERTEX
  8
0
  6
CONTINUOUS
 10
3.449160
 20
9.425680
  0
VERTEX
  8
0
  6
CONTINUOUS
 10
3.495360
 20
9.413360
  0
VERTEX
  8
0
  6
CONTINUOUS
 10
3.548160
 20
9.404120
  0
VERTEX
  8
0
  6
CONTINUOUS
 10
3.608440
 20
9.397520
  0
VERTEX
  8
0
  6
CONTINUOUS
 10
3.677080
 20
9.394440
  0
VERTEX
  8
0
  6
CONTINUOUS
 10
3.704800
 20
9.394000
  0
VERTEX
  8
0
  6
CONTINUOUS
 10
3.704800
 20
9.307320
  0
VERTEX
  8
0
  6
CONTINUOUS
 10
5.326200
 20
9.307320
  0
VERTEX
  8
0
  6
CONTINUOUS
 10
5.326200
 20
9.192480
  0
VERTEX
  8
0
  6
CONTINUOUS
 10
5.373280
 20
9.185000
  0
VERTEX
  8
0
  6
CONTINUOUS
 10
5.418600
 20
9.173120
  0
VERTEX
  8
0
  6
CONTINUOUS
 10
5.461280
 20
9.156840
  0
VERTEX
  8
0
  6
CONTINUOUS
 10
5.501760
 20
9.137040
  0
VERTEX
  8
0
  6
CONTINUOUS
 10
5.539600
 20
9.113280
  0
VERTEX
  8
0
  6
CONTINUOUS
 10
5.574800
 20
9.086440
  0
VERTEX
  8
0
  6
CONTINUOUS
 10
5.607360
 20
9.056520
  0
VERTEX
  8
0
  6
CONTINUOUS
 10
5.636840
 20
9.023960
  0
VERTEX
  8
0
  6
CONTINUOUS
 10
5.674680
 20
8.971160
  0
VERTEX
  8
0
  6
CONTINUOUS
 10
5.695800
 20
8.933320
  0
VERTEX
  8
0
  6
CONTINUOUS
 10
5.713400
 20
8.894160
  0
VERTEX
  8
0
  6
CONTINUOUS
 10
5.727480
 20
8.854120
  0
VERTEX
  8
0
  6
CONTINUOUS
 10
5.737600
 20
8.812760
  0
VERTEX
  8
0
  6
CONTINUOUS
 10
5.743320
 20
8.771400
  0
VERTEX
  8
0
  6
CONTINUOUS
 10
5.745520
 20
8.729600
  0
VERTEX
  8
0
  6
CONTINUOUS
 10
5.744640
 20
8.708480
  0
VERTEX
  8
0
  6
CONTINUOUS
 10
5.745960
 20
8.705840
  0
VERTEX
  8
0
  6
CONTINUOUS
 10
2.325840
 20
8.705840
  0
VERTEX
  8
0
  6
CONTINUOUS
 10
2.325840
 20
9.412480
  0
SEQEND
  8
0
  0
POLYLINE
  8
0
  6
CONTINUOUS
 66
     1
 40
0.014080
 41
0.014080
  0
VERTEX
  8
0
  6
CONTINUOUS
 10
5.113240
 20
0.828960
  0
VERTEX
  8
0
  6
CONTINUOUS
 10
5.118080
 20
0.875160
  0
VERTEX
  8
0
  6
CONTINUOUS
 10
5.126000
 20
0.918280
  0
VERTEX
  8
0
  6
CONTINUOUS
 10
5.136120
 20
0.957880
  0
VERTEX
  8
0
  6
CONTINUOUS
 10
5.155920
 20
1.011560
  0
VERTEX
  8
0
  6
CONTINUOUS
 10
5.180560
 20
1.058200
  0
VERTEX
  8
0
  6
CONTINUOUS
 10
5.209600
 20
1.098240
  0
VERTEX
  8
0
  6
CONTINUOUS
 10
5.242160
 20
1.131680
  0
VERTEX
  8
0
  6
CONTINUOUS
 10
5.277360
 20
1.159400
  0
VERTEX
  8
0
  6
CONTINUOUS
 10
5.315640
 20
1.180960
  0
VERTEX
  8
0
  6
CONTINUOUS
 10
5.342480
 20
1.192400
  0
VERTEX
  8
0
  6
CONTINUOUS
 10
5.369760
 20
1.201640
  0
VERTEX
  8
0
  6
CONTINUOUS
 10
5.397480
 20
1.208680
  0
VERTEX
  8
0
  6
CONTINUOUS
 10
5.425640
 20
1.213080
  0
VERTEX
  8
0
  6
CONTINUOUS
 10
5.454240
 20
1.215720
  0
VERTEX
  8
0
  6
CONTINUOUS
 10
5.482840
 20
1.216160
  0
VERTEX
  8
0
  6
CONTINUOUS
 10
5.511000
 20
1.214840
  0
VERTEX
  8
0
  6
CONTINUOUS
 10
5.539160
 20
1.211760
  0
VERTEX
  8
0
  6
CONTINUOUS
 10
5.594160
 20
1.199880
  0
VERTEX
  8
0
  6
CONTINUOUS
 10
5.646080
 20
1.181840
  0
VERTEX
  8
0
  6
CONTINUOUS
 10
5.693160
 20
1.158080
  0
VERTEX
  8
0
  6
CONTINUOUS
 10
5.715160
 20
1.144000
  0
VERTEX
  8
0
  6
CONTINUOUS
 10
5.734960
 20
1.129040
  0
VERTEX
  8
0
  6
CONTINUOUS
 10
5.753440
 20
1.112760
  0
VERTEX
  8
0
  6
CONTINUOUS
 10
5.769720
 20
1.095600
  0
VERTEX
  8
0
  6
CONTINUOUS
 10
5.790400
 20
1.068320
  0
VERTEX
  8
0
  6
CONTINUOUS
 10
5.811520
 20
1.034000
  0
VERTEX
  8
0
  6
CONTINUOUS
 10
5.839240
 20
1.001440
  0
VERTEX
  8
0
  6
CONTINUOUS
 10
5.871360
 20
0.974600
  0
VERTEX
  8
0
  6
CONTINUOUS
 10
5.894680
 20
0.959200
  0
VERTEX
  8
0
  6
CONTINUOUS
 10
5.918880
 20
0.946000
  0
VERTEX
  8
0
  6
CONTINUOUS
 10
5.943960
 20
0.935000
  0
VERTEX
  8
0
  6
CONTINUOUS
 10
5.969480
 20
0.925760
  0
VERTEX
  8
0
  6
CONTINUOUS
 10
6.020960
 20
0.912560
  0
VERTEX
  8
0
  6
CONTINUOUS
 10
6.046040
 20
0.908160
  0
VERTEX
  8
0
  6
CONTINUOUS
 10
6.093120
 20
0.904200
  0
VERTEX
  8
0
  6
CONTINUOUS
 10
6.114680
 20
0.904200
  0
VERTEX
  8
0
  6
CONTINUOUS
 10
6.152080
 20
0.907720
  0
VERTEX
  8
0
  6
CONTINUOUS
 10
6.153400
 20
0.903760
  0
VERTEX
  8
0
  6
CONTINUOUS
 10
6.153400
 20
0.846560
  0
VERTEX
  8
0
  6
CONTINUOUS
 10
7.789320
 20
0.846560
  0
VERTEX
  8
0
  6
CONTINUOUS
 10
7.789320
 20
0.823680
  0
VERTEX
  8
0
  6
CONTINUOUS
 10
7.822320
 20
0.821920
  0
VERTEX
  8
0
  6
CONTINUOUS
 10
7.868520
 20
0.815760
  0
VERTEX
  8
0
  6
CONTINUOUS
 10
7.911200
 20
0.805640
  0
VERTEX
  8
0
  6
CONTINUOUS
 10
7.951680
 20
0.792000
  0
VERTEX
  8
0
  6
CONTINUOUS
 10
7.989080
 20
0.774840
  0
VERTEX
  8
0
  6
CONTINUOUS
 10
8.023400
 20
0.753720
  0
VERTEX
  8
0
  6
CONTINUOUS
 10
8.054640
 20
0.729960
  0
VERTEX
  8
0
  6
CONTINUOUS
 10
8.082800
 20
0.702680
  0
VERTEX
  8
0
  6
CONTINUOUS
 10
8.107880
 20
0.672320
  0
VERTEX
  8
0
  6
CONTINUOUS
 10
8.129880
 20
0.639320
  0
VERTEX
  8
0
  6
CONTINUOUS
 10
8.147920
 20
0.603240
  0
VERTEX
  8
0
  6
CONTINUOUS
 10
8.162880
 20
0.564960
  0
VERTEX
  8
0
  6
CONTINUOUS
 10
8.174320
 20
0.524040
  0
VERTEX
  8
0
  6
CONTINUOUS
 10
8.182240
 20
0.480920
  0
VERTEX
  8
0
  6
CONTINUOUS
 10
8.186200
 20
0.435600
  0
VERTEX
  8
0
  6
CONTINUOUS
 10
8.186640
 20
0.388080
  0
VERTEX
  8
0
  6
CONTINUOUS
 10
8.185320
 20
0.363880
  0
VERTEX
  8
0
  6
CONTINUOUS
 10
8.184000
 20
0.361240
  0
VERTEX
  8
0
  6
CONTINUOUS
 10
5.013360
 20
0.361240
  0
VERTEX
  8
0
  6
CONTINUOUS
 10
5.013360
 20
0.822360
  0
VERTEX
  8
0
  6
CONTINUOUS
 10
5.114560
 20
0.822360
  0
VERTEX
  8
0
  6
CONTINUOUS
 10
5.113240
 20
0.828960
  0
SEQEND
  8
0
  0
TEXT
  8
0
 10
6.879400
 20
0.603240
 40
0.138074
  1
118
 41
1.000000
  7
SN0
 71
     0
 72
     5
 11
7.157587
 21
0.603240
  0
TEXT
  8
0
 10
6.520800
 20
0.411400
 40
0.138074
  1
7/8" x 3-3/16"
 41
1.000000
  7
SN0
 71
     0
 72
     5
 11
7.518275
 21
0.411400
  0
TEXT
  8
0
 10
7.784920
 20
10.449120
 40
0.138074
  1
case
 41
1.000000
  7
SN0
 71
     0
 72
     5
 11
8.137392
 21
10.449120
  0
TEXT
  8
0
 10
7.784920
 20
10.257280
 40
0.138074
  1
118
 41
1.000000
  7
SN0
 71
     0
 72
     5
 11
8.063107
 21
10.257280
  0
SOLID
  8
0
 62
     7
 10
3.478640
 20
3.282400
 11
3.474680
 21
2.622400
 12
3.542440
 22
3.336520
 13
3.538920
 23
2.676520
  0
POLYLINE
  8
0
  6
CONTINUOUS
 66
     1
 40
0.000000
 41
0.000000
  0
VERTEX
  8
0
  6
CONTINUOUS
 10
3.478640
 20
3.282400
  0
VERTEX
  8
0
  6
CONTINUOUS
 10
3.474680
 20
2.622400
  0
VERTEX
  8
0
  6
CONTINUOUS
 10
3.538920
 20
2.676520
  0
VERTEX
  8
0
  6
CONTINUOUS
 10
3.542440
 20
3.336520
  0
VERTEX
  8
0
  6
CONTINUOUS
 10
3.478640
 20
3.282400
  0
SEQEND
  8
0
  0
SOLID
  8
0
 62
    15
 10
2.596440
 20
3.401200
 11
2.592480
 21
2.741200
 12
2.640880
 22
3.389320
 13
2.636920
 23
2.729320
  0
POLYLINE
  8
0
  6
CONTINUOUS
 66
     1
 40
0.000000
 41
0.000000
  0
VERTEX
  8
0
  6
CONTINUOUS
 10
2.596440
 20
3.401200
  0
VERTEX
  8
0
  6
CONTINUOUS
 10
2.592480
 20
2.741200
  0
VERTEX
  8
0
  6
CONTINUOUS
 10
2.636920
 20
2.729320
  0
VERTEX
  8
0
  6
CONTINUOUS
 10
2.640880
 20
3.389320
  0
VERTEX
  8
0
  6
CONTINUOUS
 10
2.596440
 20
3.401200
  0
SEQEND
  8
0
  0
SOLID
  8
0
 62
    15
 10
2.640880
 20
3.389320
 11
2.636920
 21
2.729320
 12
2.678720
 22
3.374360
 13
2.675200
 23
2.713920
  0
POLYLINE
  8
0
  6
CONTINUOUS
 66
     1
 40
0.000000
 41
0.000000
  0
VERTEX
  8
0
  6
CONTINUOUS
 10
2.640880
 20
3.389320
  0
VERTEX
  8
0
  6
CONTINUOUS
 10
2.636920
 20
2.729320
  0
VERTEX
  8
0
  6
CONTINUOUS
 10
2.675200
 20
2.713920
  0
VERTEX
  8
0
  6
CONTINUOUS
 10
2.678720
 20
3.374360
  0
VERTEX
  8
0
  6
CONTINUOUS
 10
2.640880
 20
3.389320
  0
SEQEND
  8
0
  0
SOLID
  8
0
 62
    15
 10
2.678720
 20
3.374360
 11
2.675200
 21
2.713920
 12
2.711280
 22
3.355880
 13
2.707760
 23
2.695880
  0
POLYLINE
  8
0
  6
CONTINUOUS
 66
     1
 40
0.000000
 41
0.000000
  0
VERTEX
  8
0
  6
CONTINUOUS
 10
2.678720
 20
3.374360
  0
VERTEX
  8
0
  6
CONTINUOUS
 10
2.675200
 20
2.713920
  0
VERTEX
  8
0
  6
CONTINUOUS
 10
2.707760
 20
2.695880
  0
VERTEX
  8
0
  6
CONTINUOUS
 10
2.711280
 20
3.355880
  0
VERTEX
  8
0
  6
CONTINUOUS
 10
2.678720
 20
3.374360
  0
SEQEND
  8
0
  0
SOLID
  8
0
 62
    15
 10
2.711280
 20
3.355880
 11
2.707760
 21
2.695880
 12
2.765400
 22
3.312760
 13
2.761880
 23
2.652760
  0
POLYLINE
  8
0
  6
CONTINUOUS
 66
     1
 40
0.000000
 41
0.000000
  0
VERTEX
  8
0
  6
CONTINUOUS
 10
2.711280
 20
3.355880
  0
VERTEX
  8
0
  6
CONTINUOUS
 10
2.707760
 20
2.695880
  0
VERTEX
  8
0
  6
CONTINUOUS
 10
2.761880
 20
2.652760
  0
VERTEX
  8
0
  6
CONTINUOUS
 10
2.765400
 20
3.312760
  0
VERTEX
  8
0
  6
CONTINUOUS
 10
2.711280
 20
3.355880
  0
SEQEND
  8
0
  0
SOLID
  8
0
 62
    15
 10
2.765400
 20
3.312760
 11
2.761880
 21
2.652760
 12
2.812480
 22
3.264360
 13
2.808960
 23
2.604360
  0
POLYLINE
  8
0
  6
CONTINUOUS
 66
     1
 40
0.000000
 41
0.000000
  0
VERTEX
  8
0
  6
CONTINUOUS
 10
2.765400
 20
3.312760
  0
VERTEX
  8
0
  6
CONTINUOUS
 10
2.761880
 20
2.652760
  0
VERTEX
  8
0
  6
CONTINUOUS
 10
2.808960
 20
2.604360
  0
VERTEX
  8
0
  6
CONTINUOUS
 10
2.812480
 20
3.264360
  0
VERTEX
  8
0
  6
CONTINUOUS
 10
2.765400
 20
3.312760
  0
SEQEND
  8
0
  0
SOLID
  8
0
 62
    15
 10
2.812480
 20
3.264360
 11
2.808960
 21
2.604360
 12
2.862200
 22
3.215520
 13
2.858680
 23
2.555520
  0
POLYLINE
  8
0
  6
CONTINUOUS
 66
     1
 40
0.000000
 41
0.000000
  0
VERTEX
  8
0
  6
CONTINUOUS
 10
2.812480
 20
3.264360
  0
VERTEX
  8
0
  6
CONTINUOUS
 10
2.808960
 20
2.604360
  0
VERTEX
  8
0
  6
CONTINUOUS
 10
2.858680
 20
2.555520
  0
VERTEX
  8
0
  6
CONTINUOUS
 10
2.862200
 20
3.215520
  0
VERTEX
  8
0
  6
CONTINUOUS
 10
2.812480
 20
3.264360
  0
SEQEND
  8
0
  0
SOLID
  8
0
 62
    15
 10
2.862200
 20
3.215520
 11
2.858680
 21
2.555520
 12
2.924240
 22
3.170640
 13
2.920720
 23
2.510640
  0
POLYLINE
  8
0
  6
CONTINUOUS
 66
     1
 40
0.000000
 41
0.000000
  0
VERTEX
  8
0
  6
CONTINUOUS
 10
2.862200
 20
3.215520
  0
VERTEX
  8
0
  6
CONTINUOUS
 10
2.858680
 20
2.555520
  0
VERTEX
  8
0
  6
CONTINUOUS
 10
2.920720
 20
2.510640
  0
VERTEX
  8
0
  6
CONTINUOUS
 10
2.924240
 20
3.170640
  0
VERTEX
  8
0
  6
CONTINUOUS
 10
2.862200
 20
3.215520
  0
SEQEND
  8
0
  0
SOLID
  8
0
 62
    15
 10
2.924240
 20
3.170640
 11
2.920720
 21
2.510640
 12
2.962960
 22
3.151280
 13
2.959000
 23
2.491280
  0
POLYLINE
  8
0
  6
CONTINUOUS
 66
     1
 40
0.000000
 41
0.000000
  0
VERTEX
  8
0
  6
CONTINUOUS
 10
2.924240
 20
3.170640
  0
VERTEX
  8
0
  6
CONTINUOUS
 10
2.920720
 20
2.510640
  0
VERTEX
  8
0
  6
CONTINUOUS
 10
2.959000
 20
2.491280
  0
VERTEX
  8
0
  6
CONTINUOUS
 10
2.962960
 20
3.151280
  0
VERTEX
  8
0
  6
CONTINUOUS
 10
2.924240
 20
3.170640
  0
SEQEND
  8
0
  0
SOLID
  8
0
 62
    15
 10
2.962960
 20
3.151280
 11
2.959000
 21
2.491280
 12
3.008280
 22
3.134560
 13
3.004320
 23
2.474560
  0
POLYLINE
  8
0
  6
CONTINUOUS
 66
     1
 40
0.000000
 41
0.000000
  0
VERTEX
  8
0
  6
CONTINUOUS
 10
2.962960
 20
3.151280
  0
VERTEX
  8
0
  6
CONTINUOUS
 10
2.959000
 20
2.491280
  0
VERTEX
  8
0
  6
CONTINUOUS
 10
3.004320
 20
2.474560
  0
VERTEX
  8
0
  6
CONTINUOUS
 10
3.008280
 20
3.134560
  0
VERTEX
  8
0
  6
CONTINUOUS
 10
2.962960
 20
3.151280
  0
SEQEND
  8
0
  0
SOLID
  8
0
 62
    15
 10
3.008280
 20
3.134560
 11
3.004320
 21
2.474560
 12
3.061080
 22
3.121360
 13
3.057560
 23
2.461360
  0
POLYLINE
  8
0
  6
CONTINUOUS
 66
     1
 40
0.000000
 41
0.000000
  0
VERTEX
  8
0
  6
CONTINUOUS
 10
3.008280
 20
3.134560
  0
VERTEX
  8
0
  6
CONTINUOUS
 10
3.004320
 20
2.474560
  0
VERTEX
  8
0
  6
CONTINUOUS
 10
3.057560
 20
2.461360
  0
VERTEX
  8
0
  6
CONTINUOUS
 10
3.061080
 20
3.121360
  0
VERTEX
  8
0
  6
CONTINUOUS
 10
3.008280
 20
3.134560
  0
SEQEND
  8
0
  0
SOLID
  8
0
 62
    15
 10
3.061080
 20
3.121360
 11
3.057560
 21
2.461360
 12
3.123120
 22
3.112120
 13
3.119600
 23
2.452120
  0
POLYLINE
  8
0
  6
CONTINUOUS
 66
     1
 40
0.000000
 41
0.000000
  0
VERTEX
  8
0
  6
CONTINUOUS
 10
3.061080
 20
3.121360
  0
VERTEX
  8
0
  6
CONTINUOUS
 10
3.057560
 20
2.461360
  0
VERTEX
  8
0
  6
CONTINUOUS
 10
3.119600
 20
2.452120
  0
VERTEX
  8
0
  6
CONTINUOUS
 10
3.123120
 20
3.112120
  0
VERTEX
  8
0
  6
CONTINUOUS
 10
3.061080
 20
3.121360
  0
SEQEND
  8
0
  0
SOLID
  8
0
 62
    15
 10
3.123120
 20
3.112120
 11
3.119600
 21
2.452120
 12
3.196600
 22
3.121360
 13
3.192640
 23
2.461360
  0
POLYLINE
  8
0
  6
CONTINUOUS
 66
     1
 40
0.000000
 41
0.000000
  0
VERTEX
  8
0
  6
CONTINUOUS
 10
3.123120
 20
3.112120
  0
VERTEX
  8
0
  6
CONTINUOUS
 10
3.119600
 20
2.452120
  0
VERTEX
  8
0
  6
CONTINUOUS
 10
3.192640
 20
2.461360
  0
VERTEX
  8
0
  6
CONTINUOUS
 10
3.196600
 20
3.121360
  0
VERTEX
  8
0
  6
CONTINUOUS
 10
3.123120
 20
3.112120
  0
SEQEND
  8
0
  0
SOLID
  8
0
 62
     7
 10
3.196600
 20
3.121360
 11
3.192640
 21
2.461360
 12
3.257760
 22
3.135440
 13
3.254240
 23
2.475440
  0
POLYLINE
  8
0
  6
CONTINUOUS
 66
     1
 40
0.000000
 41
0.000000
  0
VERTEX
  8
0
  6
CONTINUOUS
 10
3.196600
 20
3.121360
  0
VERTEX
  8
0
  6
CONTINUOUS
 10
3.192640
 20
2.461360
  0
VERTEX
  8
0
  6
CONTINUOUS
 10
3.254240
 20
2.475440
  0
VERTEX
  8
0
  6
CONTINUOUS
 10
3.257760
 20
3.135440
  0
VERTEX
  8
0
  6
CONTINUOUS
 10
3.196600
 20
3.121360
  0
SEQEND
  8
0
  0
SOLID
  8
0
 62
     7
 10
3.257760
 20
3.135440
 11
3.254240
 21
2.475440
 12
3.308800
 22
3.153920
 13
3.305280
 23
2.493920
  0
POLYLINE
  8
0
  6
CONTINUOUS
 66
     1
 40
0.000000
 41
0.000000
  0
VERTEX
  8
0
  6
CONTINUOUS
 10
3.257760
 20
3.135440
  0
VERTEX
  8
0
  6
CONTINUOUS
 10
3.254240
 20
2.475440
  0
VERTEX
  8
0
  6
CONTINUOUS
 10
3.305280
 20
2.493920
  0
VERTEX
  8
0
  6
CONTINUOUS
 10
3.308800
 20
3.153920
  0
VERTEX
  8
0
  6
CONTINUOUS
 10
3.257760
 20
3.135440
  0
SEQEND
  8
0
  0
SOLID
  8
0
 62
     7
 10
3.308800
 20
3.153920
 11
3.305280
 21
2.493920
 12
3.351480
 22
3.175480
 13
3.347960
 23
2.515480
  0
POLYLINE
  8
0
  6
CONTINUOUS
 66
     1
 40
0.000000
 41
0.000000
  0
VERTEX
  8
0
  6
CONTINUOUS
 10
3.308800
 20
3.153920
  0
VERTEX
  8
0
  6
CONTINUOUS
 10
3.305280
 20
2.493920
  0
VERTEX
  8
0
  6
CONTINUOUS
 10
3.347960
 20
2.515480
  0
VERTEX
  8
0
  6
CONTINUOUS
 10
3.351480
 20
3.175480
  0
VERTEX
  8
0
  6
CONTINUOUS
 10
3.308800
 20
3.153920
  0
SEQEND
  8
0
  0
SOLID
  8
0
 62
     7
 10
3.351480
 20
3.175480
 11
3.347960
 21
2.515480
 12
3.388000
 22
3.200120
 13
3.384480
 23
2.540120
  0
POLYLINE
  8
0
  6
CONTINUOUS
 66
     1
 40
0.000000
 41
0.000000
  0
VERTEX
  8
0
  6
CONTINUOUS
 10
3.351480
 20
3.175480
  0
VERTEX
  8
0
  6
CONTINUOUS
 10
3.347960
 20
2.515480
  0
VERTEX
  8
0
  6
CONTINUOUS
 10
3.384480
 20
2.540120
  0
VERTEX
  8
0
  6
CONTINUOUS
 10
3.388000
 20
3.200120
  0
VERTEX
  8
0
  6
CONTINUOUS
 10
3.351480
 20
3.175480
  0
SEQEND
  8
0
  0
SOLID
  8
0
 62
     7
 10
3.388000
 20
3.200120
 11
3.384480
 21
2.540120
 12
3.420120
 22
3.226520
 13
3.416160
 23
2.566520
  0
POLYLINE
  8
0
  6
CONTINUOUS
 66
     1
 40
0.000000
 41
0.000000
  0
VERTEX
  8
0
  6
CONTINUOUS
 10
3.388000
 20
3.200120
  0
VERTEX
  8
0
  6
CONTINUOUS
 10
3.384480
 20
2.540120
  0
VERTEX
  8
0
  6
CONTINUOUS
 10
3.416160
 20
2.566520
  0
VERTEX
  8
0
  6
CONTINUOUS
 10
3.420120
 20
3.226520
  0
VERTEX
  8
0
  6
CONTINUOUS
 10
3.388000
 20
3.200120
  0
SEQEND
  8
0
  0
SOLID
  8
0
 62
     7
 10
3.420120
 20
3.226520
 11
3.416160
 21
2.566520
 12
3.449600
 22
3.254240
 13
3.446080
 23
2.594240
  0
POLYLINE
  8
0
  6
CONTINUOUS
 66
     1
 40
0.000000
 41
0.000000
  0
VERTEX
  8
0
  6
CONTINUOUS
 10
3.420120
 20
3.226520
  0
VERTEX
  8
0
  6
CONTINUOUS
 10
3.416160
 20
2.566520
  0
VERTEX
  8
0
  6
CONTINUOUS
 10
3.446080
 20
2.594240
  0
VERTEX
  8
0
  6
CONTINUOUS
 10
3.449600
 20
3.254240
  0
VERTEX
  8
0
  6
CONTINUOUS
 10
3.420120
 20
3.226520
  0
SEQEND
  8
0
  0
SOLID
  8
0
 62
     7
 10
3.449600
 20
3.254240
 11
3.446080
 21
2.594240
 12
3.478640
 22
3.282400
 13
3.474680
 23
2.622400
  0
POLYLINE
  8
0
  6
CONTINUOUS
 66
     1
 40
0.000000
 41
0.000000
  0
VERTEX
  8
0
  6
CONTINUOUS
 10
3.449600
 20
3.254240
  0
VERTEX
  8
0
  6
CONTINUOUS
 10
3.446080
 20
2.594240
  0
VERTEX
  8
0
  6
CONTINUOUS
 10
3.474680
 20
2.622400
  0
VERTEX
  8
0
  6
CONTINUOUS
 10
3.478640
 20
3.282400
  0
VERTEX
  8
0
  6
CONTINUOUS
 10
3.449600
 20
3.254240
  0
SEQEND
  8
0
  0
SOLID
  8
0
 62
    15
 10
2.544080
 20
3.412640
 11
2.540120
 21
2.752640
 12
2.544080
 22
3.408680
 13
2.540560
 23
2.748680
  0
POLYLINE
  8
0
  6
CONTINUOUS
 66
     1
 40
0.000000
 41
0.000000
  0
VERTEX
  8
0
  6
CONTINUOUS
 10
2.544080
 20
3.412640
  0
VERTEX
  8
0
  6
CONTINUOUS
 10
2.540120
 20
2.752640
  0
VERTEX
  8
0
  6
CONTINUOUS
 10
2.540560
 20
2.748680
  0
VERTEX
  8
0
  6
CONTINUOUS
 10
2.544080
 20
3.408680
  0
VERTEX
  8
0
  6
CONTINUOUS
 10
2.544080
 20
3.412640
  0
SEQEND
  8
0
  0
SOLID
  8
0
 62
     7
 10
3.542440
 20
3.336520
 11
3.538920
 21
2.676520
 12
3.581160
 22
3.361160
 13
3.577640
 23
2.701160
  0
POLYLINE
  8
0
  6
CONTINUOUS
 66
     1
 40
0.000000
 41
0.000000
  0
VERTEX
  8
0
  6
CONTINUOUS
 10
3.542440
 20
3.336520
  0
VERTEX
  8
0
  6
CONTINUOUS
 10
3.538920
 20
2.676520
  0
VERTEX
  8
0
  6
CONTINUOUS
 10
3.577640
 20
2.701160
  0
VERTEX
  8
0
  6
CONTINUOUS
 10
3.581160
 20
3.361160
  0
VERTEX
  8
0
  6
CONTINUOUS
 10
3.542440
 20
3.336520
  0
SEQEND
  8
0
  0
SOLID
  8
0
 62
     7
 10
3.581160
 20
3.361160
 11
3.577640
 21
2.701160
 12
3.627360
 22
3.383160
 13
3.623400
 23
2.723160
  0
POLYLINE
  8
0
  6
CONTINUOUS
 66
     1
 40
0.000000
 41
0.000000
  0
VERTEX
  8
0
  6
CONTINUOUS
 10
3.581160
 20
3.361160
  0
VERTEX
  8
0
  6
CONTINUOUS
 10
3.577640
 20
2.701160
  0
VERTEX
  8
0
  6
CONTINUOUS
 10
3.623400
 20
2.723160
  0
VERTEX
  8
0
  6
CONTINUOUS
 10
3.627360
 20
3.383160
  0
VERTEX
  8
0
  6
CONTINUOUS
 10
3.581160
 20
3.361160
  0
SEQEND
  8
0
  0
SOLID
  8
0
 62
     7
 10
3.627360
 20
3.383160
 11
3.623400
 21
2.723160
 12
3.681920
 22
3.402080
 13
3.678400
 23
2.741640
  0
POLYLINE
  8
0
  6
CONTINUOUS
 66
     1
 40
0.000000
 41
0.000000
  0
VERTEX
  8
0
  6
CONTINUOUS
 10
3.627360
 20
3.383160
  0
VERTEX
  8
0
  6
CONTINUOUS
 10
3.623400
 20
2.723160
  0
VERTEX
  8
0
  6
CONTINUOUS
 10
3.678400
 20
2.741640
  0
VERTEX
  8
0
  6
CONTINUOUS
 10
3.681920
 20
3.402080
  0
VERTEX
  8
0
  6
CONTINUOUS
 10
3.627360
 20
3.383160
  0
SEQEND
  8
0
  0
SOLID
  8
0
 62
     7
 10
3.681920
 20
3.402080
 11
3.678400
 21
2.741640
 12
3.747920
 22
3.416160
 13
3.743960
 23
2.756160
  0
POLYLINE
  8
0
  6
CONTINUOUS
 66
     1
 40
0.000000
 41
0.000000
  0
VERTEX
  8
0
  6
CONTINUOUS
 10
3.681920
 20
3.402080
  0
VERTEX
  8
0
  6
CONTINUOUS
 10
3.678400
 20
2.741640
  0
VERTEX
  8
0
  6
CONTINUOUS
 10
3.743960
 20
2.756160
  0
VERTEX
  8
0
  6
CONTINUOUS
 10
3.747920
 20
3.416160
  0
VERTEX
  8
0
  6
CONTINUOUS
 10
3.681920
 20
3.402080
  0
SEQEND
  8
0
  0
SOLID
  8
0
 62
     7
 10
3.747920
 20
3.416160
 11
3.743960
 21
2.756160
 12
3.826680
 22
3.425840
 13
3.822720
 23
2.765840
  0
POLYLINE
  8
0
  6
CONTINUOUS
 66
     1
 40
0.000000
 41
0.000000
  0
VERTEX
  8
0
  6
CONTINUOUS
 10
3.747920
 20
3.416160
  0
VERTEX
  8
0
  6
CONTINUOUS
 10
3.743960
 20
2.756160
  0
VERTEX
  8
0
  6
CONTINUOUS
 10
3.822720
 20
2.765840
  0
VERTEX
  8
0
  6
CONTINUOUS
 10
3.826680
 20
3.425840
  0
VERTEX
  8
0
  6
CONTINUOUS
 10
3.747920
 20
3.416160
  0
SEQEND
  8
0
  0
SOLID
  8
0
 62
    15
 10
3.826680
 20
3.425840
 11
3.822720
 21
2.765840
 12
3.919960
 22
3.429800
 13
3.916440
 23
2.769360
  0
POLYLINE
  8
0
  6
CONTINUOUS
 66
     1
 40
0.000000
 41
0.000000
  0
VERTEX
  8
0
  6
CONTINUOUS
 10
3.826680
 20
3.425840
  0
VERTEX
  8
0
  6
CONTINUOUS
 10
3.822720
 20
2.765840
  0
VERTEX
  8
0
  6
CONTINUOUS
 10
3.916440
 20
2.769360
  0
VERTEX
  8
0
  6
CONTINUOUS
 10
3.919960
 20
3.429800
  0
VERTEX
  8
0
  6
CONTINUOUS
 10
3.826680
 20
3.425840
  0
SEQEND
  8
0
  0
SOLID
  8
0
 62
     7
 10
5.543560
 20
3.633960
 11
5.540040
 21
2.973520
 12
5.591080
 22
3.641000
 13
5.587120
 23
2.981000
  0
POLYLINE
  8
0
  6
CONTINUOUS
 66
     1
 40
0.000000
 41
0.000000
  0
VERTEX
  8
0
  6
CONTINUOUS
 10
5.543560
 20
3.633960
  0
VERTEX
  8
0
  6
CONTINUOUS
 10
5.540040
 20
2.973520
  0
VERTEX
  8
0
  6
CONTINUOUS
 10
5.587120
 20
2.981000
  0
VERTEX
  8
0
  6
CONTINUOUS
 10
5.591080
 20
3.641000
  0
VERTEX
  8
0
  6
CONTINUOUS
 10
5.543560
 20
3.633960
  0
SEQEND
  8
0
  0
SOLID
  8
0
 62
    15
 10
3.922600
 20
3.516480
 11
3.918640
 21
2.856040
 12
5.544000
 22
3.519120
 13
5.540040
 23
2.859120
  0
POLYLINE
  8
0
  6
CONTINUOUS
 66
     1
 40
0.000000
 41
0.000000
  0
VERTEX
  8
0
  6
CONTINUOUS
 10
3.922600
 20
3.516480
  0
VERTEX
  8
0
  6
CONTINUOUS
 10
3.918640
 20
2.856040
  0
VERTEX
  8
0
  6
CONTINUOUS
 10
5.540040
 20
2.859120
  0
VERTEX
  8
0
  6
CONTINUOUS
 10
5.544000
 20
3.519120
  0
VERTEX
  8
0
  6
CONTINUOUS
 10
3.922600
 20
3.516480
  0
SEQEND
  8
0
  0
SOLID
  8
0
 62
    15
 10
3.919960
 20
3.429800
 11
3.916440
 21
2.769360
 12
3.922600
 22
3.429800
 13
3.919080
 23
2.769360
  0
POLYLINE
  8
0
  6
CONTINUOUS
 66
     1
 40
0.000000
 41
0.000000
  0
VERTEX
  8
0
  6
CONTINUOUS
 10
3.919960
 20
3.429800
  0
VERTEX
  8
0
  6
CONTINUOUS
 10
3.916440
 20
2.769360
  0
VERTEX
  8
0
  6
CONTINUOUS
 10
3.919080
 20
2.769360
  0
VERTEX
  8
0
  6
CONTINUOUS
 10
3.922600
 20
3.429800
  0
VERTEX
  8
0
  6
CONTINUOUS
 10
3.919960
 20
3.429800
  0
SEQEND
  8
0
  0
SOLID
  8
0
 62
     7
 10
5.591080
 20
3.641000
 11
5.587120
 21
2.981000
 12
5.635960
 22
3.653320
 13
5.632440
 23
2.993320
  0
POLYLINE
  8
0
  6
CONTINUOUS
 66
     1
 40
0.000000
 41
0.000000
  0
VERTEX
  8
0
  6
CONTINUOUS
 10
5.591080
 20
3.641000
  0
VERTEX
  8
0
  6
CONTINUOUS
 10
5.587120
 20
2.981000
  0
VERTEX
  8
0
  6
CONTINUOUS
 10
5.632440
 20
2.993320
  0
VERTEX
  8
0
  6
CONTINUOUS
 10
5.635960
 20
3.653320
  0
VERTEX
  8
0
  6
CONTINUOUS
 10
5.591080
 20
3.641000
  0
SEQEND
  8
0
  0
SOLID
  8
0
 62
     7
 10
5.635960
 20
3.653320
 11
5.632440
 21
2.993320
 12
5.719560
 22
3.689840
 13
5.715600
 23
3.029400
  0
POLYLINE
  8
0
  6
CONTINUOUS
 66
     1
 40
0.000000
 41
0.000000
  0
VERTEX
  8
0
  6
CONTINUOUS
 10
5.635960
 20
3.653320
  0
VERTEX
  8
0
  6
CONTINUOUS
 10
5.632440
 20
2.993320
  0
VERTEX
  8
0
  6
CONTINUOUS
 10
5.715600
 20
3.029400
  0
VERTEX
  8
0
  6
CONTINUOUS
 10
5.719560
 20
3.689840
  0
VERTEX
  8
0
  6
CONTINUOUS
 10
5.635960
 20
3.653320
  0
SEQEND
  8
0
  0
SOLID
  8
0
 62
     7
 10
5.719560
 20
3.689840
 11
5.715600
 21
3.029400
 12
5.792600
 22
3.740440
 13
5.788640
 23
3.080440
  0
POLYLINE
  8
0
  6
CONTINUOUS
 66
     1
 40
0.000000
 41
0.000000
  0
VERTEX
  8
0
  6
CONTINUOUS
 10
5.719560
 20
3.689840
  0
VERTEX
  8
0
  6
CONTINUOUS
 10
5.715600
 20
3.029400
  0
VERTEX
  8
0
  6
CONTINUOUS
 10
5.788640
 20
3.080440
  0
VERTEX
  8
0
  6
CONTINUOUS
 10
5.792600
 20
3.740440
  0
VERTEX
  8
0
  6
CONTINUOUS
 10
5.719560
 20
3.689840
  0
SEQEND
  8
0
  0
SOLID
  8
0
 62
    15
 10
5.792600
 20
3.740440
 11
5.788640
 21
3.080440
 12
5.854200
 22
3.802920
 13
5.850240
 23
3.142920
  0
POLYLINE
  8
0
  6
CONTINUOUS
 66
     1
 40
0.000000
 41
0.000000
  0
VERTEX
  8
0
  6
CONTINUOUS
 10
5.792600
 20
3.740440
  0
VERTEX
  8
0
  6
CONTINUOUS
 10
5.788640
 20
3.080440
  0
VERTEX
  8
0
  6
CONTINUOUS
 10
5.850240
 20
3.142920
  0
VERTEX
  8
0
  6
CONTINUOUS
 10
5.854200
 20
3.802920
  0
VERTEX
  8
0
  6
CONTINUOUS
 10
5.792600
 20
3.740440
  0
SEQEND
  8
0
  0
SOLID
  8
0
 62
    15
 10
5.854200
 20
3.802920
 11
5.850240
 21
3.142920
 12
5.903040
 22
3.874200
 13
5.899520
 23
3.214200
  0
POLYLINE
  8
0
  6
CONTINUOUS
 66
     1
 40
0.000000
 41
0.000000
  0
VERTEX
  8
0
  6
CONTINUOUS
 10
5.854200
 20
3.802920
  0
VERTEX
  8
0
  6
CONTINUOUS
 10
5.850240
 20
3.142920
  0
VERTEX
  8
0
  6
CONTINUOUS
 10
5.899520
 20
3.214200
  0
VERTEX
  8
0
  6
CONTINUOUS
 10
5.903040
 20
3.874200
  0
VERTEX
  8
0
  6
CONTINUOUS
 10
5.854200
 20
3.802920
  0
SEQEND
  8
0
  0
SOLID
  8
0
 62
    15
 10
5.938240
 20
3.952520
 11
5.934280
 21
3.292520
 12
5.958040
 22
4.034800
 13
5.954080
 23
3.374800
  0
POLYLINE
  8
0
  6
CONTINUOUS
 66
     1
 40
0.000000
 41
0.000000
  0
VERTEX
  8
0
  6
CONTINUOUS
 10
5.938240
 20
3.952520
  0
VERTEX
  8
0
  6
CONTINUOUS
 10
5.934280
 20
3.292520
  0
VERTEX
  8
0
  6
CONTINUOUS
 10
5.954080
 20
3.374800
  0
VERTEX
  8
0
  6
CONTINUOUS
 10
5.958040
 20
4.034800
  0
VERTEX
  8
0
  6
CONTINUOUS
 10
5.938240
 20
3.952520
  0
SEQEND
  8
0
  0
SOLID
  8
0
 62
    15
 10
5.903040
 20
3.874200
 11
5.899520
 21
3.214200
 12
5.938240
 22
3.952520
 13
5.934280
 23
3.292520
  0
POLYLINE
  8
0
  6
CONTINUOUS
 66
     1
 40
0.000000
 41
0.000000
  0
VERTEX
  8
0
  6
CONTINUOUS
 10
5.903040
 20
3.874200
  0
VERTEX
  8
0
  6
CONTINUOUS
 10
5.899520
 20
3.214200
  0
VERTEX
  8
0
  6
CONTINUOUS
 10
5.934280
 20
3.292520
  0
VERTEX
  8
0
  6
CONTINUOUS
 10
5.938240
 20
3.952520
  0
VERTEX
  8
0
  6
CONTINUOUS
 10
5.903040
 20
3.874200
  0
SEQEND
  8
0
  0
SOLID
  8
0
 62
    15
 10
5.961560
 20
4.118400
 11
5.957600
 21
3.458400
 12
5.962880
 22
4.121040
 13
5.958920
 23
3.461040
  0
POLYLINE
  8
0
  6
CONTINUOUS
 66
     1
 40
0.000000
 41
0.000000
  0
VERTEX
  8
0
  6
CONTINUOUS
 10
5.961560
 20
4.118400
  0
VERTEX
  8
0
  6
CONTINUOUS
 10
5.957600
 20
3.458400
  0
VERTEX
  8
0
  6
CONTINUOUS
 10
5.958920
 20
3.461040
  0
VERTEX
  8
0
  6
CONTINUOUS
 10
5.962880
 20
4.121040
  0
VERTEX
  8
0
  6
CONTINUOUS
 10
5.961560
 20
4.118400
  0
SEQEND
  8
0
  0
SOLID
  8
0
 62
    15
 10
5.958040
 20
4.034800
 11
5.954080
 21
3.374800
 12
5.961560
 22
4.118400
 13
5.957600
 23
3.458400
  0
POLYLINE
  8
0
  6
CONTINUOUS
 66
     1
 40
0.000000
 41
0.000000
  0
VERTEX
  8
0
  6
CONTINUOUS
 10
5.958040
 20
4.034800
  0
VERTEX
  8
0
  6
CONTINUOUS
 10
5.954080
 20
3.374800
  0
VERTEX
  8
0
  6
CONTINUOUS
 10
5.957600
 20
3.458400
  0
VERTEX
  8
0
  6
CONTINUOUS
 10
5.961560
 20
4.118400
  0
VERTEX
  8
0
  6
CONTINUOUS
 10
5.958040
 20
4.034800
  0
SEQEND
  8
0
  0
SOLID
  8
0
 62
    15
 10
2.542760
 20
4.115320
 11
2.539240
 21
3.455320
 12
2.544080
 22
3.412640
 13
2.540120
 23
2.752640
  0
POLYLINE
  8
0
  6
CONTINUOUS
 66
     1
 40
0.000000
 41
0.000000
  0
VERTEX
  8
0
  6
CONTINUOUS
 10
2.542760
 20
4.115320
  0
VERTEX
  8
0
  6
CONTINUOUS
 10
2.539240
 20
3.455320
  0
VERTEX
  8
0
  6
CONTINUOUS
 10
2.540120
 20
2.752640
  0
VERTEX
  8
0
  6
CONTINUOUS
 10
2.544080
 20
3.412640
  0
VERTEX
  8
0
  6
CONTINUOUS
 10
2.542760
 20
4.115320
  0
SEQEND
  8
0
  0
SOLID
  8
0
 62
    15
 10
2.544080
 20
3.408680
 11
2.540560
 21
2.748680
 12
2.596440
 22
3.401200
 13
2.592480
 23
2.741200
  0
POLYLINE
  8
0
  6
CONTINUOUS
 66
     1
 40
0.000000
 41
0.000000
  0
VERTEX
  8
0
  6
CONTINUOUS
 10
2.544080
 20
3.408680
  0
VERTEX
  8
0
  6
CONTINUOUS
 10
2.540560
 20
2.748680
  0
VERTEX
  8
0
  6
CONTINUOUS
 10
2.592480
 20
2.741200
  0
VERTEX
  8
0
  6
CONTINUOUS
 10
2.596440
 20
3.401200
  0
VERTEX
  8
0
  6
CONTINUOUS
 10
2.544080
 20
3.408680
  0
SEQEND
  8
0
  0
POLYLINE
  8
0
  6
CONTINUOUS
 66
     1
 40
0.000000
 41
0.000000
  0
VERTEX
  8
0
  6
CONTINUOUS
 10
2.544080
 20
3.408680
  0
VERTEX
  8
0
  6
CONTINUOUS
 10
2.596440
 20
3.401200
  0
VERTEX
  8
0
  6
CONTINUOUS
 10
2.640880
 20
3.389320
  0
VERTEX
  8
0
  6
CONTINUOUS
 10
2.678720
 20
3.374360
  0
VERTEX
  8
0
  6
CONTINUOUS
 10
2.711280
 20
3.355880
  0
VERTEX
  8
0
  6
CONTINUOUS
 10
2.765400
 20
3.312760
  0
VERTEX
  8
0
  6
CONTINUOUS
 10
2.812480
 20
3.264360
  0
VERTEX
  8
0
  6
CONTINUOUS
 10
2.862200
 20
3.215520
  0
VERTEX
  8
0
  6
CONTINUOUS
 10
2.924240
 20
3.170640
  0
VERTEX
  8
0
  6
CONTINUOUS
 10
2.962960
 20
3.151280
  0
VERTEX
  8
0
  6
CONTINUOUS
 10
3.008280
 20
3.134560
  0
VERTEX
  8
0
  6
CONTINUOUS
 10
3.061080
 20
3.121360
  0
VERTEX
  8
0
  6
CONTINUOUS
 10
3.123120
 20
3.112120
  0
VERTEX
  8
0
  6
CONTINUOUS
 10
3.196600
 20
3.121360
  0
VERTEX
  8
0
  6
CONTINUOUS
 10
3.257760
 20
3.135440
  0
VERTEX
  8
0
  6
CONTINUOUS
 10
3.308800
 20
3.153920
  0
VERTEX
  8
0
  6
CONTINUOUS
 10
3.351480
 20
3.175480
  0
VERTEX
  8
0
  6
CONTINUOUS
 10
3.388000
 20
3.200120
  0
VERTEX
  8
0
  6
CONTINUOUS
 10
3.420120
 20
3.226520
  0
VERTEX
  8
0
  6
CONTINUOUS
 10
3.449600
 20
3.254240
  0
VERTEX
  8
0
  6
CONTINUOUS
 10
3.478640
 20
3.282400
  0
VERTEX
  8
0
  6
CONTINUOUS
 10
3.542440
 20
3.336520
  0
VERTEX
  8
0
  6
CONTINUOUS
 10
3.581160
 20
3.361160
  0
VERTEX
  8
0
  6
CONTINUOUS
 10
3.627360
 20
3.383160
  0
VERTEX
  8
0
  6
CONTINUOUS
 10
3.681920
 20
3.402080
  0
VERTEX
  8
0
  6
CONTINUOUS
 10
3.747920
 20
3.416160
  0
VERTEX
  8
0
  6
CONTINUOUS
 10
3.826680
 20
3.425840
  0
VERTEX
  8
0
  6
CONTINUOUS
 10
3.919960
 20
3.429800
  0
VERTEX
  8
0
  6
CONTINUOUS
 10
3.922600
 20
3.429800
  0
VERTEX
  8
0
  6
CONTINUOUS
 10
3.922600
 20
3.516480
  0
VERTEX
  8
0
  6
CONTINUOUS
 10
5.544000
 20
3.519120
  0
VERTEX
  8
0
  6
CONTINUOUS
 10
5.543560
 20
3.633960
  0
VERTEX
  8
0
  6
CONTINUOUS
 10
5.591080
 20
3.641000
  0
VERTEX
  8
0
  6
CONTINUOUS
 10
5.635960
 20
3.653320
  0
VERTEX
  8
0
  6
CONTINUOUS
 10
5.719560
 20
3.689840
  0
VERTEX
  8
0
  6
CONTINUOUS
 10
5.792600
 20
3.740440
  0
VERTEX
  8
0
  6
CONTINUOUS
 10
5.854200
 20
3.802920
  0
VERTEX
  8
0
  6
CONTINUOUS
 10
5.903040
 20
3.874200
  0
VERTEX
  8
0
  6
CONTINUOUS
 10
5.938240
 20
3.952520
  0
VERTEX
  8
0
  6
CONTINUOUS
 10
5.958040
 20
4.034800
  0
VERTEX
  8
0
  6
CONTINUOUS
 10
5.961560
 20
4.118400
  0
VERTEX
  8
0
  6
CONTINUOUS
 10
5.962880
 20
4.121040
  0
VERTEX
  8
0
  6
CONTINUOUS
 10
2.542760
 20
4.115320
  0
VERTEX
  8
0
  6
CONTINUOUS
 10
2.544080
 20
3.412640
  0
VERTEX
  8
0
  6
CONTINUOUS
 10
2.544080
 20
3.408680
  0
SEQEND
  8
0
  0
SOLID
  8
0
 62
     7
 10
3.714040
 20
4.339720
 11
3.714040
 21
3.601400
 12
3.758480
 22
4.341040
 13
3.758920
 23
3.602720
  0
POLYLINE
  8
0
  6
CONTINUOUS
 66
     1
 40
0.000000
 41
0.000000
  0
VERTEX
  8
0
  6
CONTINUOUS
 10
3.714040
 20
4.339720
  0
VERTEX
  8
0
  6
CONTINUOUS
 10
3.714040
 20
3.601400
  0
VERTEX
  8
0
  6
CONTINUOUS
 10
3.758920
 20
3.602720
  0
VERTEX
  8
0
  6
CONTINUOUS
 10
3.758480
 20
4.341040
  0
VERTEX
  8
0
  6
CONTINUOUS
 10
3.714040
 20
4.339720
  0
SEQEND
  8
0
  0
SOLID
  8
0
 62
    15
 10
2.762320
 20
4.371840
 11
2.762760
 21
3.633520
 12
2.770240
 22
4.328720
 13
2.770240
 23
3.590400
  0
POLYLINE
  8
0
  6
CONTINUOUS
 66
     1
 40
0.000000
 41
0.000000
  0
VERTEX
  8
0
  6
CONTINUOUS
 10
2.762320
 20
4.371840
  0
VERTEX
  8
0
  6
CONTINUOUS
 10
2.762760
 20
3.633520
  0
VERTEX
  8
0
  6
CONTINUOUS
 10
2.770240
 20
3.590400
  0
VERTEX
  8
0
  6
CONTINUOUS
 10
2.770240
 20
4.328720
  0
VERTEX
  8
0
  6
CONTINUOUS
 10
2.762320
 20
4.371840
  0
SEQEND
  8
0
  0
SOLID
  8
0
 62
    15
 10
2.770240
 20
4.328720
 11
2.770240
 21
3.590400
 12
2.792680
 22
4.252600
 13
2.793120
 23
3.514280
  0
POLYLINE
  8
0
  6
CONTINUOUS
 66
     1
 40
0.000000
 41
0.000000
  0
VERTEX
  8
0
  6
CONTINUOUS
 10
2.770240
 20
4.328720
  0
VERTEX
  8
0
  6
CONTINUOUS
 10
2.770240
 20
3.590400
  0
VERTEX
  8
0
  6
CONTINUOUS
 10
2.793120
 20
3.514280
  0
VERTEX
  8
0
  6
CONTINUOUS
 10
2.792680
 20
4.252600
  0
VERTEX
  8
0
  6
CONTINUOUS
 10
2.770240
 20
4.328720
  0
SEQEND
  8
0
  0
SOLID
  8
0
 62
    15
 10
2.792680
 20
4.252600
 11
2.793120
 21
3.514280
 12
2.824360
 22
4.188800
 13
2.824800
 23
3.450480
  0
POLYLINE
  8
0
  6
CONTINUOUS
 66
     1
 40
0.000000
 41
0.000000
  0
VERTEX
  8
0
  6
CONTINUOUS
 10
2.792680
 20
4.252600
  0
VERTEX
  8
0
  6
CONTINUOUS
 10
2.793120
 20
3.514280
  0
VERTEX
  8
0
  6
CONTINUOUS
 10
2.824800
 20
3.450480
  0
VERTEX
  8
0
  6
CONTINUOUS
 10
2.824360
 20
4.188800
  0
VERTEX
  8
0
  6
CONTINUOUS
 10
2.792680
 20
4.252600
  0
SEQEND
  8
0
  0
SOLID
  8
0
 62
    15
 10
2.824360
 20
4.188800
 11
2.824800
 21
3.450480
 12
2.863520
 22
4.136880
 13
2.863960
 23
3.398560
  0
POLYLINE
  8
0
  6
CONTINUOUS
 66
     1
 40
0.000000
 41
0.000000
  0
VERTEX
  8
0
  6
CONTINUOUS
 10
2.824360
 20
4.188800
  0
VERTEX
  8
0
  6
CONTINUOUS
 10
2.824800
 20
3.450480
  0
VERTEX
  8
0
  6
CONTINUOUS
 10
2.863960
 20
3.398560
  0
VERTEX
  8
0
  6
CONTINUOUS
 10
2.863520
 20
4.136880
  0
VERTEX
  8
0
  6
CONTINUOUS
 10
2.824360
 20
4.188800
  0
SEQEND
  8
0
  0
SOLID
  8
0
 62
    15
 10
2.863520
 20
4.136880
 11
2.863960
 21
3.398560
 12
2.908840
 22
4.095960
 13
2.909280
 23
3.357640
  0
POLYLINE
  8
0
  6
CONTINUOUS
 66
     1
 40
0.000000
 41
0.000000
  0
VERTEX
  8
0
  6
CONTINUOUS
 10
2.863520
 20
4.136880
  0
VERTEX
  8
0
  6
CONTINUOUS
 10
2.863960
 20
3.398560
  0
VERTEX
  8
0
  6
CONTINUOUS
 10
2.909280
 20
3.357640
  0
VERTEX
  8
0
  6
CONTINUOUS
 10
2.908840
 20
4.095960
  0
VERTEX
  8
0
  6
CONTINUOUS
 10
2.863520
 20
4.136880
  0
SEQEND
  8
0
  0
SOLID
  8
0
 62
    15
 10
2.908840
 20
4.095960
 11
2.909280
 21
3.357640
 12
2.959440
 22
4.065600
 13
2.959440
 23
3.327280
  0
POLYLINE
  8
0
  6
CONTINUOUS
 66
     1
 40
0.000000
 41
0.000000
  0
VERTEX
  8
0
  6
CONTINUOUS
 10
2.908840
 20
4.095960
  0
VERTEX
  8
0
  6
CONTINUOUS
 10
2.909280
 20
3.357640
  0
VERTEX
  8
0
  6
CONTINUOUS
 10
2.959440
 20
3.327280
  0
VERTEX
  8
0
  6
CONTINUOUS
 10
2.959440
 20
4.065600
  0
VERTEX
  8
0
  6
CONTINUOUS
 10
2.908840
 20
4.095960
  0
SEQEND
  8
0
  0
SOLID
  8
0
 62
    15
 10
2.959440
 20
4.065600
 11
2.959440
 21
3.327280
 12
3.013120
 22
4.044920
 13
3.013120
 23
3.306600
  0
POLYLINE
  8
0
  6
CONTINUOUS
 66
     1
 40
0.000000
 41
0.000000
  0
VERTEX
  8
0
  6
CONTINUOUS
 10
2.959440
 20
4.065600
  0
VERTEX
  8
0
  6
CONTINUOUS
 10
2.959440
 20
3.327280
  0
VERTEX
  8
0
  6
CONTINUOUS
 10
3.013120
 20
3.306600
  0
VERTEX
  8
0
  6
CONTINUOUS
 10
3.013120
 20
4.044920
  0
VERTEX
  8
0
  6
CONTINUOUS
 10
2.959440
 20
4.065600
  0
SEQEND
  8
0
  0
SOLID
  8
0
 62
    15
 10
3.013120
 20
4.044920
 11
3.013120
 21
3.306600
 12
3.069000
 22
4.033040
 13
3.069440
 23
3.295160
  0
POLYLINE
  8
0
  6
CONTINUOUS
 66
     1
 40
0.000000
 41
0.000000
  0
VERTEX
  8
0
  6
CONTINUOUS
 10
3.013120
 20
4.044920
  0
VERTEX
  8
0
  6
CONTINUOUS
 10
3.013120
 20
3.306600
  0
VERTEX
  8
0
  6
CONTINUOUS
 10
3.069440
 20
3.295160
  0
VERTEX
  8
0
  6
CONTINUOUS
 10
3.069000
 20
4.033040
  0
VERTEX
  8
0
  6
CONTINUOUS
 10
3.013120
 20
4.044920
  0
SEQEND
  8
0
  0
SOLID
  8
0
 62
    15
 10
3.069000
 20
4.033040
 11
3.069440
 21
3.295160
 12
3.126200
 22
4.029960
 13
3.126200
 23
3.291640
  0
POLYLINE
  8
0
  6
CONTINUOUS
 66
     1
 40
0.000000
 41
0.000000
  0
VERTEX
  8
0
  6
CONTINUOUS
 10
3.069000
 20
4.033040
  0
VERTEX
  8
0
  6
CONTINUOUS
 10
3.069440
 20
3.295160
  0
VERTEX
  8
0
  6
CONTINUOUS
 10
3.126200
 20
3.291640
  0
VERTEX
  8
0
  6
CONTINUOUS
 10
3.126200
 20
4.029960
  0
VERTEX
  8
0
  6
CONTINUOUS
 10
3.069000
 20
4.033040
  0
SEQEND
  8
0
  0
SOLID
  8
0
 62
    15
 10
3.126200
 20
4.029960
 11
3.126200
 21
3.291640
 12
3.182520
 22
4.034800
 13
3.182960
 23
3.296480
  0
POLYLINE
  8
0
  6
CONTINUOUS
 66
     1
 40
0.000000
 41
0.000000
  0
VERTEX
  8
0
  6
CONTINUOUS
 10
3.126200
 20
4.029960
  0
VERTEX
  8
0
  6
CONTINUOUS
 10
3.126200
 20
3.291640
  0
VERTEX
  8
0
  6
CONTINUOUS
 10
3.182960
 20
3.296480
  0
VERTEX
  8
0
  6
CONTINUOUS
 10
3.182520
 20
4.034800
  0
VERTEX
  8
0
  6
CONTINUOUS
 10
3.126200
 20
4.029960
  0
SEQEND
  8
0
  0
SOLID
  8
0
 62
     7
 10
3.182520
 20
4.034800
 11
3.182960
 21
3.296480
 12
3.237520
 22
4.046240
 13
3.237520
 23
3.307920
  0
POLYLINE
  8
0
  6
CONTINUOUS
 66
     1
 40
0.000000
 41
0.000000
  0
VERTEX
  8
0
  6
CONTINUOUS
 10
3.182520
 20
4.034800
  0
VERTEX
  8
0
  6
CONTINUOUS
 10
3.182960
 20
3.296480
  0
VERTEX
  8
0
  6
CONTINUOUS
 10
3.237520
 20
3.307920
  0
VERTEX
  8
0
  6
CONTINUOUS
 10
3.237520
 20
4.046240
  0
VERTEX
  8
0
  6
CONTINUOUS
 10
3.182520
 20
4.034800
  0
SEQEND
  8
0
  0
SOLID
  8
0
 62
     7
 10
3.237520
 20
4.046240
 11
3.237520
 21
3.307920
 12
3.289440
 22
4.064280
 13
3.289440
 23
3.325960
  0
POLYLINE
  8
0
  6
CONTINUOUS
 66
     1
 40
0.000000
 41
0.000000
  0
VERTEX
  8
0
  6
CONTINUOUS
 10
3.237520
 20
4.046240
  0
VERTEX
  8
0
  6
CONTINUOUS
 10
3.237520
 20
3.307920
  0
VERTEX
  8
0
  6
CONTINUOUS
 10
3.289440
 20
3.325960
  0
VERTEX
  8
0
  6
CONTINUOUS
 10
3.289440
 20
4.064280
  0
VERTEX
  8
0
  6
CONTINUOUS
 10
3.237520
 20
4.046240
  0
SEQEND
  8
0
  0
SOLID
  8
0
 62
     7
 10
3.289440
 20
4.064280
 11
3.289440
 21
3.325960
 12
3.336960
 22
4.088040
 13
3.336960
 23
3.349720
  0
POLYLINE
  8
0
  6
CONTINUOUS
 66
     1
 40
0.000000
 41
0.000000
  0
VERTEX
  8
0
  6
CONTINUOUS
 10
3.289440
 20
4.064280
  0
VERTEX
  8
0
  6
CONTINUOUS
 10
3.289440
 20
3.325960
  0
VERTEX
  8
0
  6
CONTINUOUS
 10
3.336960
 20
3.349720
  0
VERTEX
  8
0
  6
CONTINUOUS
 10
3.336960
 20
4.088040
  0
VERTEX
  8
0
  6
CONTINUOUS
 10
3.289440
 20
4.064280
  0
SEQEND
  8
0
  0
SOLID
  8
0
 62
     7
 10
3.336960
 20
4.088040
 11
3.336960
 21
3.349720
 12
3.378760
 22
4.117080
 13
3.378760
 23
3.378760
  0
POLYLINE
  8
0
  6
CONTINUOUS
 66
     1
 40
0.000000
 41
0.000000
  0
VERTEX
  8
0
  6
CONTINUOUS
 10
3.336960
 20
4.088040
  0
VERTEX
  8
0
  6
CONTINUOUS
 10
3.336960
 20
3.349720
  0
VERTEX
  8
0
  6
CONTINUOUS
 10
3.378760
 20
3.378760
  0
VERTEX
  8
0
  6
CONTINUOUS
 10
3.378760
 20
4.117080
  0
VERTEX
  8
0
  6
CONTINUOUS
 10
3.336960
 20
4.088040
  0
SEQEND
  8
0
  0
SOLID
  8
0
 62
     7
 10
3.378760
 20
4.117080
 11
3.378760
 21
3.378760
 12
3.413080
 22
4.150080
 13
3.413520
 23
3.412200
  0
POLYLINE
  8
0
  6
CONTINUOUS
 66
     1
 40
0.000000
 41
0.000000
  0
VERTEX
  8
0
  6
CONTINUOUS
 10
3.378760
 20
4.117080
  0
VERTEX
  8
0
  6
CONTINUOUS
 10
3.378760
 20
3.378760
  0
VERTEX
  8
0
  6
CONTINUOUS
 10
3.413520
 20
3.412200
  0
VERTEX
  8
0
  6
CONTINUOUS
 10
3.413080
 20
4.150080
  0
VERTEX
  8
0
  6
CONTINUOUS
 10
3.378760
 20
4.117080
  0
SEQEND
  8
0
  0
SOLID
  8
0
 62
     7
 10
3.413080
 20
4.150080
 11
3.413520
 21
3.412200
 12
3.439920
 22
4.187480
 13
3.439920
 23
3.449160
  0
POLYLINE
  8
0
  6
CONTINUOUS
 66
     1
 40
0.000000
 41
0.000000
  0
VERTEX
  8
0
  6
CONTINUOUS
 10
3.413080
 20
4.150080
  0
VERTEX
  8
0
  6
CONTINUOUS
 10
3.413520
 20
3.412200
  0
VERTEX
  8
0
  6
CONTINUOUS
 10
3.439920
 20
3.449160
  0
VERTEX
  8
0
  6
CONTINUOUS
 10
3.439920
 20
4.187480
  0
VERTEX
  8
0
  6
CONTINUOUS
 10
3.413080
 20
4.150080
  0
SEQEND
  8
0
  0
SOLID
  8
0
 62
     7
 10
3.439920
 20
4.187480
 11
3.439920
 21
3.449160
 12
3.473360
 22
4.234120
 13
3.473360
 23
3.495800
  0
POLYLINE
  8
0
  6
CONTINUOUS
 66
     1
 40
0.000000
 41
0.000000
  0
VERTEX
  8
0
  6
CONTINUOUS
 10
3.439920
 20
4.187480
  0
VERTEX
  8
0
  6
CONTINUOUS
 10
3.439920
 20
3.449160
  0
VERTEX
  8
0
  6
CONTINUOUS
 10
3.473360
 20
3.495800
  0
VERTEX
  8
0
  6
CONTINUOUS
 10
3.473360
 20
4.234120
  0
VERTEX
  8
0
  6
CONTINUOUS
 10
3.439920
 20
4.187480
  0
SEQEND
  8
0
  0
SOLID
  8
0
 62
     7
 10
3.473360
 20
4.234120
 11
3.473360
 21
3.495800
 12
3.515160
 22
4.271520
 13
3.515160
 23
3.533200
  0
POLYLINE
  8
0
  6
CONTINUOUS
 66
     1
 40
0.000000
 41
0.000000
  0
VERTEX
  8
0
  6
CONTINUOUS
 10
3.473360
 20
4.234120
  0
VERTEX
  8
0
  6
CONTINUOUS
 10
3.473360
 20
3.495800
  0
VERTEX
  8
0
  6
CONTINUOUS
 10
3.515160
 20
3.533200
  0
VERTEX
  8
0
  6
CONTINUOUS
 10
3.515160
 20
4.271520
  0
VERTEX
  8
0
  6
CONTINUOUS
 10
3.473360
 20
4.234120
  0
SEQEND
  8
0
  0
SOLID
  8
0
 62
     7
 10
3.515160
 20
4.271520
 11
3.515160
 21
3.533200
 12
3.562680
 22
4.299680
 13
3.563120
 23
3.561360
  0
POLYLINE
  8
0
  6
CONTINUOUS
 66
     1
 40
0.000000
 41
0.000000
  0
VERTEX
  8
0
  6
CONTINUOUS
 10
3.515160
 20
4.271520
  0
VERTEX
  8
0
  6
CONTINUOUS
 10
3.515160
 20
3.533200
  0
VERTEX
  8
0
  6
CONTINUOUS
 10
3.563120
 20
3.561360
  0
VERTEX
  8
0
  6
CONTINUOUS
 10
3.562680
 20
4.299680
  0
VERTEX
  8
0
  6
CONTINUOUS
 10
3.515160
 20
4.271520
  0
SEQEND
  8
0
  0
SOLID
  8
0
 62
     7
 10
3.562680
 20
4.299680
 11
3.563120
 21
3.561360
 12
3.613720
 22
4.319920
 13
3.613720
 23
3.581600
  0
POLYLINE
  8
0
  6
CONTINUOUS
 66
     1
 40
0.000000
 41
0.000000
  0
VERTEX
  8
0
  6
CONTINUOUS
 10
3.562680
 20
4.299680
  0
VERTEX
  8
0
  6
CONTINUOUS
 10
3.563120
 20
3.561360
  0
VERTEX
  8
0
  6
CONTINUOUS
 10
3.613720
 20
3.581600
  0
VERTEX
  8
0
  6
CONTINUOUS
 10
3.613720
 20
4.319920
  0
VERTEX
  8
0
  6
CONTINUOUS
 10
3.562680
 20
4.299680
  0
SEQEND
  8
0
  0
SOLID
  8
0
 62
     7
 10
3.613720
 20
4.319920
 11
3.613720
 21
3.581600
 12
3.664760
 22
4.333120
 13
3.664760
 23
3.594800
  0
POLYLINE
  8
0
  6
CONTINUOUS
 66
     1
 40
0.000000
 41
0.000000
  0
VERTEX
  8
0
  6
CONTINUOUS
 10
3.613720
 20
4.319920
  0
VERTEX
  8
0
  6
CONTINUOUS
 10
3.613720
 20
3.581600
  0
VERTEX
  8
0
  6
CONTINUOUS
 10
3.664760
 20
3.594800
  0
VERTEX
  8
0
  6
CONTINUOUS
 10
3.664760
 20
4.333120
  0
VERTEX
  8
0
  6
CONTINUOUS
 10
3.613720
 20
4.319920
  0
SEQEND
  8
0
  0
SOLID
  8
0
 62
     7
 10
3.664760
 20
4.333120
 11
3.664760
 21
3.594800
 12
3.714040
 22
4.339720
 13
3.714040
 23
3.601400
  0
POLYLINE
  8
0
  6
CONTINUOUS
 66
     1
 40
0.000000
 41
0.000000
  0
VERTEX
  8
0
  6
CONTINUOUS
 10
3.664760
 20
4.333120
  0
VERTEX
  8
0
  6
CONTINUOUS
 10
3.664760
 20
3.594800
  0
VERTEX
  8
0
  6
CONTINUOUS
 10
3.714040
 20
3.601400
  0
VERTEX
  8
0
  6
CONTINUOUS
 10
3.714040
 20
4.339720
  0
VERTEX
  8
0
  6
CONTINUOUS
 10
3.664760
 20
4.333120
  0
SEQEND
  8
0
  0
SOLID
  8
0
 62
    15
 10
2.657600
 20
4.424640
 11
2.657600
 21
3.686760
 12
2.758800
 22
4.424640
 13
2.758800
 23
3.686320
  0
POLYLINE
  8
0
  6
CONTINUOUS
 66
     1
 40
0.000000
 41
0.000000
  0
VERTEX
  8
0
  6
CONTINUOUS
 10
2.657600
 20
4.424640
  0
VERTEX
  8
0
  6
CONTINUOUS
 10
2.657600
 20
3.686760
  0
VERTEX
  8
0
  6
CONTINUOUS
 10
2.758800
 20
3.686320
  0
VERTEX
  8
0
  6
CONTINUOUS
 10
2.758800
 20
4.424640
  0
VERTEX
  8
0
  6
CONTINUOUS
 10
2.657600
 20
4.424640
  0
SEQEND
  8
0
  0
SOLID
  8
0
 62
    15
 10
3.758480
 20
4.341040
 11
3.758920
 21
3.602720
 12
3.795880
 22
4.337520
 13
3.796320
 23
3.599200
  0
POLYLINE
  8
0
  6
CONTINUOUS
 66
     1
 40
0.000000
 41
0.000000
  0
VERTEX
  8
0
  6
CONTINUOUS
 10
3.758480
 20
4.341040
  0
VERTEX
  8
0
  6
CONTINUOUS
 10
3.758920
 20
3.602720
  0
VERTEX
  8
0
  6
CONTINUOUS
 10
3.796320
 20
3.599200
  0
VERTEX
  8
0
  6
CONTINUOUS
 10
3.795880
 20
4.337520
  0
VERTEX
  8
0
  6
CONTINUOUS
 10
3.758480
 20
4.341040
  0
SEQEND
  8
0
  0
SOLID
  8
0
 62
    15
 10
3.795880
 20
4.337520
 11
3.796320
 21
3.599200
 12
3.797200
 22
4.341480
 13
3.797640
 23
3.603160
  0
POLYLINE
  8
0
  6
CONTINUOUS
 66
     1
 40
0.000000
 41
0.000000
  0
VERTEX
  8
0
  6
CONTINUOUS
 10
3.795880
 20
4.337520
  0
VERTEX
  8
0
  6
CONTINUOUS
 10
3.796320
 20
3.599200
  0
VERTEX
  8
0
  6
CONTINUOUS
 10
3.797640
 20
3.603160
  0
VERTEX
  8
0
  6
CONTINUOUS
 10
3.797200
 20
4.341480
  0
VERTEX
  8
0
  6
CONTINUOUS
 10
3.795880
 20
4.337520
  0
SEQEND
  8
0
  0
SOLID
  8
0
 62
    15
 10
3.797200
 20
4.341480
 11
3.797640
 21
3.603160
 12
3.797640
 22
4.398680
 13
3.797640
 23
3.660360
  0
POLYLINE
  8
0
  6
CONTINUOUS
 66
     1
 40
0.000000
 41
0.000000
  0
VERTEX
  8
0
  6
CONTINUOUS
 10
3.797200
 20
4.341480
  0
VERTEX
  8
0
  6
CONTINUOUS
 10
3.797640
 20
3.603160
  0
VERTEX
  8
0
  6
CONTINUOUS
 10
3.797640
 20
3.660360
  0
VERTEX
  8
0
  6
CONTINUOUS
 10
3.797640
 20
4.398680
  0
VERTEX
  8
0
  6
CONTINUOUS
 10
3.797200
 20
4.341480
  0
SEQEND
  8
0
  0
SOLID
  8
0
 62
     7
 10
5.433560
 20
4.418480
 11
5.433560
 21
3.680600
 12
5.442800
 22
4.418480
 13
5.442800
 23
3.680160
  0
POLYLINE
  8
0
  6
CONTINUOUS
 66
     1
 40
0.000000
 41
0.000000
  0
VERTEX
  8
0
  6
CONTINUOUS
 10
5.433560
 20
4.418480
  0
VERTEX
  8
0
  6
CONTINUOUS
 10
5.433560
 20
3.680600
  0
VERTEX
  8
0
  6
CONTINUOUS
 10
5.442800
 20
3.680160
  0
VERTEX
  8
0
  6
CONTINUOUS
 10
5.442800
 20
4.418480
  0
VERTEX
  8
0
  6
CONTINUOUS
 10
5.433560
 20
4.418480
  0
SEQEND
  8
0
  0
SOLID
  8
0
 62
    15
 10
5.433560
 20
4.396040
 11
5.433560
 21
3.657720
 12
5.433560
 22
4.418480
 13
5.433560
 23
3.680600
  0
POLYLINE
  8
0
  6
CONTINUOUS
 66
     1
 40
0.000000
 41
0.000000
  0
VERTEX
  8
0
  6
CONTINUOUS
 10
5.433560
 20
4.396040
  0
VERTEX
  8
0
  6
CONTINUOUS
 10
5.433560
 20
3.657720
  0
VERTEX
  8
0
  6
CONTINUOUS
 10
5.433560
 20
3.680600
  0
VERTEX
  8
0
  6
CONTINUOUS
 10
5.433560
 20
4.418480
  0
VERTEX
  8
0
  6
CONTINUOUS
 10
5.433560
 20
4.396040
  0
SEQEND
  8
0
  0
SOLID
  8
0
 62
    15
 10
3.797640
 20
4.398680
 11
3.797640
 21
3.660360
 12
5.433560
 22
4.396040
 13
5.433560
 23
3.657720
  0
POLYLINE
  8
0
  6
CONTINUOUS
 66
     1
 40
0.000000
 41
0.000000
  0
VERTEX
  8
0
  6
CONTINUOUS
 10
3.797640
 20
4.398680
  0
VERTEX
  8
0
  6
CONTINUOUS
 10
3.797640
 20
3.660360
  0
VERTEX
  8
0
  6
CONTINUOUS
 10
5.433560
 20
3.657720
  0
VERTEX
  8
0
  6
CONTINUOUS
 10
5.433560
 20
4.396040
  0
VERTEX
  8
0
  6
CONTINUOUS
 10
3.797640
 20
4.398680
  0
SEQEND
  8
0
  0
SOLID
  8
0
 62
     7
 10
5.442800
 20
4.418480
 11
5.442800
 21
3.680160
 12
5.489880
 22
4.422880
 13
5.490320
 23
3.684560
  0
POLYLINE
  8
0
  6
CONTINUOUS
 66
     1
 40
0.000000
 41
0.000000
  0
VERTEX
  8
0
  6
CONTINUOUS
 10
5.442800
 20
4.418480
  0
VERTEX
  8
0
  6
CONTINUOUS
 10
5.442800
 20
3.680160
  0
VERTEX
  8
0
  6
CONTINUOUS
 10
5.490320
 20
3.684560
  0
VERTEX
  8
0
  6
CONTINUOUS
 10
5.489880
 20
4.422880
  0
VERTEX
  8
0
  6
CONTINUOUS
 10
5.442800
 20
4.418480
  0
SEQEND
  8
0
  0
SOLID
  8
0
 62
     7
 10
5.489880
 20
4.422880
 11
5.490320
 21
3.684560
 12
5.534320
 22
4.430800
 13
5.534760
 23
3.692480
  0
POLYLINE
  8
0
  6
CONTINUOUS
 66
     1
 40
0.000000
 41
0.000000
  0
VERTEX
  8
0
  6
CONTINUOUS
 10
5.489880
 20
4.422880
  0
VERTEX
  8
0
  6
CONTINUOUS
 10
5.490320
 20
3.684560
  0
VERTEX
  8
0
  6
CONTINUOUS
 10
5.534760
 20
3.692480
  0
VERTEX
  8
0
  6
CONTINUOUS
 10
5.534320
 20
4.430800
  0
VERTEX
  8
0
  6
CONTINUOUS
 10
5.489880
 20
4.422880
  0
SEQEND
  8
0
  0
SOLID
  8
0
 62
     7
 10
5.534320
 20
4.430800
 11
5.534760
 21
3.692480
 12
5.576120
 22
4.442680
 13
5.576120
 23
3.704360
  0
POLYLINE
  8
0
  6
CONTINUOUS
 66
     1
 40
0.000000
 41
0.000000
  0
VERTEX
  8
0
  6
CONTINUOUS
 10
5.534320
 20
4.430800
  0
VERTEX
  8
0
  6
CONTINUOUS
 10
5.534760
 20
3.692480
  0
VERTEX
  8
0
  6
CONTINUOUS
 10
5.576120
 20
3.704360
  0
VERTEX
  8
0
  6
CONTINUOUS
 10
5.576120
 20
4.442680
  0
VERTEX
  8
0
  6
CONTINUOUS
 10
5.534320
 20
4.430800
  0
SEQEND
  8
0
  0
SOLID
  8
0
 62
     7
 10
5.576120
 20
4.442680
 11
5.576120
 21
3.704360
 12
5.614840
 22
4.458080
 13
5.615280
 23
3.720200
  0
POLYLINE
  8
0
  6
CONTINUOUS
 66
     1
 40
0.000000
 41
0.000000
  0
VERTEX
  8
0
  6
CONTINUOUS
 10
5.576120
 20
4.442680
  0
VERTEX
  8
0
  6
CONTINUOUS
 10
5.576120
 20
3.704360
  0
VERTEX
  8
0
  6
CONTINUOUS
 10
5.615280
 20
3.720200
  0
VERTEX
  8
0
  6
CONTINUOUS
 10
5.614840
 20
4.458080
  0
VERTEX
  8
0
  6
CONTINUOUS
 10
5.576120
 20
4.442680
  0
SEQEND
  8
0
  0
SOLID
  8
0
 62
     7
 10
5.614840
 20
4.458080
 11
5.615280
 21
3.720200
 12
5.650920
 22
4.477440
 13
5.650920
 23
3.739120
  0
POLYLINE
  8
0
  6
CONTINUOUS
 66
     1
 40
0.000000
 41
0.000000
  0
VERTEX
  8
0
  6
CONTINUOUS
 10
5.614840
 20
4.458080
  0
VERTEX
  8
0
  6
CONTINUOUS
 10
5.615280
 20
3.720200
  0
VERTEX
  8
0
  6
CONTINUOUS
 10
5.650920
 20
3.739120
  0
VERTEX
  8
0
  6
CONTINUOUS
 10
5.650920
 20
4.477440
  0
VERTEX
  8
0
  6
CONTINUOUS
 10
5.614840
 20
4.458080
  0
SEQEND
  8
0
  0
SOLID
  8
0
 62
     7
 10
5.650920
 20
4.477440
 11
5.650920
 21
3.739120
 12
5.683920
 22
4.499880
 13
5.683920
 23
3.761560
  0
POLYLINE
  8
0
  6
CONTINUOUS
 66
     1
 40
0.000000
 41
0.000000
  0
VERTEX
  8
0
  6
CONTINUOUS
 10
5.650920
 20
4.477440
  0
VERTEX
  8
0
  6
CONTINUOUS
 10
5.650920
 20
3.739120
  0
VERTEX
  8
0
  6
CONTINUOUS
 10
5.683920
 20
3.761560
  0
VERTEX
  8
0
  6
CONTINUOUS
 10
5.683920
 20
4.499880
  0
VERTEX
  8
0
  6
CONTINUOUS
 10
5.650920
 20
4.477440
  0
SEQEND
  8
0
  0
SOLID
  8
0
 62
    15
 10
5.683920
 20
4.499880
 11
5.683920
 21
3.761560
 12
5.713840
 22
4.525400
 13
5.713840
 23
3.787080
  0
POLYLINE
  8
0
  6
CONTINUOUS
 66
     1
 40
0.000000
 41
0.000000
  0
VERTEX
  8
0
  6
CONTINUOUS
 10
5.683920
 20
4.499880
  0
VERTEX
  8
0
  6
CONTINUOUS
 10
5.683920
 20
3.761560
  0
VERTEX
  8
0
  6
CONTINUOUS
 10
5.713840
 20
3.787080
  0
VERTEX
  8
0
  6
CONTINUOUS
 10
5.713840
 20
4.525400
  0
VERTEX
  8
0
  6
CONTINUOUS
 10
5.683920
 20
4.499880
  0
SEQEND
  8
0
  0
SOLID
  8
0
 62
    15
 10
5.713840
 20
4.525400
 11
5.713840
 21
3.787080
 12
5.740240
 22
4.554000
 13
5.740680
 23
3.815680
  0
POLYLINE
  8
0
  6
CONTINUOUS
 66
     1
 40
0.000000
 41
0.000000
  0
VERTEX
  8
0
  6
CONTINUOUS
 10
5.713840
 20
4.525400
  0
VERTEX
  8
0
  6
CONTINUOUS
 10
5.713840
 20
3.787080
  0
VERTEX
  8
0
  6
CONTINUOUS
 10
5.740680
 20
3.815680
  0
VERTEX
  8
0
  6
CONTINUOUS
 10
5.740240
 20
4.554000
  0
VERTEX
  8
0
  6
CONTINUOUS
 10
5.713840
 20
4.525400
  0
SEQEND
  8
0
  0
SOLID
  8
0
 62
    15
 10
5.740240
 20
4.554000
 11
5.740680
 21
3.815680
 12
5.763560
 22
4.585680
 13
5.764000
 23
3.847360
  0
POLYLINE
  8
0
  6
CONTINUOUS
 66
     1
 40
0.000000
 41
0.000000
  0
VERTEX
  8
0
  6
CONTINUOUS
 10
5.740240
 20
4.554000
  0
VERTEX
  8
0
  6
CONTINUOUS
 10
5.740680
 20
3.815680
  0
VERTEX
  8
0
  6
CONTINUOUS
 10
5.764000
 20
3.847360
  0
VERTEX
  8
0
  6
CONTINUOUS
 10
5.763560
 20
4.585680
  0
VERTEX
  8
0
  6
CONTINUOUS
 10
5.740240
 20
4.554000
  0
SEQEND
  8
0
  0
SOLID
  8
0
 62
    15
 10
5.763560
 20
4.585680
 11
5.764000
 21
3.847360
 12
5.783800
 22
4.620000
 13
5.783800
 23
3.882120
  0
POLYLINE
  8
0
  6
CONTINUOUS
 66
     1
 40
0.000000
 41
0.000000
  0
VERTEX
  8
0
  6
CONTINUOUS
 10
5.763560
 20
4.585680
  0
VERTEX
  8
0
  6
CONTINUOUS
 10
5.764000
 20
3.847360
  0
VERTEX
  8
0
  6
CONTINUOUS
 10
5.783800
 20
3.882120
  0
VERTEX
  8
0
  6
CONTINUOUS
 10
5.783800
 20
4.620000
  0
VERTEX
  8
0
  6
CONTINUOUS
 10
5.763560
 20
4.585680
  0
SEQEND
  8
0
  0
SOLID
  8
0
 62
    15
 10
5.783800
 20
4.620000
 11
5.783800
 21
3.882120
 12
5.800520
 22
4.657400
 13
5.800520
 23
3.919080
  0
POLYLINE
  8
0
  6
CONTINUOUS
 66
     1
 40
0.000000
 41
0.000000
  0
VERTEX
  8
0
  6
CONTINUOUS
 10
5.783800
 20
4.620000
  0
VERTEX
  8
0
  6
CONTINUOUS
 10
5.783800
 20
3.882120
  0
VERTEX
  8
0
  6
CONTINUOUS
 10
5.800520
 20
3.919080
  0
VERTEX
  8
0
  6
CONTINUOUS
 10
5.800520
 20
4.657400
  0
VERTEX
  8
0
  6
CONTINUOUS
 10
5.783800
 20
4.620000
  0
SEQEND
  8
0
  0
SOLID
  8
0
 62
    15
 10
5.800520
 20
4.657400
 11
5.800520
 21
3.919080
 12
5.813720
 22
4.697000
 13
5.813720
 23
3.958680
  0
POLYLINE
  8
0
  6
CONTINUOUS
 66
     1
 40
0.000000
 41
0.000000
  0
VERTEX
  8
0
  6
CONTINUOUS
 10
5.800520
 20
4.657400
  0
VERTEX
  8
0
  6
CONTINUOUS
 10
5.800520
 20
3.919080
  0
VERTEX
  8
0
  6
CONTINUOUS
 10
5.813720
 20
3.958680
  0
VERTEX
  8
0
  6
CONTINUOUS
 10
5.813720
 20
4.697000
  0
VERTEX
  8
0
  6
CONTINUOUS
 10
5.800520
 20
4.657400
  0
SEQEND
  8
0
  0
SOLID
  8
0
 62
    15
 10
5.823400
 20
4.738800
 11
5.823400
 21
4.000480
 12
5.829560
 22
4.783240
 13
5.829560
 23
4.044920
  0
POLYLINE
  8
0
  6
CONTINUOUS
 66
     1
 40
0.000000
 41
0.000000
  0
VERTEX
  8
0
  6
CONTINUOUS
 10
5.823400
 20
4.738800
  0
VERTEX
  8
0
  6
CONTINUOUS
 10
5.823400
 20
4.000480
  0
VERTEX
  8
0
  6
CONTINUOUS
 10
5.829560
 20
4.044920
  0
VERTEX
  8
0
  6
CONTINUOUS
 10
5.829560
 20
4.783240
  0
VERTEX
  8
0
  6
CONTINUOUS
 10
5.823400
 20
4.738800
  0
SEQEND
  8
0
  0
SOLID
  8
0
 62
    15
 10
5.813720
 20
4.697000
 11
5.813720
 21
3.958680
 12
5.823400
 22
4.738800
 13
5.823400
 23
4.000480
  0
POLYLINE
  8
0
  6
CONTINUOUS
 66
     1
 40
0.000000
 41
0.000000
  0
VERTEX
  8
0
  6
CONTINUOUS
 10
5.813720
 20
4.697000
  0
VERTEX
  8
0
  6
CONTINUOUS
 10
5.813720
 20
3.958680
  0
VERTEX
  8
0
  6
CONTINUOUS
 10
5.823400
 20
4.000480
  0
VERTEX
  8
0
  6
CONTINUOUS
 10
5.823400
 20
4.738800
  0
VERTEX
  8
0
  6
CONTINUOUS
 10
5.813720
 20
4.697000
  0
SEQEND
  8
0
  0
SOLID
  8
0
 62
    15
 10
5.829560
 20
4.783240
 11
5.829560
 21
4.044920
 12
5.831760
 22
4.829440
 13
5.831760
 23
4.091560
  0
POLYLINE
  8
0
  6
CONTINUOUS
 66
     1
 40
0.000000
 41
0.000000
  0
VERTEX
  8
0
  6
CONTINUOUS
 10
5.829560
 20
4.783240
  0
VERTEX
  8
0
  6
CONTINUOUS
 10
5.829560
 20
4.044920
  0
VERTEX
  8
0
  6
CONTINUOUS
 10
5.831760
 20
4.091560
  0
VERTEX
  8
0
  6
CONTINUOUS
 10
5.831760
 20
4.829440
  0
VERTEX
  8
0
  6
CONTINUOUS
 10
5.829560
 20
4.783240
  0
SEQEND
  8
0
  0
SOLID
  8
0
 62
    15
 10
2.757480
 20
4.418040
 11
2.757480
 21
3.679720
 12
2.762320
 22
4.371840
 13
2.762760
 23
3.633520
  0
POLYLINE
  8
0
  6
CONTINUOUS
 66
     1
 40
0.000000
 41
0.000000
  0
VERTEX
  8
0
  6
CONTINUOUS
 10
2.757480
 20
4.418040
  0
VERTEX
  8
0
  6
CONTINUOUS
 10
2.757480
 20
3.679720
  0
VERTEX
  8
0
  6
CONTINUOUS
 10
2.762760
 20
3.633520
  0
VERTEX
  8
0
  6
CONTINUOUS
 10
2.762320
 20
4.371840
  0
VERTEX
  8
0
  6
CONTINUOUS
 10
2.757480
 20
4.418040
  0
SEQEND
  8
0
  0
POLYLINE
  8
0
  6
CONTINUOUS
 66
     1
 40
0.000000
 41
0.000000
  0
VERTEX
  8
0
  6
CONTINUOUS
 10
2.757480
 20
4.418040
  0
VERTEX
  8
0
  6
CONTINUOUS
 10
2.762320
 20
4.371840
  0
VERTEX
  8
0
  6
CONTINUOUS
 10
2.770240
 20
4.328720
  0
VERTEX
  8
0
  6
CONTINUOUS
 10
2.792680
 20
4.252600
  0
VERTEX
  8
0
  6
CONTINUOUS
 10
2.824360
 20
4.188800
  0
VERTEX
  8
0
  6
CONTINUOUS
 10
2.863520
 20
4.136880
  0
VERTEX
  8
0
  6
CONTINUOUS
 10
2.908840
 20
4.095960
  0
VERTEX
  8
0
  6
CONTINUOUS
 10
2.959440
 20
4.065600
  0
VERTEX
  8
0
  6
CONTINUOUS
 10
3.013120
 20
4.044920
  0
VERTEX
  8
0
  6
CONTINUOUS
 10
3.069000
 20
4.033040
  0
VERTEX
  8
0
  6
CONTINUOUS
 10
3.126200
 20
4.029960
  0
VERTEX
  8
0
  6
CONTINUOUS
 10
3.182520
 20
4.034800
  0
VERTEX
  8
0
  6
CONTINUOUS
 10
3.237520
 20
4.046240
  0
VERTEX
  8
0
  6
CONTINUOUS
 10
3.289440
 20
4.064280
  0
VERTEX
  8
0
  6
CONTINUOUS
 10
3.336960
 20
4.088040
  0
VERTEX
  8
0
  6
CONTINUOUS
 10
3.378760
 20
4.117080
  0
VERTEX
  8
0
  6
CONTINUOUS
 10
3.413080
 20
4.150080
  0
VERTEX
  8
0
  6
CONTINUOUS
 10
3.473360
 20
4.234120
  0
VERTEX
  8
0
  6
CONTINUOUS
 10
3.515160
 20
4.271520
  0
VERTEX
  8
0
  6
CONTINUOUS
 10
3.562680
 20
4.299680
  0
VERTEX
  8
0
  6
CONTINUOUS
 10
3.613720
 20
4.319920
  0
VERTEX
  8
0
  6
CONTINUOUS
 10
3.664760
 20
4.333120
  0
VERTEX
  8
0
  6
CONTINUOUS
 10
3.714040
 20
4.339720
  0
VERTEX
  8
0
  6
CONTINUOUS
 10
3.758480
 20
4.341040
  0
VERTEX
  8
0
  6
CONTINUOUS
 10
3.795880
 20
4.337520
  0
VERTEX
  8
0
  6
CONTINUOUS
 10
3.797200
 20
4.341480
  0
VERTEX
  8
0
  6
CONTINUOUS
 10
3.797640
 20
4.398680
  0
VERTEX
  8
0
  6
CONTINUOUS
 10
5.433560
 20
4.396040
  0
VERTEX
  8
0
  6
CONTINUOUS
 10
5.433560
 20
4.418480
  0
VERTEX
  8
0
  6
CONTINUOUS
 10
5.442800
 20
4.418480
  0
VERTEX
  8
0
  6
CONTINUOUS
 10
5.489880
 20
4.422880
  0
VERTEX
  8
0
  6
CONTINUOUS
 10
5.534320
 20
4.430800
  0
VERTEX
  8
0
  6
CONTINUOUS
 10
5.576120
 20
4.442680
  0
VERTEX
  8
0
  6
CONTINUOUS
 10
5.614840
 20
4.458080
  0
VERTEX
  8
0
  6
CONTINUOUS
 10
5.650920
 20
4.477440
  0
VERTEX
  8
0
  6
CONTINUOUS
 10
5.683920
 20
4.499880
  0
VERTEX
  8
0
  6
CONTINUOUS
 10
5.713840
 20
4.525400
  0
VERTEX
  8
0
  6
CONTINUOUS
 10
5.740240
 20
4.554000
  0
VERTEX
  8
0
  6
CONTINUOUS
 10
5.763560
 20
4.585680
  0
VERTEX
  8
0
  6
CONTINUOUS
 10
5.783800
 20
4.620000
  0
VERTEX
  8
0
  6
CONTINUOUS
 10
5.800520
 20
4.657400
  0
VERTEX
  8
0
  6
CONTINUOUS
 10
5.813720
 20
4.697000
  0
VERTEX
  8
0
  6
CONTINUOUS
 10
5.823400
 20
4.738800
  0
VERTEX
  8
0
  6
CONTINUOUS
 10
5.829560
 20
4.783240
  0
VERTEX
  8
0
  6
CONTINUOUS
 10
5.831760
 20
4.829440
  0
VERTEX
  8
0
  6
CONTINUOUS
 10
5.830440
 20
4.877840
  0
VERTEX
  8
0
  6
CONTINUOUS
 10
5.829120
 20
4.880480
  0
VERTEX
  8
0
  6
CONTINUOUS
 10
2.658480
 20
4.886200
  0
VERTEX
  8
0
  6
CONTINUOUS
 10
2.657600
 20
4.424640
  0
VERTEX
  8
0
  6
CONTINUOUS
 10
2.758800
 20
4.424640
  0
VERTEX
  8
0
  6
CONTINUOUS
 10
2.757480
 20
4.418040
  0
SEQEND
  8
0
  0
TEXT
  8
0
 10
3.925240
 20
6.460960
 40
0.138074
  1
122
 41
1.000000
  7
SN0
 71
     0
 72
     5
 11
4.203427
 21
6.460960
  0
TEXT
  8
0
 10
3.635720
 20
6.269120
 40
0.138074
  1
1" x 3-7/16"
 41
1.000000
  7
SN0
 71
     0
 72
     5
 11
4.494358
 21
6.269120
  0
SOLID
  8
0
 62
     7
 10
3.290760
 20
7.581640
 11
3.285920
 21
8.241640
 12
3.354560
 22
7.527520
 13
3.349720
 23
8.187520
  0
POLYLINE
  8
0
  6
CONTINUOUS
 66
     1
 40
0.000000
 41
0.000000
  0
VERTEX
  8
0
  6
CONTINUOUS
 10
3.290760
 20
7.581640
  0
VERTEX
  8
0
  6
CONTINUOUS
 10
3.285920
 20
8.241640
  0
VERTEX
  8
0
  6
CONTINUOUS
 10
3.349720
 20
8.187520
  0
VERTEX
  8
0
  6
CONTINUOUS
 10
3.354560
 20
7.527520
  0
VERTEX
  8
0
  6
CONTINUOUS
 10
3.290760
 20
7.581640
  0
SEQEND
  8
0
  0
SOLID
  8
0
 62
    15
 10
2.408560
 20
7.461520
 11
2.403720
 21
8.121520
 12
2.453000
 22
7.473400
 13
2.448160
 23
8.133400
  0
POLYLINE
  8
0
  6
CONTINUOUS
 66
     1
 40
0.000000
 41
0.000000
  0
VERTEX
  8
0
  6
CONTINUOUS
 10
2.408560
 20
7.461520
  0
VERTEX
  8
0
  6
CONTINUOUS
 10
2.403720
 20
8.121520
  0
VERTEX
  8
0
  6
CONTINUOUS
 10
2.448160
 20
8.133400
  0
VERTEX
  8
0
  6
CONTINUOUS
 10
2.453000
 20
7.473400
  0
VERTEX
  8
0
  6
CONTINUOUS
 10
2.408560
 20
7.461520
  0
SEQEND
  8
0
  0
SOLID
  8
0
 62
    15
 10
2.453000
 20
7.473400
 11
2.448160
 21
8.133400
 12
2.490840
 22
7.488360
 13
2.486000
 23
8.148800
  0
POLYLINE
  8
0
  6
CONTINUOUS
 66
     1
 40
0.000000
 41
0.000000
  0
VERTEX
  8
0
  6
CONTINUOUS
 10
2.453000
 20
7.473400
  0
VERTEX
  8
0
  6
CONTINUOUS
 10
2.448160
 20
8.133400
  0
VERTEX
  8
0
  6
CONTINUOUS
 10
2.486000
 20
8.148800
  0
VERTEX
  8
0
  6
CONTINUOUS
 10
2.490840
 20
7.488360
  0
VERTEX
  8
0
  6
CONTINUOUS
 10
2.453000
 20
7.473400
  0
SEQEND
  8
0
  0
SOLID
  8
0
 62
    15
 10
2.490840
 20
7.488360
 11
2.486000
 21
8.148800
 12
2.523400
 22
7.506840
 13
2.518560
 23
8.166840
  0
POLYLINE
  8
0
  6
CONTINUOUS
 66
     1
 40
0.000000
 41
0.000000
  0
VERTEX
  8
0
  6
CONTINUOUS
 10
2.490840
 20
7.488360
  0
VERTEX
  8
0
  6
CONTINUOUS
 10
2.486000
 20
8.148800
  0
VERTEX
  8
0
  6
CONTINUOUS
 10
2.518560
 20
8.166840
  0
VERTEX
  8
0
  6
CONTINUOUS
 10
2.523400
 20
7.506840
  0
VERTEX
  8
0
  6
CONTINUOUS
 10
2.490840
 20
7.488360
  0
SEQEND
  8
0
  0
SOLID
  8
0
 62
    15
 10
2.523400
 20
7.506840
 11
2.518560
 21
8.166840
 12
2.577520
 22
7.549960
 13
2.572680
 23
8.210400
  0
POLYLINE
  8
0
  6
CONTINUOUS
 66
     1
 40
0.000000
 41
0.000000
  0
VERTEX
  8
0
  6
CONTINUOUS
 10
2.523400
 20
7.506840
  0
VERTEX
  8
0
  6
CONTINUOUS
 10
2.518560
 20
8.166840
  0
VERTEX
  8
0
  6
CONTINUOUS
 10
2.572680
 20
8.210400
  0
VERTEX
  8
0
  6
CONTINUOUS
 10
2.577520
 20
7.549960
  0
VERTEX
  8
0
  6
CONTINUOUS
 10
2.523400
 20
7.506840
  0
SEQEND
  8
0
  0
SOLID
  8
0
 62
    15
 10
2.577520
 20
7.549960
 11
2.572680
 21
8.210400
 12
2.624600
 22
7.598800
 13
2.619760
 23
8.258800
  0
POLYLINE
  8
0
  6
CONTINUOUS
 66
     1
 40
0.000000
 41
0.000000
  0
VERTEX
  8
0
  6
CONTINUOUS
 10
2.577520
 20
7.549960
  0
VERTEX
  8
0
  6
CONTINUOUS
 10
2.572680
 20
8.210400
  0
VERTEX
  8
0
  6
CONTINUOUS
 10
2.619760
 20
8.258800
  0
VERTEX
  8
0
  6
CONTINUOUS
 10
2.624600
 20
7.598800
  0
VERTEX
  8
0
  6
CONTINUOUS
 10
2.577520
 20
7.549960
  0
SEQEND
  8
0
  0
SOLID
  8
0
 62
    15
 10
2.624600
 20
7.598800
 11
2.619760
 21
8.258800
 12
2.674320
 22
7.647640
 13
2.669480
 23
8.307640
  0
POLYLINE
  8
0
  6
CONTINUOUS
 66
     1
 40
0.000000
 41
0.000000
  0
VERTEX
  8
0
  6
CONTINUOUS
 10
2.624600
 20
7.598800
  0
VERTEX
  8
0
  6
CONTINUOUS
 10
2.619760
 20
8.258800
  0
VERTEX
  8
0
  6
CONTINUOUS
 10
2.669480
 20
8.307640
  0
VERTEX
  8
0
  6
CONTINUOUS
 10
2.674320
 20
7.647640
  0
VERTEX
  8
0
  6
CONTINUOUS
 10
2.624600
 20
7.598800
  0
SEQEND
  8
0
  0
SOLID
  8
0
 62
    15
 10
2.674320
 20
7.647640
 11
2.669480
 21
8.307640
 12
2.736360
 22
7.692520
 13
2.731080
 23
8.352520
  0
POLYLINE
  8
0
  6
CONTINUOUS
 66
     1
 40
0.000000
 41
0.000000
  0
VERTEX
  8
0
  6
CONTINUOUS
 10
2.674320
 20
7.647640
  0
VERTEX
  8
0
  6
CONTINUOUS
 10
2.669480
 20
8.307640
  0
VERTEX
  8
0
  6
CONTINUOUS
 10
2.731080
 20
8.352520
  0
VERTEX
  8
0
  6
CONTINUOUS
 10
2.736360
 20
7.692520
  0
VERTEX
  8
0
  6
CONTINUOUS
 10
2.674320
 20
7.647640
  0
SEQEND
  8
0
  0
SOLID
  8
0
 62
    15
 10
2.736360
 20
7.692520
 11
2.731080
 21
8.352520
 12
2.774640
 22
7.711880
 13
2.769800
 23
8.371880
  0
POLYLINE
  8
0
  6
CONTINUOUS
 66
     1
 40
0.000000
 41
0.000000
  0
VERTEX
  8
0
  6
CONTINUOUS
 10
2.736360
 20
7.692520
  0
VERTEX
  8
0
  6
CONTINUOUS
 10
2.731080
 20
8.352520
  0
VERTEX
  8
0
  6
CONTINUOUS
 10
2.769800
 20
8.371880
  0
VERTEX
  8
0
  6
CONTINUOUS
 10
2.774640
 20
7.711880
  0
VERTEX
  8
0
  6
CONTINUOUS
 10
2.736360
 20
7.692520
  0
SEQEND
  8
0
  0
SOLID
  8
0
 62
    15
 10
2.774640
 20
7.711880
 11
2.769800
 21
8.371880
 12
2.819960
 22
7.728600
 13
2.815120
 23
8.388600
  0
POLYLINE
  8
0
  6
CONTINUOUS
 66
     1
 40
0.000000
 41
0.000000
  0
VERTEX
  8
0
  6
CONTINUOUS
 10
2.774640
 20
7.711880
  0
VERTEX
  8
0
  6
CONTINUOUS
 10
2.769800
 20
8.371880
  0
VERTEX
  8
0
  6
CONTINUOUS
 10
2.815120
 20
8.388600
  0
VERTEX
  8
0
  6
CONTINUOUS
 10
2.819960
 20
7.728600
  0
VERTEX
  8
0
  6
CONTINUOUS
 10
2.774640
 20
7.711880
  0
SEQEND
  8
0
  0
SOLID
  8
0
 62
    15
 10
2.819960
 20
7.728600
 11
2.815120
 21
8.388600
 12
2.872760
 22
7.741800
 13
2.867920
 23
8.401800
  0
POLYLINE
  8
0
  6
CONTINUOUS
 66
     1
 40
0.000000
 41
0.000000
  0
VERTEX
  8
0
  6
CONTINUOUS
 10
2.819960
 20
7.728600
  0
VERTEX
  8
0
  6
CONTINUOUS
 10
2.815120
 20
8.388600
  0
VERTEX
  8
0
  6
CONTINUOUS
 10
2.867920
 20
8.401800
  0
VERTEX
  8
0
  6
CONTINUOUS
 10
2.872760
 20
7.741800
  0
VERTEX
  8
0
  6
CONTINUOUS
 10
2.819960
 20
7.728600
  0
SEQEND
  8
0
  0
SOLID
  8
0
 62
    15
 10
2.872760
 20
7.741800
 11
2.867920
 21
8.401800
 12
2.934800
 22
7.751040
 13
2.929960
 23
8.411480
  0
POLYLINE
  8
0
  6
CONTINUOUS
 66
     1
 40
0.000000
 41
0.000000
  0
VERTEX
  8
0
  6
CONTINUOUS
 10
2.872760
 20
7.741800
  0
VERTEX
  8
0
  6
CONTINUOUS
 10
2.867920
 20
8.401800
  0
VERTEX
  8
0
  6
CONTINUOUS
 10
2.929960
 20
8.411480
  0
VERTEX
  8
0
  6
CONTINUOUS
 10
2.934800
 20
7.751040
  0
VERTEX
  8
0
  6
CONTINUOUS
 10
2.872760
 20
7.741800
  0
SEQEND
  8
0
  0
SOLID
  8
0
 62
    15
 10
2.934800
 20
7.751040
 11
2.929960
 21
8.411480
 12
3.008280
 22
7.742240
 13
3.003440
 23
8.402240
  0
POLYLINE
  8
0
  6
CONTINUOUS
 66
     1
 40
0.000000
 41
0.000000
  0
VERTEX
  8
0
  6
CONTINUOUS
 10
2.934800
 20
7.751040
  0
VERTEX
  8
0
  6
CONTINUOUS
 10
2.929960
 20
8.411480
  0
VERTEX
  8
0
  6
CONTINUOUS
 10
3.003440
 20
8.402240
  0
VERTEX
  8
0
  6
CONTINUOUS
 10
3.008280
 20
7.742240
  0
VERTEX
  8
0
  6
CONTINUOUS
 10
2.934800
 20
7.751040
  0
SEQEND
  8
0
  0
SOLID
  8
0
 62
     7
 10
3.008280
 20
7.742240
 11
3.003440
 21
8.402240
 12
3.069440
 22
7.728160
 13
3.064600
 23
8.388160
  0
POLYLINE
  8
0
  6
CONTINUOUS
 66
     1
 40
0.000000
 41
0.000000
  0
VERTEX
  8
0
  6
CONTINUOUS
 10
3.008280
 20
7.742240
  0
VERTEX
  8
0
  6
CONTINUOUS
 10
3.003440
 20
8.402240
  0
VERTEX
  8
0
  6
CONTINUOUS
 10
3.064600
 20
8.388160
  0
VERTEX
  8
0
  6
CONTINUOUS
 10
3.069440
 20
7.728160
  0
VERTEX
  8
0
  6
CONTINUOUS
 10
3.008280
 20
7.742240
  0
SEQEND
  8
0
  0
SOLID
  8
0
 62
     7
 10
3.069440
 20
7.728160
 11
3.064600
 21
8.388160
 12
3.120480
 22
7.710120
 13
3.115640
 23
8.370120
  0
POLYLINE
  8
0
  6
CONTINUOUS
 66
     1
 40
0.000000
 41
0.000000
  0
VERTEX
  8
0
  6
CONTINUOUS
 10
3.069440
 20
7.728160
  0
VERTEX
  8
0
  6
CONTINUOUS
 10
3.064600
 20
8.388160
  0
VERTEX
  8
0
  6
CONTINUOUS
 10
3.115640
 20
8.370120
  0
VERTEX
  8
0
  6
CONTINUOUS
 10
3.120480
 20
7.710120
  0
VERTEX
  8
0
  6
CONTINUOUS
 10
3.069440
 20
7.728160
  0
SEQEND
  8
0
  0
SOLID
  8
0
 62
     7
 10
3.120480
 20
7.710120
 11
3.115640
 21
8.370120
 12
3.163600
 22
7.688120
 13
3.158320
 23
8.348120
  0
POLYLINE
  8
0
  6
CONTINUOUS
 66
     1
 40
0.000000
 41
0.000000
  0
VERTEX
  8
0
  6
CONTINUOUS
 10
3.120480
 20
7.710120
  0
VERTEX
  8
0
  6
CONTINUOUS
 10
3.115640
 20
8.370120
  0
VERTEX
  8
0
  6
CONTINUOUS
 10
3.158320
 20
8.348120
  0
VERTEX
  8
0
  6
CONTINUOUS
 10
3.163600
 20
7.688120
  0
VERTEX
  8
0
  6
CONTINUOUS
 10
3.120480
 20
7.710120
  0
SEQEND
  8
0
  0
SOLID
  8
0
 62
     7
 10
3.163600
 20
7.688120
 11
3.158320
 21
8.348120
 12
3.200120
 22
7.663920
 13
3.194840
 23
8.323920
  0
POLYLINE
  8
0
  6
CONTINUOUS
 66
     1
 40
0.000000
 41
0.000000
  0
VERTEX
  8
0
  6
CONTINUOUS
 10
3.163600
 20
7.688120
  0
VERTEX
  8
0
  6
CONTINUOUS
 10
3.158320
 20
8.348120
  0
VERTEX
  8
0
  6
CONTINUOUS
 10
3.194840
 20
8.323920
  0
VERTEX
  8
0
  6
CONTINUOUS
 10
3.200120
 20
7.663920
  0
VERTEX
  8
0
  6
CONTINUOUS
 10
3.163600
 20
7.688120
  0
SEQEND
  8
0
  0
SOLID
  8
0
 62
     7
 10
3.200120
 20
7.663920
 11
3.194840
 21
8.323920
 12
3.231800
 22
7.637520
 13
3.226960
 23
8.297520
  0
POLYLINE
  8
0
  6
CONTINUOUS
 66
     1
 40
0.000000
 41
0.000000
  0
VERTEX
  8
0
  6
CONTINUOUS
 10
3.200120
 20
7.663920
  0
VERTEX
  8
0
  6
CONTINUOUS
 10
3.194840
 20
8.323920
  0
VERTEX
  8
0
  6
CONTINUOUS
 10
3.226960
 20
8.297520
  0
VERTEX
  8
0
  6
CONTINUOUS
 10
3.231800
 20
7.637520
  0
VERTEX
  8
0
  6
CONTINUOUS
 10
3.200120
 20
7.663920
  0
SEQEND
  8
0
  0
SOLID
  8
0
 62
     7
 10
3.231800
 20
7.637520
 11
3.226960
 21
8.297520
 12
3.261720
 22
7.609800
 13
3.256880
 23
8.269800
  0
POLYLINE
  8
0
  6
CONTINUOUS
 66
     1
 40
0.000000
 41
0.000000
  0
VERTEX
  8
0
  6
CONTINUOUS
 10
3.231800
 20
7.637520
  0
VERTEX
  8
0
  6
CONTINUOUS
 10
3.226960
 20
8.297520
  0
VERTEX
  8
0
  6
CONTINUOUS
 10
3.256880
 20
8.269800
  0
VERTEX
  8
0
  6
CONTINUOUS
 10
3.261720
 20
7.609800
  0
VERTEX
  8
0
  6
CONTINUOUS
 10
3.231800
 20
7.637520
  0
SEQEND
  8
0
  0
SOLID
  8
0
 62
     7
 10
3.261720
 20
7.609800
 11
3.256880
 21
8.269800
 12
3.290760
 22
7.581640
 13
3.285920
 23
8.241640
  0
POLYLINE
  8
0
  6
CONTINUOUS
 66
     1
 40
0.000000
 41
0.000000
  0
VERTEX
  8
0
  6
CONTINUOUS
 10
3.261720
 20
7.609800
  0
VERTEX
  8
0
  6
CONTINUOUS
 10
3.256880
 20
8.269800
  0
VERTEX
  8
0
  6
CONTINUOUS
 10
3.285920
 20
8.241640
  0
VERTEX
  8
0
  6
CONTINUOUS
 10
3.290760
 20
7.581640
  0
VERTEX
  8
0
  6
CONTINUOUS
 10
3.261720
 20
7.609800
  0
SEQEND
  8
0
  0
SOLID
  8
0
 62
    15
 10
2.356200
 20
7.450080
 11
2.351360
 21
8.110080
 12
2.356200
 22
7.454040
 13
2.351360
 23
8.114040
  0
POLYLINE
  8
0
  6
CONTINUOUS
 66
     1
 40
0.000000
 41
0.000000
  0
VERTEX
  8
0
  6
CONTINUOUS
 10
2.356200
 20
7.450080
  0
VERTEX
  8
0
  6
CONTINUOUS
 10
2.351360
 20
8.110080
  0
VERTEX
  8
0
  6
CONTINUOUS
 10
2.351360
 20
8.114040
  0
VERTEX
  8
0
  6
CONTINUOUS
 10
2.356200
 20
7.454040
  0
VERTEX
  8
0
  6
CONTINUOUS
 10
2.356200
 20
7.450080
  0
SEQEND
  8
0
  0
SOLID
  8
0
 62
     7
 10
3.354560
 20
7.527520
 11
3.349720
 21
8.187520
 12
3.393280
 22
7.502880
 13
3.388440
 23
8.162880
  0
POLYLINE
  8
0
  6
CONTINUOUS
 66
     1
 40
0.000000
 41
0.000000
  0
VERTEX
  8
0
  6
CONTINUOUS
 10
3.354560
 20
7.527520
  0
VERTEX
  8
0
  6
CONTINUOUS
 10
3.349720
 20
8.187520
  0
VERTEX
  8
0
  6
CONTINUOUS
 10
3.388440
 20
8.162880
  0
VERTEX
  8
0
  6
CONTINUOUS
 10
3.393280
 20
7.502880
  0
VERTEX
  8
0
  6
CONTINUOUS
 10
3.354560
 20
7.527520
  0
SEQEND
  8
0
  0
SOLID
  8
0
 62
     7
 10
3.393280
 20
7.502880
 11
3.388440
 21
8.162880
 12
3.439480
 22
7.480880
 13
3.434200
 23
8.141320
  0
POLYLINE
  8
0
  6
CONTINUOUS
 66
     1
 40
0.000000
 41
0.000000
  0
VERTEX
  8
0
  6
CONTINUOUS
 10
3.393280
 20
7.502880
  0
VERTEX
  8
0
  6
CONTINUOUS
 10
3.388440
 20
8.162880
  0
VERTEX
  8
0
  6
CONTINUOUS
 10
3.434200
 20
8.141320
  0
VERTEX
  8
0
  6
CONTINUOUS
 10
3.439480
 20
7.480880
  0
VERTEX
  8
0
  6
CONTINUOUS
 10
3.393280
 20
7.502880
  0
SEQEND
  8
0
  0
SOLID
  8
0
 62
     7
 10
3.439480
 20
7.480880
 11
3.434200
 21
8.141320
 12
3.494040
 22
7.462400
 13
3.489200
 23
8.122400
  0
POLYLINE
  8
0
  6
CONTINUOUS
 66
     1
 40
0.000000
 41
0.000000
  0
VERTEX
  8
0
  6
CONTINUOUS
 10
3.439480
 20
7.480880
  0
VERTEX
  8
0
  6
CONTINUOUS
 10
3.434200
 20
8.141320
  0
VERTEX
  8
0
  6
CONTINUOUS
 10
3.489200
 20
8.122400
  0
VERTEX
  8
0
  6
CONTINUOUS
 10
3.494040
 20
7.462400
  0
VERTEX
  8
0
  6
CONTINUOUS
 10
3.439480
 20
7.480880
  0
SEQEND
  8
0
  0
SOLID
  8
0
 62
     7
 10
3.494040
 20
7.462400
 11
3.489200
 21
8.122400
 12
3.560040
 22
7.448320
 13
3.555200
 23
8.108320
  0
POLYLINE
  8
0
  6
CONTINUOUS
 66
     1
 40
0.000000
 41
0.000000
  0
VERTEX
  8
0
  6
CONTINUOUS
 10
3.494040
 20
7.462400
  0
VERTEX
  8
0
  6
CONTINUOUS
 10
3.489200
 20
8.122400
  0
VERTEX
  8
0
  6
CONTINUOUS
 10
3.555200
 20
8.108320
  0
VERTEX
  8
0
  6
CONTINUOUS
 10
3.560040
 20
7.448320
  0
VERTEX
  8
0
  6
CONTINUOUS
 10
3.494040
 20
7.462400
  0
SEQEND
  8
0
  0
SOLID
  8
0
 62
     7
 10
3.560040
 20
7.448320
 11
3.555200
 21
8.108320
 12
3.638800
 22
7.439080
 13
3.633960
 23
8.099080
  0
POLYLINE
  8
0
  6
CONTINUOUS
 66
     1
 40
0.000000
 41
0.000000
  0
VERTEX
  8
0
  6
CONTINUOUS
 10
3.560040
 20
7.448320
  0
VERTEX
  8
0
  6
CONTINUOUS
 10
3.555200
 20
8.108320
  0
VERTEX
  8
0
  6
CONTINUOUS
 10
3.633960
 20
8.099080
  0
VERTEX
  8
0
  6
CONTINUOUS
 10
3.638800
 20
7.439080
  0
VERTEX
  8
0
  6
CONTINUOUS
 10
3.560040
 20
7.448320
  0
SEQEND
  8
0
  0
SOLID
  8
0
 62
    15
 10
3.638800
 20
7.439080
 11
3.633960
 21
8.099080
 12
3.732080
 22
7.435120
 13
3.727240
 23
8.095120
  0
POLYLINE
  8
0
  6
CONTINUOUS
 66
     1
 40
0.000000
 41
0.000000
  0
VERTEX
  8
0
  6
CONTINUOUS
 10
3.638800
 20
7.439080
  0
VERTEX
  8
0
  6
CONTINUOUS
 10
3.633960
 20
8.099080
  0
VERTEX
  8
0
  6
CONTINUOUS
 10
3.727240
 20
8.095120
  0
VERTEX
  8
0
  6
CONTINUOUS
 10
3.732080
 20
7.435120
  0
VERTEX
  8
0
  6
CONTINUOUS
 10
3.638800
 20
7.439080
  0
SEQEND
  8
0
  0
SOLID
  8
0
 62
     7
 10
5.356120
 20
7.234040
 11
5.351280
 21
7.894040
 12
5.403640
 22
7.226560
 13
5.398800
 23
7.886560
  0
POLYLINE
  8
0
  6
CONTINUOUS
 66
     1
 40
0.000000
 41
0.000000
  0
VERTEX
  8
0
  6
CONTINUOUS
 10
5.356120
 20
7.234040
  0
VERTEX
  8
0
  6
CONTINUOUS
 10
5.351280
 20
7.894040
  0
VERTEX
  8
0
  6
CONTINUOUS
 10
5.398800
 20
7.886560
  0
VERTEX
  8
0
  6
CONTINUOUS
 10
5.403640
 20
7.226560
  0
VERTEX
  8
0
  6
CONTINUOUS
 10
5.356120
 20
7.234040
  0
SEQEND
  8
0
  0
SOLID
  8
0
 62
    15
 10
3.735160
 20
7.348440
 11
3.729880
 21
8.008440
 12
5.356120
 22
7.348440
 13
5.351280
 23
8.008440
  0
POLYLINE
  8
0
  6
CONTINUOUS
 66
     1
 40
0.000000
 41
0.000000
  0
VERTEX
  8
0
  6
CONTINUOUS
 10
3.735160
 20
7.348440
  0
VERTEX
  8
0
  6
CONTINUOUS
 10
3.729880
 20
8.008440
  0
VERTEX
  8
0
  6
CONTINUOUS
 10
5.351280
 20
8.008440
  0
VERTEX
  8
0
  6
CONTINUOUS
 10
5.356120
 20
7.348440
  0
VERTEX
  8
0
  6
CONTINUOUS
 10
3.735160
 20
7.348440
  0
SEQEND
  8
0
  0
SOLID
  8
0
 62
    15
 10
3.732080
 20
7.435120
 11
3.727240
 21
8.095120
 12
3.735160
 22
7.435120
 13
3.729880
 23
8.095120
  0
POLYLINE
  8
0
  6
CONTINUOUS
 66
     1
 40
0.000000
 41
0.000000
  0
VERTEX
  8
0
  6
CONTINUOUS
 10
3.732080
 20
7.435120
  0
VERTEX
  8
0
  6
CONTINUOUS
 10
3.727240
 20
8.095120
  0
VERTEX
  8
0
  6
CONTINUOUS
 10
3.729880
 20
8.095120
  0
VERTEX
  8
0
  6
CONTINUOUS
 10
3.735160
 20
7.435120
  0
VERTEX
  8
0
  6
CONTINUOUS
 10
3.732080
 20
7.435120
  0
SEQEND
  8
0
  0
SOLID
  8
0
 62
     7
 10
5.403640
 20
7.226560
 11
5.398800
 21
7.886560
 12
5.448520
 22
7.214680
 13
5.443680
 23
7.874680
  0
POLYLINE
  8
0
  6
CONTINUOUS
 66
     1
 40
0.000000
 41
0.000000
  0
VERTEX
  8
0
  6
CONTINUOUS
 10
5.403640
 20
7.226560
  0
VERTEX
  8
0
  6
CONTINUOUS
 10
5.398800
 20
7.886560
  0
VERTEX
  8
0
  6
CONTINUOUS
 10
5.443680
 20
7.874680
  0
VERTEX
  8
0
  6
CONTINUOUS
 10
5.448520
 20
7.214680
  0
VERTEX
  8
0
  6
CONTINUOUS
 10
5.403640
 20
7.226560
  0
SEQEND
  8
0
  0
SOLID
  8
0
 62
     7
 10
5.448520
 20
7.214680
 11
5.443680
 21
7.874680
 12
5.532120
 22
7.178600
 13
5.527280
 23
7.838600
  0
POLYLINE
  8
0
  6
CONTINUOUS
 66
     1
 40
0.000000
 41
0.000000
  0
VERTEX
  8
0
  6
CONTINUOUS
 10
5.448520
 20
7.214680
  0
VERTEX
  8
0
  6
CONTINUOUS
 10
5.443680
 20
7.874680
  0
VERTEX
  8
0
  6
CONTINUOUS
 10
5.527280
 20
7.838600
  0
VERTEX
  8
0
  6
CONTINUOUS
 10
5.532120
 20
7.178600
  0
VERTEX
  8
0
  6
CONTINUOUS
 10
5.448520
 20
7.214680
  0
SEQEND
  8
0
  0
SOLID
  8
0
 62
     7
 10
5.532120
 20
7.178600
 11
5.527280
 21
7.838600
 12
5.605160
 22
7.128000
 13
5.600320
 23
7.788000
  0
POLYLINE
  8
0
  6
CONTINUOUS
 66
     1
 40
0.000000
 41
0.000000
  0
VERTEX
  8
0
  6
CONTINUOUS
 10
5.532120
 20
7.178600
  0
VERTEX
  8
0
  6
CONTINUOUS
 10
5.527280
 20
7.838600
  0
VERTEX
  8
0
  6
CONTINUOUS
 10
5.600320
 20
7.788000
  0
VERTEX
  8
0
  6
CONTINUOUS
 10
5.605160
 20
7.128000
  0
VERTEX
  8
0
  6
CONTINUOUS
 10
5.532120
 20
7.178600
  0
SEQEND
  8
0
  0
SOLID
  8
0
 62
    15
 10
5.605160
 20
7.128000
 11
5.600320
 21
7.788000
 12
5.667200
 22
7.065520
 13
5.662360
 23
7.725520
  0
POLYLINE
  8
0
  6
CONTINUOUS
 66
     1
 40
0.000000
 41
0.000000
  0
VERTEX
  8
0
  6
CONTINUOUS
 10
5.605160
 20
7.128000
  0
VERTEX
  8
0
  6
CONTINUOUS
 10
5.600320
 20
7.788000
  0
VERTEX
  8
0
  6
CONTINUOUS
 10
5.662360
 20
7.725520
  0
VERTEX
  8
0
  6
CONTINUOUS
 10
5.667200
 20
7.065520
  0
VERTEX
  8
0
  6
CONTINUOUS
 10
5.605160
 20
7.128000
  0
SEQEND
  8
0
  0
SOLID
  8
0
 62
    15
 10
5.667200
 20
7.065520
 11
5.662360
 21
7.725520
 12
5.716040
 22
6.993800
 13
5.711200
 23
7.654240
  0
POLYLINE
  8
0
  6
CONTINUOUS
 66
     1
 40
0.000000
 41
0.000000
  0
VERTEX
  8
0
  6
CONTINUOUS
 10
5.667200
 20
7.065520
  0
VERTEX
  8
0
  6
CONTINUOUS
 10
5.662360
 20
7.725520
  0
VERTEX
  8
0
  6
CONTINUOUS
 10
5.711200
 20
7.654240
  0
VERTEX
  8
0
  6
CONTINUOUS
 10
5.716040
 20
6.993800
  0
VERTEX
  8
0
  6
CONTINUOUS
 10
5.667200
 20
7.065520
  0
SEQEND
  8
0
  0
SOLID
  8
0
 62
    15
 10
5.751240
 20
6.915920
 11
5.746400
 21
7.575920
 12
5.771480
 22
6.833640
 13
5.766200
 23
7.493640
  0
POLYLINE
  8
0
  6
CONTINUOUS
 66
     1
 40
0.000000
 41
0.000000
  0
VERTEX
  8
0
  6
CONTINUOUS
 10
5.751240
 20
6.915920
  0
VERTEX
  8
0
  6
CONTINUOUS
 10
5.746400
 20
7.575920
  0
VERTEX
  8
0
  6
CONTINUOUS
 10
5.766200
 20
7.493640
  0
VERTEX
  8
0
  6
CONTINUOUS
 10
5.771480
 20
6.833640
  0
VERTEX
  8
0
  6
CONTINUOUS
 10
5.751240
 20
6.915920
  0
SEQEND
  8
0
  0
SOLID
  8
0
 62
    15
 10
5.716040
 20
6.993800
 11
5.711200
 21
7.654240
 12
5.751240
 22
6.915920
 13
5.746400
 23
7.575920
  0
POLYLINE
  8
0
  6
CONTINUOUS
 66
     1
 40
0.000000
 41
0.000000
  0
VERTEX
  8
0
  6
CONTINUOUS
 10
5.716040
 20
6.993800
  0
VERTEX
  8
0
  6
CONTINUOUS
 10
5.711200
 20
7.654240
  0
VERTEX
  8
0
  6
CONTINUOUS
 10
5.746400
 20
7.575920
  0
VERTEX
  8
0
  6
CONTINUOUS
 10
5.751240
 20
6.915920
  0
VERTEX
  8
0
  6
CONTINUOUS
 10
5.716040
 20
6.993800
  0
SEQEND
  8
0
  0
SOLID
  8
0
 62
    15
 10
5.775000
 20
6.750040
 11
5.770160
 21
7.410040
 12
5.776320
 22
6.747400
 13
5.771480
 23
7.407400
  0
POLYLINE
  8
0
  6
CONTINUOUS
 66
     1
 40
0.000000
 41
0.000000
  0
VERTEX
  8
0
  6
CONTINUOUS
 10
5.775000
 20
6.750040
  0
VERTEX
  8
0
  6
CONTINUOUS
 10
5.770160
 20
7.410040
  0
VERTEX
  8
0
  6
CONTINUOUS
 10
5.771480
 20
7.407400
  0
VERTEX
  8
0
  6
CONTINUOUS
 10
5.776320
 20
6.747400
  0
VERTEX
  8
0
  6
CONTINUOUS
 10
5.775000
 20
6.750040
  0
SEQEND
  8
0
  0
SOLID
  8
0
 62
    15
 10
5.771480
 20
6.833640
 11
5.766200
 21
7.493640
 12
5.775000
 22
6.750040
 13
5.770160
 23
7.410040
  0
POLYLINE
  8
0
  6
CONTINUOUS
 66
     1
 40
0.000000
 41
0.000000
  0
VERTEX
  8
0
  6
CONTINUOUS
 10
5.771480
 20
6.833640
  0
VERTEX
  8
0
  6
CONTINUOUS
 10
5.766200
 20
7.493640
  0
VERTEX
  8
0
  6
CONTINUOUS
 10
5.770160
 20
7.410040
  0
VERTEX
  8
0
  6
CONTINUOUS
 10
5.775000
 20
6.750040
  0
VERTEX
  8
0
  6
CONTINUOUS
 10
5.771480
 20
6.833640
  0
SEQEND
  8
0
  0
SOLID
  8
0
 62
    15
 10
2.356200
 20
6.747400
 11
2.351360
 21
7.407400
 12
2.356200
 22
7.450080
 13
2.351360
 23
8.110080
  0
POLYLINE
  8
0
  6
CONTINUOUS
 66
     1
 40
0.000000
 41
0.000000
  0
VERTEX
  8
0
  6
CONTINUOUS
 10
2.356200
 20
6.747400
  0
VERTEX
  8
0
  6
CONTINUOUS
 10
2.351360
 20
7.407400
  0
VERTEX
  8
0
  6
CONTINUOUS
 10
2.351360
 20
8.110080
  0
VERTEX
  8
0
  6
CONTINUOUS
 10
2.356200
 20
7.450080
  0
VERTEX
  8
0
  6
CONTINUOUS
 10
2.356200
 20
6.747400
  0
SEQEND
  8
0
  0
SOLID
  8
0
 62
    15
 10
2.356200
 20
7.454040
 11
2.351360
 21
8.114040
 12
2.408560
 22
7.461520
 13
2.403720
 23
8.121520
  0
POLYLINE
  8
0
  6
CONTINUOUS
 66
     1
 40
0.000000
 41
0.000000
  0
VERTEX
  8
0
  6
CONTINUOUS
 10
2.356200
 20
7.454040
  0
VERTEX
  8
0
  6
CONTINUOUS
 10
2.351360
 20
8.114040
  0
VERTEX
  8
0
  6
CONTINUOUS
 10
2.403720
 20
8.121520
  0
VERTEX
  8
0
  6
CONTINUOUS
 10
2.408560
 20
7.461520
  0
VERTEX
  8
0
  6
CONTINUOUS
 10
2.356200
 20
7.454040
  0
SEQEND
  8
0
  0
POLYLINE
  8
0
  6
CONTINUOUS
 66
     1
 40
0.000000
 41
0.000000
  0
VERTEX
  8
0
  6
CONTINUOUS
 10
2.356200
 20
7.454040
  0
VERTEX
  8
0
  6
CONTINUOUS
 10
2.408560
 20
7.461520
  0
VERTEX
  8
0
  6
CONTINUOUS
 10
2.453000
 20
7.473400
  0
VERTEX
  8
0
  6
CONTINUOUS
 10
2.490840
 20
7.488360
  0
VERTEX
  8
0
  6
CONTINUOUS
 10
2.523400
 20
7.506840
  0
VERTEX
  8
0
  6
CONTINUOUS
 10
2.577520
 20
7.549960
  0
VERTEX
  8
0
  6
CONTINUOUS
 10
2.624600
 20
7.598800
  0
VERTEX
  8
0
  6
CONTINUOUS
 10
2.674320
 20
7.647640
  0
VERTEX
  8
0
  6
CONTINUOUS
 10
2.736360
 20
7.692520
  0
VERTEX
  8
0
  6
CONTINUOUS
 10
2.774640
 20
7.711880
  0
VERTEX
  8
0
  6
CONTINUOUS
 10
2.819960
 20
7.728600
  0
VERTEX
  8
0
  6
CONTINUOUS
 10
2.872760
 20
7.741800
  0
VERTEX
  8
0
  6
CONTINUOUS
 10
2.934800
 20
7.751040
  0
VERTEX
  8
0
  6
CONTINUOUS
 10
3.008280
 20
7.742240
  0
VERTEX
  8
0
  6
CONTINUOUS
 10
3.069440
 20
7.728160
  0
VERTEX
  8
0
  6
CONTINUOUS
 10
3.120480
 20
7.710120
  0
VERTEX
  8
0
  6
CONTINUOUS
 10
3.163600
 20
7.688120
  0
VERTEX
  8
0
  6
CONTINUOUS
 10
3.200120
 20
7.663920
  0
VERTEX
  8
0
  6
CONTINUOUS
 10
3.231800
 20
7.637520
  0
VERTEX
  8
0
  6
CONTINUOUS
 10
3.261720
 20
7.609800
  0
VERTEX
  8
0
  6
CONTINUOUS
 10
3.290760
 20
7.581640
  0
VERTEX
  8
0
  6
CONTINUOUS
 10
3.354560
 20
7.527520
  0
VERTEX
  8
0
  6
CONTINUOUS
 10
3.393280
 20
7.502880
  0
VERTEX
  8
0
  6
CONTINUOUS
 10
3.439480
 20
7.480880
  0
VERTEX
  8
0
  6
CONTINUOUS
 10
3.494040
 20
7.462400
  0
VERTEX
  8
0
  6
CONTINUOUS
 10
3.560040
 20
7.448320
  0
VERTEX
  8
0
  6
CONTINUOUS
 10
3.638800
 20
7.439080
  0
VERTEX
  8
0
  6
CONTINUOUS
 10
3.732080
 20
7.435120
  0
VERTEX
  8
0
  6
CONTINUOUS
 10
3.735160
 20
7.435120
  0
VERTEX
  8
0
  6
CONTINUOUS
 10
3.735160
 20
7.348440
  0
VERTEX
  8
0
  6
CONTINUOUS
 10
5.356120
 20
7.348440
  0
VERTEX
  8
0
  6
CONTINUOUS
 10
5.356120
 20
7.234040
  0
VERTEX
  8
0
  6
CONTINUOUS
 10
5.403640
 20
7.226560
  0
VERTEX
  8
0
  6
CONTINUOUS
 10
5.448520
 20
7.214680
  0
VERTEX
  8
0
  6
CONTINUOUS
 10
5.532120
 20
7.178600
  0
VERTEX
  8
0
  6
CONTINUOUS
 10
5.605160
 20
7.128000
  0
VERTEX
  8
0
  6
CONTINUOUS
 10
5.667200
 20
7.065520
  0
VERTEX
  8
0
  6
CONTINUOUS
 10
5.716040
 20
6.993800
  0
VERTEX
  8
0
  6
CONTINUOUS
 10
5.751240
 20
6.915920
  0
VERTEX
  8
0
  6
CONTINUOUS
 10
5.771480
 20
6.833640
  0
VERTEX
  8
0
  6
CONTINUOUS
 10
5.775000
 20
6.750040
  0
VERTEX
  8
0
  6
CONTINUOUS
 10
5.776320
 20
6.747400
  0
VERTEX
  8
0
  6
CONTINUOUS
 10
2.356200
 20
6.747400
  0
VERTEX
  8
0
  6
CONTINUOUS
 10
2.356200
 20
7.450080
  0
VERTEX
  8
0
  6
CONTINUOUS
 10
2.356200
 20
7.454040
  0
SEQEND
  8
0
  0
TEXT
  8
0
 10
2.457840
 20
6.838040
 40
0.073733
  1
122 can be used as a plinth for 118
 41
1.000000
  7
SN0
 71
     0
 72
     5
 11
3.857994
 21
6.838040
  0
ENDSEC
  0
EOF
