  0
SECTION
  2
HEADER
  9
$ACADVER
  1
AC1006
  9
$EXTMIN
 10
0.995720
 20
0.975040
  9
$EXTMAX
 10
7.083120
 20
5.512760
  9
$LTSCALE
 40
0.044000
  9
$PDMODE
 70
    35
  9
$PDSIZE
 40
0.035200
  0
ENDSEC
  0
SECTION
  2
TABLES
  0
TABLE
  2
LTYPE
 70
     9
  0
LTYPE
  2
CONTINUOUS
 70
    64
  3
Solid line
 72
    65
 73
     0
 40
0.000000
  0
LTYPE
  2
DASHED
 70
    64
  3
__ __ __ __ __ __ __ __ __ __ __ __ __ __ __
 72
    65
 73
     2
 40
0.000330
 49
0.000220
 49
-0.000110
  0
LTYPE
  2
HIDDEN
 70
    64
  3
 _ _ _ _ _ _ _ _ _ _ _ _ _ _ _ _ _ _ _ _ _ _
 72
    65
 73
     2
 40
0.000165
 49
0.000110
 49
-0.000055
  0
LTYPE
  2
CENTER
 70
    64
  3
____ _ ____ _ ____ _ ____ _ ____ _ ____ _ ____
 72
    65
 73
     4
 40
0.000880
 49
0.000550
 49
-0.000110
 49
0.000110
 49
-0.000110
  0
LTYPE
  2
PHANTOM
 70
    64
  3
_____ _ _ _____ _ _ _____ _ _ _____ _ _ ____
 72
    65
 73
     6
 40
0.001100
 49
0.000550
 49
-0.000110
 49
0.000110
 49
-0.000110
 49
0.000110
 49
-0.000110
  0
LTYPE
  2
DOT
 70
    64
  3
...............................................
 72
    65
 73
     2
 40
0.000110
 49
0.000000
 49
-0.000110
  0
LTYPE
  2
DASHDOT
 70
    64
  3
__ . __ . __ . __ . __ . __ . __ . __ . __ . __
 72
    65
 73
     4
 40
0.000440
 49
0.000220
 49
-0.000110
 49
0.000000
 49
-0.000110
  0
LTYPE
  2
BORDER
 70
    64
  3
__ __ . __ __ . __ __ . __ __ . __ __ . __ __
 72
    65
 73
     6
 40
0.000770
 49
0.000220
 49
-0.000110
 49
0.000220
 49
-0.000110
 49
0.000000
 49
-0.000110
  0
LTYPE
  2
DIVIDE
 70
    64
  3
__ . . __ . . __ . . __ . . __ . . __ . . __
 72
    65
 73
     6
 40
0.000550
 49
0.000220
 49
-0.000110
 49
0.000000
 49
-0.000110
 49
0.000000
 49
-0.000110
  0
LTYPE
  2
DOTDOT
 70
    64
  3
 . .  . .  . .  . .  . .  . . 
 72
    65
 73
     5
 40
0.000242
 49
-0.000110
 49
0.000000
 49
-0.000110
 49
0.000000
 49
-0.000110
  0
ENDTAB
  0
TABLE
  2
STYLE
 70
     2
  0
STYLE
 70
     0
  2
SN0
 40
0.000000
 41
0.000440
 50
0.000000
 71
     0
 42
0.000000
  3
ROMAND
  0
STYLE
 70
    68
  2
SV0
 40
0.000000
 41
0.000440
 50
0.000000
 71
     0
 42
0.000000
  3
ROMAND
  0
ENDTAB
  0
TABLE
  2
LAYER
 70
     3
  0
LAYER
  2
FOREGROUND
 70
    64
 62
     7
  6
CONTINUOUS
  0
LAYER
  2
BACKGROUND
 70
    65
 62
    -7
  6
CONTINUOUS
  0
LAYER
  2
0
 70
    64
 62
     7
  6
CONTINUOUS
  0
ENDTAB
  0
ENDSEC
  0
SECTION
  2
ENTITIES
  0
POLYLINE
  8
FOREGROUND
  6
CONTINUOUS
 66
     1
 40
0.000000
 41
0.000000
  0
VERTEX
  8
FOREGROUND
  6
CONTINUOUS
 10
0.000000
 20
6.487800
  0
VERTEX
  8
FOREGROUND
  6
CONTINUOUS
 10
8.499920
 20
6.487800
  0
VERTEX
  8
FOREGROUND
  6
CONTINUOUS
 10
8.499920
 20
-4.512200
  0
VERTEX
  8
FOREGROUND
  6
CONTINUOUS
 10
0.000000
 20
-4.512200
  0
VERTEX
  8
FOREGROUND
  6
CONTINUOUS
 10
0.000000
 20
6.487800
  0
SEQEND
  8
0
  0
POLYLINE
  8
FOREGROUND
  6
CONTINUOUS
 66
     1
 40
0.000000
 41
0.000000
  0
VERTEX
  8
FOREGROUND
  6
CONTINUOUS
 10
0.000000
 20
6.487800
  0
VERTEX
  8
FOREGROUND
  6
CONTINUOUS
 10
8.499920
 20
6.487800
  0
VERTEX
  8
FOREGROUND
  6
CONTINUOUS
 10
8.499920
 20
-4.512200
  0
VERTEX
  8
FOREGROUND
  6
CONTINUOUS
 10
0.000000
 20
-4.512200
  0
VERTEX
  8
FOREGROUND
  6
CONTINUOUS
 10
0.000000
 20
6.487800
  0
SEQEND
  8
0
  0
POLYLINE
  8
0
  6
CONTINUOUS
 66
     1
 40
0.014080
 41
0.014080
  0
VERTEX
  8
0
  6
CONTINUOUS
 10
6.222480
 20
3.803360
  0
VERTEX
  8
0
  6
CONTINUOUS
 10
6.269120
 20
3.804240
  0
VERTEX
  8
0
  6
CONTINUOUS
 10
6.314000
 20
3.806440
  0
VERTEX
  8
0
  6
CONTINUOUS
 10
6.399800
 20
3.815680
  0
VERTEX
  8
0
  6
CONTINUOUS
 10
6.440280
 20
3.822280
  0
VERTEX
  8
0
  6
CONTINUOUS
 10
6.479000
 20
3.830200
  0
VERTEX
  8
0
  6
CONTINUOUS
 10
6.552040
 20
3.850440
  0
VERTEX
  8
0
  6
CONTINUOUS
 10
6.586360
 20
3.862320
  0
VERTEX
  8
0
  6
CONTINUOUS
 10
6.650160
 20
3.890040
  0
VERTEX
  8
0
  6
CONTINUOUS
 10
6.707800
 20
3.922160
  0
VERTEX
  8
0
  6
CONTINUOUS
 10
6.759280
 20
3.958240
  0
VERTEX
  8
0
  6
CONTINUOUS
 10
6.804600
 20
3.998280
  0
VERTEX
  8
0
  6
CONTINUOUS
 10
6.843760
 20
4.041840
  0
VERTEX
  8
0
  6
CONTINUOUS
 10
6.860920
 20
4.064720
  0
VERTEX
  8
0
  6
CONTINUOUS
 10
6.890400
 20
4.112680
  0
VERTEX
  8
0
  6
CONTINUOUS
 10
6.903160
 20
4.137760
  0
VERTEX
  8
0
  6
CONTINUOUS
 10
6.923400
 20
4.189680
  0
VERTEX
  8
0
  6
CONTINUOUS
 10
6.931320
 20
4.216520
  0
VERTEX
  8
0
  6
CONTINUOUS
 10
6.942320
 20
4.271520
  0
VERTEX
  8
0
  6
CONTINUOUS
 10
6.947160
 20
4.328280
  0
VERTEX
  8
0
  6
CONTINUOUS
 10
6.947160
 20
4.357320
  0
VERTEX
  8
0
  6
CONTINUOUS
 10
6.942320
 20
4.415840
  0
VERTEX
  8
0
  6
CONTINUOUS
 10
6.931320
 20
4.475240
  0
VERTEX
  8
0
  6
CONTINUOUS
 10
6.923840
 20
4.505160
  0
VERTEX
  8
0
  6
CONTINUOUS
 10
6.903160
 20
4.565000
  0
VERTEX
  8
0
  6
CONTINUOUS
 10
6.876760
 20
4.624840
  0
VERTEX
  8
0
  6
CONTINUOUS
 10
6.861360
 20
4.654760
  0
VERTEX
  8
0
  6
CONTINUOUS
 10
6.825280
 20
4.714160
  0
VERTEX
  8
0
  6
CONTINUOUS
 10
6.783040
 20
4.772240
  0
VERTEX
  8
0
  6
CONTINUOUS
 10
6.734200
 20
4.829440
  0
VERTEX
  8
0
  6
CONTINUOUS
 10
6.707800
 20
4.857600
  0
VERTEX
  8
0
  6
CONTINUOUS
 10
6.649720
 20
4.912160
  0
VERTEX
  8
0
  6
CONTINUOUS
 10
6.585040
 20
4.964960
  0
VERTEX
  8
0
  6
CONTINUOUS
 10
6.514640
 20
5.015120
  0
VERTEX
  8
0
  6
CONTINUOUS
 10
6.437640
 20
5.062640
  0
VERTEX
  8
0
  6
CONTINUOUS
 10
6.354480
 20
5.107520
  0
VERTEX
  8
0
  6
CONTINUOUS
 10
6.264720
 20
5.148440
  0
VERTEX
  8
0
  6
CONTINUOUS
 10
6.168800
 20
5.185840
  0
VERTEX
  8
0
  6
CONTINUOUS
 10
6.066280
 20
5.219280
  0
VERTEX
  8
0
  6
CONTINUOUS
 10
5.831320
 20
5.285280
  0
VERTEX
  8
0
  6
CONTINUOUS
 10
5.655760
 20
5.330600
  0
VERTEX
  8
0
  6
CONTINUOUS
 10
5.452040
 20
5.377680
  0
VERTEX
  8
0
  6
CONTINUOUS
 10
5.302000
 20
5.408920
  0
VERTEX
  8
0
  6
CONTINUOUS
 10
5.130400
 20
5.440600
  0
VERTEX
  8
0
  6
CONTINUOUS
 10
4.976840
 20
5.464800
  0
VERTEX
  8
0
  6
CONTINUOUS
 10
4.816680
 20
5.485040
  0
VERTEX
  8
0
  6
CONTINUOUS
 10
4.683800
 20
5.497360
  0
VERTEX
  8
0
  6
CONTINUOUS
 10
4.578640
 20
5.503520
  0
VERTEX
  8
0
  6
CONTINUOUS
 10
4.501200
 20
5.505280
  0
VERTEX
  8
0
  6
CONTINUOUS
 10
4.451920
 20
5.503520
  0
VERTEX
  8
0
  6
CONTINUOUS
 10
4.431680
 20
5.500880
  0
VERTEX
  8
0
  6
CONTINUOUS
 10
4.282520
 20
5.504400
  0
VERTEX
  8
0
  6
CONTINUOUS
 10
4.097720
 20
5.503080
  0
VERTEX
  8
0
  6
CONTINUOUS
 10
3.921720
 20
5.496920
  0
VERTEX
  8
0
  6
CONTINUOUS
 10
3.769480
 20
5.488120
  0
VERTEX
  8
0
  6
CONTINUOUS
 10
3.608440
 20
5.475360
  0
VERTEX
  8
0
  6
CONTINUOUS
 10
3.441240
 20
5.458200
  0
VERTEX
  8
0
  6
CONTINUOUS
 10
3.355440
 20
5.448080
  0
VERTEX
  8
0
  6
CONTINUOUS
 10
3.182080
 20
5.423440
  0
VERTEX
  8
0
  6
CONTINUOUS
 10
3.006520
 20
5.393960
  0
VERTEX
  8
0
  6
CONTINUOUS
 10
2.831400
 20
5.358320
  0
VERTEX
  8
0
  6
CONTINUOUS
 10
2.658040
 20
5.316520
  0
VERTEX
  8
0
  6
CONTINUOUS
 10
2.488200
 20
5.268560
  0
VERTEX
  8
0
  6
CONTINUOUS
 10
2.405480
 20
5.241720
  0
VERTEX
  8
0
  6
CONTINUOUS
 10
2.284480
 20
5.198160
  0
VERTEX
  8
0
  6
CONTINUOUS
 10
2.168320
 20
5.150640
  0
VERTEX
  8
0
  6
CONTINUOUS
 10
2.057000
 20
5.098720
  0
VERTEX
  8
0
  6
CONTINUOUS
 10
1.951840
 20
5.041960
  0
VERTEX
  8
0
  6
CONTINUOUS
 10
1.891560
 20
5.004560
  0
VERTEX
  8
0
  6
CONTINUOUS
 10
1.835240
 20
4.964520
  0
VERTEX
  8
0
  6
CONTINUOUS
 10
1.782880
 20
4.922280
  0
VERTEX
  8
0
  6
CONTINUOUS
 10
1.734920
 20
4.878280
  0
VERTEX
  8
0
  6
CONTINUOUS
 10
1.691360
 20
4.832080
  0
VERTEX
  8
0
  6
CONTINUOUS
 10
1.652200
 20
4.784560
  0
VERTEX
  8
0
  6
CONTINUOUS
 10
1.617000
 20
4.735720
  0
VERTEX
  8
0
  6
CONTINUOUS
 10
1.586200
 20
4.686000
  0
VERTEX
  8
0
  6
CONTINUOUS
 10
1.560240
 20
4.634960
  0
VERTEX
  8
0
  6
CONTINUOUS
 10
1.538240
 20
4.583920
  0
VERTEX
  8
0
  6
CONTINUOUS
 10
1.521080
 20
4.532440
  0
VERTEX
  8
0
  6
CONTINUOUS
 10
1.508760
 20
4.480520
  0
VERTEX
  8
0
  6
CONTINUOUS
 10
1.500400
 20
4.429040
  0
VERTEX
  8
0
  6
CONTINUOUS
 10
1.496880
 20
4.378000
  0
VERTEX
  8
0
  6
CONTINUOUS
 10
1.498200
 20
4.327840
  0
VERTEX
  8
0
  6
CONTINUOUS
 10
1.504360
 20
4.278120
  0
VERTEX
  8
0
  6
CONTINUOUS
 10
1.514920
 20
4.229720
  0
VERTEX
  8
0
  6
CONTINUOUS
 10
1.530320
 20
4.182640
  0
VERTEX
  8
0
  6
CONTINUOUS
 10
1.551000
 20
4.137320
  0
VERTEX
  8
0
  6
CONTINUOUS
 10
1.576080
 20
4.093760
  0
VERTEX
  8
0
  6
CONTINUOUS
 10
1.606440
 20
4.051960
  0
VERTEX
  8
0
  6
CONTINUOUS
 10
1.641640
 20
4.012800
  0
VERTEX
  8
0
  6
CONTINUOUS
 10
1.681680
 20
3.976280
  0
VERTEX
  8
0
  6
CONTINUOUS
 10
1.727000
 20
3.942840
  0
VERTEX
  8
0
  6
CONTINUOUS
 10
1.777160
 20
3.912040
  0
VERTEX
  8
0
  6
CONTINUOUS
 10
1.832600
 20
3.884760
  0
VERTEX
  8
0
  6
CONTINUOUS
 10
1.893320
 20
3.861000
  0
VERTEX
  8
0
  6
CONTINUOUS
 10
1.959320
 20
3.840760
  0
VERTEX
  8
0
  6
CONTINUOUS
 10
2.030160
 20
3.824920
  0
VERTEX
  8
0
  6
CONTINUOUS
 10
2.106720
 20
3.813040
  0
VERTEX
  8
0
  6
CONTINUOUS
 10
2.146760
 20
3.808640
  0
VERTEX
  8
0
  6
CONTINUOUS
 10
2.231240
 20
3.803800
  0
VERTEX
  8
0
  6
CONTINUOUS
 10
6.222480
 20
3.803360
  0
SEQEND
  8
0
  0
SOLID
  8
0
 62
    15
 10
4.268880
 20
3.173280
 11
4.907320
 21
3.521320
 12
4.366560
 22
3.162280
 13
5.005000
 23
3.510320
  0
POLYLINE
  8
0
  6
CONTINUOUS
 66
     1
 40
0.000000
 41
0.000000
  0
VERTEX
  8
0
  6
CONTINUOUS
 10
4.268880
 20
3.173280
  0
VERTEX
  8
0
  6
CONTINUOUS
 10
4.907320
 20
3.521320
  0
VERTEX
  8
0
  6
CONTINUOUS
 10
5.005000
 20
3.510320
  0
VERTEX
  8
0
  6
CONTINUOUS
 10
4.366560
 20
3.162280
  0
VERTEX
  8
0
  6
CONTINUOUS
 10
4.268880
 20
3.173280
  0
SEQEND
  8
0
  0
SOLID
  8
0
 62
    15
 10
1.592800
 20
2.799720
 11
2.230800
 21
3.148200
 12
1.744600
 22
2.866160
 13
2.383040
 23
3.214200
  0
POLYLINE
  8
0
  6
CONTINUOUS
 66
     1
 40
0.000000
 41
0.000000
  0
VERTEX
  8
0
  6
CONTINUOUS
 10
1.592800
 20
2.799720
  0
VERTEX
  8
0
  6
CONTINUOUS
 10
2.230800
 20
3.148200
  0
VERTEX
  8
0
  6
CONTINUOUS
 10
2.383040
 20
3.214200
  0
VERTEX
  8
0
  6
CONTINUOUS
 10
1.744600
 20
2.866160
  0
VERTEX
  8
0
  6
CONTINUOUS
 10
1.592800
 20
2.799720
  0
SEQEND
  8
0
  0
SOLID
  8
0
 62
    15
 10
1.744600
 20
2.866160
 11
2.383040
 21
3.214200
 12
1.904760
 22
2.925120
 13
2.543200
 23
3.273160
  0
POLYLINE
  8
0
  6
CONTINUOUS
 66
     1
 40
0.000000
 41
0.000000
  0
VERTEX
  8
0
  6
CONTINUOUS
 10
1.744600
 20
2.866160
  0
VERTEX
  8
0
  6
CONTINUOUS
 10
2.383040
 20
3.214200
  0
VERTEX
  8
0
  6
CONTINUOUS
 10
2.543200
 20
3.273160
  0
VERTEX
  8
0
  6
CONTINUOUS
 10
1.904760
 20
2.925120
  0
VERTEX
  8
0
  6
CONTINUOUS
 10
1.744600
 20
2.866160
  0
SEQEND
  8
0
  0
SOLID
  8
0
 62
    15
 10
1.904760
 20
2.925120
 11
2.543200
 21
3.273160
 12
2.071960
 22
2.976600
 13
2.710400
 23
3.324640
  0
POLYLINE
  8
0
  6
CONTINUOUS
 66
     1
 40
0.000000
 41
0.000000
  0
VERTEX
  8
0
  6
CONTINUOUS
 10
1.904760
 20
2.925120
  0
VERTEX
  8
0
  6
CONTINUOUS
 10
2.543200
 20
3.273160
  0
VERTEX
  8
0
  6
CONTINUOUS
 10
2.710400
 20
3.324640
  0
VERTEX
  8
0
  6
CONTINUOUS
 10
2.071960
 20
2.976600
  0
VERTEX
  8
0
  6
CONTINUOUS
 10
1.904760
 20
2.925120
  0
SEQEND
  8
0
  0
SOLID
  8
0
 62
    15
 10
2.071960
 20
2.976600
 11
2.710400
 21
3.324640
 12
2.418240
 22
3.060200
 13
3.056680
 23
3.408240
  0
POLYLINE
  8
0
  6
CONTINUOUS
 66
     1
 40
0.000000
 41
0.000000
  0
VERTEX
  8
0
  6
CONTINUOUS
 10
2.071960
 20
2.976600
  0
VERTEX
  8
0
  6
CONTINUOUS
 10
2.710400
 20
3.324640
  0
VERTEX
  8
0
  6
CONTINUOUS
 10
3.056680
 20
3.408240
  0
VERTEX
  8
0
  6
CONTINUOUS
 10
2.418240
 20
3.060200
  0
VERTEX
  8
0
  6
CONTINUOUS
 10
2.071960
 20
2.976600
  0
SEQEND
  8
0
  0
SOLID
  8
0
 62
    15
 10
2.418240
 20
3.060200
 11
3.056680
 21
3.408240
 12
2.768480
 22
3.119600
 13
3.406920
 23
3.468080
  0
POLYLINE
  8
0
  6
CONTINUOUS
 66
     1
 40
0.000000
 41
0.000000
  0
VERTEX
  8
0
  6
CONTINUOUS
 10
2.418240
 20
3.060200
  0
VERTEX
  8
0
  6
CONTINUOUS
 10
3.056680
 20
3.408240
  0
VERTEX
  8
0
  6
CONTINUOUS
 10
3.406920
 20
3.468080
  0
VERTEX
  8
0
  6
CONTINUOUS
 10
2.768480
 20
3.119600
  0
VERTEX
  8
0
  6
CONTINUOUS
 10
2.418240
 20
3.060200
  0
SEQEND
  8
0
  0
SOLID
  8
0
 62
    15
 10
2.768480
 20
3.119600
 11
3.406920
 21
3.468080
 12
3.107720
 22
3.158760
 13
3.746160
 23
3.506800
  0
POLYLINE
  8
0
  6
CONTINUOUS
 66
     1
 40
0.000000
 41
0.000000
  0
VERTEX
  8
0
  6
CONTINUOUS
 10
2.768480
 20
3.119600
  0
VERTEX
  8
0
  6
CONTINUOUS
 10
3.406920
 20
3.468080
  0
VERTEX
  8
0
  6
CONTINUOUS
 10
3.746160
 20
3.506800
  0
VERTEX
  8
0
  6
CONTINUOUS
 10
3.107720
 20
3.158760
  0
VERTEX
  8
0
  6
CONTINUOUS
 10
2.768480
 20
3.119600
  0
SEQEND
  8
0
  0
SOLID
  8
0
 62
    15
 10
3.107720
 20
3.158760
 11
3.746160
 21
3.506800
 12
3.268760
 22
3.171520
 13
3.906760
 23
3.519560
  0
POLYLINE
  8
0
  6
CONTINUOUS
 66
     1
 40
0.000000
 41
0.000000
  0
VERTEX
  8
0
  6
CONTINUOUS
 10
3.107720
 20
3.158760
  0
VERTEX
  8
0
  6
CONTINUOUS
 10
3.746160
 20
3.506800
  0
VERTEX
  8
0
  6
CONTINUOUS
 10
3.906760
 20
3.519560
  0
VERTEX
  8
0
  6
CONTINUOUS
 10
3.268760
 20
3.171520
  0
VERTEX
  8
0
  6
CONTINUOUS
 10
3.107720
 20
3.158760
  0
SEQEND
  8
0
  0
SOLID
  8
0
 62
    15
 10
3.268760
 20
3.171520
 11
3.906760
 21
3.519560
 12
3.421000
 22
3.180320
 13
4.059440
 23
3.528360
  0
POLYLINE
  8
0
  6
CONTINUOUS
 66
     1
 40
0.000000
 41
0.000000
  0
VERTEX
  8
0
  6
CONTINUOUS
 10
3.268760
 20
3.171520
  0
VERTEX
  8
0
  6
CONTINUOUS
 10
3.906760
 20
3.519560
  0
VERTEX
  8
0
  6
CONTINUOUS
 10
4.059440
 20
3.528360
  0
VERTEX
  8
0
  6
CONTINUOUS
 10
3.421000
 20
3.180320
  0
VERTEX
  8
0
  6
CONTINUOUS
 10
3.268760
 20
3.171520
  0
SEQEND
  8
0
  0
SOLID
  8
0
 62
    15
 10
3.421000
 20
3.180320
 11
4.059440
 21
3.528360
 12
3.563120
 22
3.185600
 13
4.201560
 23
3.533640
  0
POLYLINE
  8
0
  6
CONTINUOUS
 66
     1
 40
0.000000
 41
0.000000
  0
VERTEX
  8
0
  6
CONTINUOUS
 10
3.421000
 20
3.180320
  0
VERTEX
  8
0
  6
CONTINUOUS
 10
4.059440
 20
3.528360
  0
VERTEX
  8
0
  6
CONTINUOUS
 10
4.201560
 20
3.533640
  0
VERTEX
  8
0
  6
CONTINUOUS
 10
3.563120
 20
3.185600
  0
VERTEX
  8
0
  6
CONTINUOUS
 10
3.421000
 20
3.180320
  0
SEQEND
  8
0
  0
SOLID
  8
0
 62
    15
 10
3.563120
 20
3.185600
 11
4.201560
 21
3.533640
 12
3.693360
 22
3.187800
 13
4.331800
 23
3.535840
  0
POLYLINE
  8
0
  6
CONTINUOUS
 66
     1
 40
0.000000
 41
0.000000
  0
VERTEX
  8
0
  6
CONTINUOUS
 10
3.563120
 20
3.185600
  0
VERTEX
  8
0
  6
CONTINUOUS
 10
4.201560
 20
3.533640
  0
VERTEX
  8
0
  6
CONTINUOUS
 10
4.331800
 20
3.535840
  0
VERTEX
  8
0
  6
CONTINUOUS
 10
3.693360
 20
3.187800
  0
VERTEX
  8
0
  6
CONTINUOUS
 10
3.563120
 20
3.185600
  0
SEQEND
  8
0
  0
SOLID
  8
0
 62
    15
 10
3.693360
 20
3.187800
 11
4.331800
 21
3.535840
 12
3.809520
 22
3.186920
 13
4.447960
 23
3.535400
  0
POLYLINE
  8
0
  6
CONTINUOUS
 66
     1
 40
0.000000
 41
0.000000
  0
VERTEX
  8
0
  6
CONTINUOUS
 10
3.693360
 20
3.187800
  0
VERTEX
  8
0
  6
CONTINUOUS
 10
4.331800
 20
3.535840
  0
VERTEX
  8
0
  6
CONTINUOUS
 10
4.447960
 20
3.535400
  0
VERTEX
  8
0
  6
CONTINUOUS
 10
3.809520
 20
3.186920
  0
VERTEX
  8
0
  6
CONTINUOUS
 10
3.693360
 20
3.187800
  0
SEQEND
  8
0
  0
SOLID
  8
0
 62
    15
 10
3.809520
 20
3.186920
 11
4.447960
 21
3.535400
 12
3.909840
 22
3.183840
 13
4.548280
 23
3.532320
  0
POLYLINE
  8
0
  6
CONTINUOUS
 66
     1
 40
0.000000
 41
0.000000
  0
VERTEX
  8
0
  6
CONTINUOUS
 10
3.809520
 20
3.186920
  0
VERTEX
  8
0
  6
CONTINUOUS
 10
4.447960
 20
3.535400
  0
VERTEX
  8
0
  6
CONTINUOUS
 10
4.548280
 20
3.532320
  0
VERTEX
  8
0
  6
CONTINUOUS
 10
3.909840
 20
3.183840
  0
VERTEX
  8
0
  6
CONTINUOUS
 10
3.809520
 20
3.186920
  0
SEQEND
  8
0
  0
SOLID
  8
0
 62
    15
 10
3.909840
 20
3.183840
 11
4.548280
 21
3.532320
 12
3.931400
 22
3.183840
 13
4.569400
 23
3.532320
  0
POLYLINE
  8
0
  6
CONTINUOUS
 66
     1
 40
0.000000
 41
0.000000
  0
VERTEX
  8
0
  6
CONTINUOUS
 10
3.909840
 20
3.183840
  0
VERTEX
  8
0
  6
CONTINUOUS
 10
4.548280
 20
3.532320
  0
VERTEX
  8
0
  6
CONTINUOUS
 10
4.569400
 20
3.532320
  0
VERTEX
  8
0
  6
CONTINUOUS
 10
3.931400
 20
3.183840
  0
VERTEX
  8
0
  6
CONTINUOUS
 10
3.909840
 20
3.183840
  0
SEQEND
  8
0
  0
SOLID
  8
0
 62
    15
 10
3.931400
 20
3.183840
 11
4.569400
 21
3.532320
 12
3.941520
 22
3.186040
 13
4.579520
 23
3.534080
  0
POLYLINE
  8
0
  6
CONTINUOUS
 66
     1
 40
0.000000
 41
0.000000
  0
VERTEX
  8
0
  6
CONTINUOUS
 10
3.931400
 20
3.183840
  0
VERTEX
  8
0
  6
CONTINUOUS
 10
4.569400
 20
3.532320
  0
VERTEX
  8
0
  6
CONTINUOUS
 10
4.579520
 20
3.534080
  0
VERTEX
  8
0
  6
CONTINUOUS
 10
3.941520
 20
3.186040
  0
VERTEX
  8
0
  6
CONTINUOUS
 10
3.931400
 20
3.183840
  0
SEQEND
  8
0
  0
SOLID
  8
0
 62
    15
 10
3.941520
 20
3.186040
 11
4.579520
 21
3.534080
 12
3.964400
 22
3.187800
 13
4.602840
 23
3.535840
  0
POLYLINE
  8
0
  6
CONTINUOUS
 66
     1
 40
0.000000
 41
0.000000
  0
VERTEX
  8
0
  6
CONTINUOUS
 10
3.941520
 20
3.186040
  0
VERTEX
  8
0
  6
CONTINUOUS
 10
4.579520
 20
3.534080
  0
VERTEX
  8
0
  6
CONTINUOUS
 10
4.602840
 20
3.535840
  0
VERTEX
  8
0
  6
CONTINUOUS
 10
3.964400
 20
3.187800
  0
VERTEX
  8
0
  6
CONTINUOUS
 10
3.941520
 20
3.186040
  0
SEQEND
  8
0
  0
SOLID
  8
0
 62
    15
 10
3.964400
 20
3.187800
 11
4.602840
 21
3.535840
 12
4.000480
 22
3.188240
 13
4.638920
 23
3.536720
  0
POLYLINE
  8
0
  6
CONTINUOUS
 66
     1
 40
0.000000
 41
0.000000
  0
VERTEX
  8
0
  6
CONTINUOUS
 10
3.964400
 20
3.187800
  0
VERTEX
  8
0
  6
CONTINUOUS
 10
4.602840
 20
3.535840
  0
VERTEX
  8
0
  6
CONTINUOUS
 10
4.638920
 20
3.536720
  0
VERTEX
  8
0
  6
CONTINUOUS
 10
4.000480
 20
3.188240
  0
VERTEX
  8
0
  6
CONTINUOUS
 10
3.964400
 20
3.187800
  0
SEQEND
  8
0
  0
SOLID
  8
0
 62
    15
 10
4.000480
 20
3.188240
 11
4.638920
 21
3.536720
 12
4.048880
 22
3.187800
 13
4.687320
 23
3.535840
  0
POLYLINE
  8
0
  6
CONTINUOUS
 66
     1
 40
0.000000
 41
0.000000
  0
VERTEX
  8
0
  6
CONTINUOUS
 10
4.000480
 20
3.188240
  0
VERTEX
  8
0
  6
CONTINUOUS
 10
4.638920
 20
3.536720
  0
VERTEX
  8
0
  6
CONTINUOUS
 10
4.687320
 20
3.535840
  0
VERTEX
  8
0
  6
CONTINUOUS
 10
4.048880
 20
3.187800
  0
VERTEX
  8
0
  6
CONTINUOUS
 10
4.000480
 20
3.188240
  0
SEQEND
  8
0
  0
SOLID
  8
0
 62
    15
 10
4.048880
 20
3.187800
 11
4.687320
 21
3.535840
 12
4.110040
 22
3.185600
 13
4.748040
 23
3.533640
  0
POLYLINE
  8
0
  6
CONTINUOUS
 66
     1
 40
0.000000
 41
0.000000
  0
VERTEX
  8
0
  6
CONTINUOUS
 10
4.048880
 20
3.187800
  0
VERTEX
  8
0
  6
CONTINUOUS
 10
4.687320
 20
3.535840
  0
VERTEX
  8
0
  6
CONTINUOUS
 10
4.748040
 20
3.533640
  0
VERTEX
  8
0
  6
CONTINUOUS
 10
4.110040
 20
3.185600
  0
VERTEX
  8
0
  6
CONTINUOUS
 10
4.048880
 20
3.187800
  0
SEQEND
  8
0
  0
SOLID
  8
0
 62
    15
 10
4.110040
 20
3.185600
 11
4.748040
 21
3.533640
 12
4.183520
 22
3.180760
 13
4.821520
 23
3.528800
  0
POLYLINE
  8
0
  6
CONTINUOUS
 66
     1
 40
0.000000
 41
0.000000
  0
VERTEX
  8
0
  6
CONTINUOUS
 10
4.110040
 20
3.185600
  0
VERTEX
  8
0
  6
CONTINUOUS
 10
4.748040
 20
3.533640
  0
VERTEX
  8
0
  6
CONTINUOUS
 10
4.821520
 20
3.528800
  0
VERTEX
  8
0
  6
CONTINUOUS
 10
4.183520
 20
3.180760
  0
VERTEX
  8
0
  6
CONTINUOUS
 10
4.110040
 20
3.185600
  0
SEQEND
  8
0
  0
SOLID
  8
0
 62
    15
 10
4.183520
 20
3.180760
 11
4.821520
 21
3.528800
 12
4.268880
 22
3.173280
 13
4.907320
 23
3.521320
  0
POLYLINE
  8
0
  6
CONTINUOUS
 66
     1
 40
0.000000
 41
0.000000
  0
VERTEX
  8
0
  6
CONTINUOUS
 10
4.183520
 20
3.180760
  0
VERTEX
  8
0
  6
CONTINUOUS
 10
4.821520
 20
3.528800
  0
VERTEX
  8
0
  6
CONTINUOUS
 10
4.907320
 20
3.521320
  0
VERTEX
  8
0
  6
CONTINUOUS
 10
4.268880
 20
3.173280
  0
VERTEX
  8
0
  6
CONTINUOUS
 10
4.183520
 20
3.180760
  0
SEQEND
  8
0
  0
SOLID
  8
0
 62
    15
 10
1.451120
 20
2.725360
 11
2.089560
 21
3.073400
 12
1.592800
 22
2.799720
 13
2.230800
 23
3.148200
  0
POLYLINE
  8
0
  6
CONTINUOUS
 66
     1
 40
0.000000
 41
0.000000
  0
VERTEX
  8
0
  6
CONTINUOUS
 10
1.451120
 20
2.725360
  0
VERTEX
  8
0
  6
CONTINUOUS
 10
2.089560
 20
3.073400
  0
VERTEX
  8
0
  6
CONTINUOUS
 10
2.230800
 20
3.148200
  0
VERTEX
  8
0
  6
CONTINUOUS
 10
1.592800
 20
2.799720
  0
VERTEX
  8
0
  6
CONTINUOUS
 10
1.451120
 20
2.725360
  0
SEQEND
  8
0
  0
SOLID
  8
0
 62
    15
 10
4.366560
 20
3.162280
 11
5.005000
 21
3.510320
 12
4.476120
 22
3.148200
 13
5.114120
 23
3.496240
  0
POLYLINE
  8
0
  6
CONTINUOUS
 66
     1
 40
0.000000
 41
0.000000
  0
VERTEX
  8
0
  6
CONTINUOUS
 10
4.366560
 20
3.162280
  0
VERTEX
  8
0
  6
CONTINUOUS
 10
5.005000
 20
3.510320
  0
VERTEX
  8
0
  6
CONTINUOUS
 10
5.114120
 20
3.496240
  0
VERTEX
  8
0
  6
CONTINUOUS
 10
4.476120
 20
3.148200
  0
VERTEX
  8
0
  6
CONTINUOUS
 10
4.366560
 20
3.162280
  0
SEQEND
  8
0
  0
SOLID
  8
0
 62
    15
 10
4.476120
 20
3.148200
 11
5.114120
 21
3.496240
 12
4.597560
 22
3.129280
 13
5.235560
 23
3.477320
  0
POLYLINE
  8
0
  6
CONTINUOUS
 66
     1
 40
0.000000
 41
0.000000
  0
VERTEX
  8
0
  6
CONTINUOUS
 10
4.476120
 20
3.148200
  0
VERTEX
  8
0
  6
CONTINUOUS
 10
5.114120
 20
3.496240
  0
VERTEX
  8
0
  6
CONTINUOUS
 10
5.235560
 20
3.477320
  0
VERTEX
  8
0
  6
CONTINUOUS
 10
4.597560
 20
3.129280
  0
VERTEX
  8
0
  6
CONTINUOUS
 10
4.476120
 20
3.148200
  0
SEQEND
  8
0
  0
SOLID
  8
0
 62
    15
 10
4.597560
 20
3.129280
 11
5.235560
 21
3.477320
 12
4.730440
 22
3.105960
 13
5.368880
 23
3.454000
  0
POLYLINE
  8
0
  6
CONTINUOUS
 66
     1
 40
0.000000
 41
0.000000
  0
VERTEX
  8
0
  6
CONTINUOUS
 10
4.597560
 20
3.129280
  0
VERTEX
  8
0
  6
CONTINUOUS
 10
5.235560
 20
3.477320
  0
VERTEX
  8
0
  6
CONTINUOUS
 10
5.368880
 20
3.454000
  0
VERTEX
  8
0
  6
CONTINUOUS
 10
4.730440
 20
3.105960
  0
VERTEX
  8
0
  6
CONTINUOUS
 10
4.597560
 20
3.129280
  0
SEQEND
  8
0
  0
SOLID
  8
0
 62
    15
 10
4.730440
 20
3.105960
 11
5.368880
 21
3.454000
 12
4.875200
 22
3.077360
 13
5.513200
 23
3.425840
  0
POLYLINE
  8
0
  6
CONTINUOUS
 66
     1
 40
0.000000
 41
0.000000
  0
VERTEX
  8
0
  6
CONTINUOUS
 10
4.730440
 20
3.105960
  0
VERTEX
  8
0
  6
CONTINUOUS
 10
5.368880
 20
3.454000
  0
VERTEX
  8
0
  6
CONTINUOUS
 10
5.513200
 20
3.425840
  0
VERTEX
  8
0
  6
CONTINUOUS
 10
4.875200
 20
3.077360
  0
VERTEX
  8
0
  6
CONTINUOUS
 10
4.730440
 20
3.105960
  0
SEQEND
  8
0
  0
SOLID
  8
0
 62
    15
 10
4.875200
 20
3.077360
 11
5.513200
 21
3.425840
 12
5.030960
 22
3.043480
 13
5.669400
 23
3.391520
  0
POLYLINE
  8
0
  6
CONTINUOUS
 66
     1
 40
0.000000
 41
0.000000
  0
VERTEX
  8
0
  6
CONTINUOUS
 10
4.875200
 20
3.077360
  0
VERTEX
  8
0
  6
CONTINUOUS
 10
5.513200
 20
3.425840
  0
VERTEX
  8
0
  6
CONTINUOUS
 10
5.669400
 20
3.391520
  0
VERTEX
  8
0
  6
CONTINUOUS
 10
5.030960
 20
3.043480
  0
VERTEX
  8
0
  6
CONTINUOUS
 10
4.875200
 20
3.077360
  0
SEQEND
  8
0
  0
SOLID
  8
0
 62
    15
 10
5.030960
 20
3.043480
 11
5.669400
 21
3.391520
 12
5.198160
 22
3.003440
 13
5.836600
 23
3.351480
  0
POLYLINE
  8
0
  6
CONTINUOUS
 66
     1
 40
0.000000
 41
0.000000
  0
VERTEX
  8
0
  6
CONTINUOUS
 10
5.030960
 20
3.043480
  0
VERTEX
  8
0
  6
CONTINUOUS
 10
5.669400
 20
3.391520
  0
VERTEX
  8
0
  6
CONTINUOUS
 10
5.836600
 20
3.351480
  0
VERTEX
  8
0
  6
CONTINUOUS
 10
5.198160
 20
3.003440
  0
VERTEX
  8
0
  6
CONTINUOUS
 10
5.030960
 20
3.043480
  0
SEQEND
  8
0
  0
SOLID
  8
0
 62
    15
 10
5.198160
 20
3.003440
 11
5.836600
 21
3.351480
 12
5.376360
 22
2.956360
 13
6.014800
 23
3.304840
  0
POLYLINE
  8
0
  6
CONTINUOUS
 66
     1
 40
0.000000
 41
0.000000
  0
VERTEX
  8
0
  6
CONTINUOUS
 10
5.198160
 20
3.003440
  0
VERTEX
  8
0
  6
CONTINUOUS
 10
5.836600
 20
3.351480
  0
VERTEX
  8
0
  6
CONTINUOUS
 10
6.014800
 20
3.304840
  0
VERTEX
  8
0
  6
CONTINUOUS
 10
5.376360
 20
2.956360
  0
VERTEX
  8
0
  6
CONTINUOUS
 10
5.198160
 20
3.003440
  0
SEQEND
  8
0
  0
SOLID
  8
0
 62
    15
 10
5.376360
 20
2.956360
 11
6.014800
 21
3.304840
 12
5.566000
 22
2.902680
 13
6.204000
 23
3.250720
  0
POLYLINE
  8
0
  6
CONTINUOUS
 66
     1
 40
0.000000
 41
0.000000
  0
VERTEX
  8
0
  6
CONTINUOUS
 10
5.376360
 20
2.956360
  0
VERTEX
  8
0
  6
CONTINUOUS
 10
6.014800
 20
3.304840
  0
VERTEX
  8
0
  6
CONTINUOUS
 10
6.204000
 20
3.250720
  0
VERTEX
  8
0
  6
CONTINUOUS
 10
5.566000
 20
2.902680
  0
VERTEX
  8
0
  6
CONTINUOUS
 10
5.376360
 20
2.956360
  0
SEQEND
  8
0
  0
SOLID
  8
0
 62
    15
 10
5.566000
 20
2.902680
 11
6.204000
 21
3.250720
 12
5.764000
 22
2.831840
 13
6.402440
 23
3.179880
  0
POLYLINE
  8
0
  6
CONTINUOUS
 66
     1
 40
0.000000
 41
0.000000
  0
VERTEX
  8
0
  6
CONTINUOUS
 10
5.566000
 20
2.902680
  0
VERTEX
  8
0
  6
CONTINUOUS
 10
6.204000
 20
3.250720
  0
VERTEX
  8
0
  6
CONTINUOUS
 10
6.402440
 20
3.179880
  0
VERTEX
  8
0
  6
CONTINUOUS
 10
5.764000
 20
2.831840
  0
VERTEX
  8
0
  6
CONTINUOUS
 10
5.566000
 20
2.902680
  0
SEQEND
  8
0
  0
SOLID
  8
0
 62
    15
 10
5.764000
 20
2.831840
 11
6.402440
 21
3.179880
 12
5.936920
 22
2.746040
 13
6.575360
 23
3.094520
  0
POLYLINE
  8
0
  6
CONTINUOUS
 66
     1
 40
0.000000
 41
0.000000
  0
VERTEX
  8
0
  6
CONTINUOUS
 10
5.764000
 20
2.831840
  0
VERTEX
  8
0
  6
CONTINUOUS
 10
6.402440
 20
3.179880
  0
VERTEX
  8
0
  6
CONTINUOUS
 10
6.575360
 20
3.094520
  0
VERTEX
  8
0
  6
CONTINUOUS
 10
5.936920
 20
2.746040
  0
VERTEX
  8
0
  6
CONTINUOUS
 10
5.764000
 20
2.831840
  0
SEQEND
  8
0
  0
SOLID
  8
0
 62
    15
 10
5.936920
 20
2.746040
 11
6.575360
 21
3.094520
 12
6.084760
 22
2.648360
 13
6.723200
 23
2.996400
  0
POLYLINE
  8
0
  6
CONTINUOUS
 66
     1
 40
0.000000
 41
0.000000
  0
VERTEX
  8
0
  6
CONTINUOUS
 10
5.936920
 20
2.746040
  0
VERTEX
  8
0
  6
CONTINUOUS
 10
6.575360
 20
3.094520
  0
VERTEX
  8
0
  6
CONTINUOUS
 10
6.723200
 20
2.996400
  0
VERTEX
  8
0
  6
CONTINUOUS
 10
6.084760
 20
2.648360
  0
VERTEX
  8
0
  6
CONTINUOUS
 10
5.936920
 20
2.746040
  0
SEQEND
  8
0
  0
SOLID
  8
0
 62
    15
 10
6.084760
 20
2.648360
 11
6.723200
 21
2.996400
 12
6.207080
 22
2.541000
 13
6.845520
 23
2.889040
  0
POLYLINE
  8
0
  6
CONTINUOUS
 66
     1
 40
0.000000
 41
0.000000
  0
VERTEX
  8
0
  6
CONTINUOUS
 10
6.084760
 20
2.648360
  0
VERTEX
  8
0
  6
CONTINUOUS
 10
6.723200
 20
2.996400
  0
VERTEX
  8
0
  6
CONTINUOUS
 10
6.845520
 20
2.889040
  0
VERTEX
  8
0
  6
CONTINUOUS
 10
6.207080
 20
2.541000
  0
VERTEX
  8
0
  6
CONTINUOUS
 10
6.084760
 20
2.648360
  0
SEQEND
  8
0
  0
SOLID
  8
0
 62
    15
 10
6.207080
 20
2.541000
 11
6.845520
 21
2.889040
 12
6.304320
 22
2.426600
 13
6.942320
 23
2.774640
  0
POLYLINE
  8
0
  6
CONTINUOUS
 66
     1
 40
0.000000
 41
0.000000
  0
VERTEX
  8
0
  6
CONTINUOUS
 10
6.207080
 20
2.541000
  0
VERTEX
  8
0
  6
CONTINUOUS
 10
6.845520
 20
2.889040
  0
VERTEX
  8
0
  6
CONTINUOUS
 10
6.942320
 20
2.774640
  0
VERTEX
  8
0
  6
CONTINUOUS
 10
6.304320
 20
2.426600
  0
VERTEX
  8
0
  6
CONTINUOUS
 10
6.207080
 20
2.541000
  0
SEQEND
  8
0
  0
SOLID
  8
0
 62
    15
 10
6.304320
 20
2.426600
 11
6.942320
 21
2.774640
 12
6.376040
 22
2.308240
 13
7.014480
 23
2.656280
  0
POLYLINE
  8
0
  6
CONTINUOUS
 66
     1
 40
0.000000
 41
0.000000
  0
VERTEX
  8
0
  6
CONTINUOUS
 10
6.304320
 20
2.426600
  0
VERTEX
  8
0
  6
CONTINUOUS
 10
6.942320
 20
2.774640
  0
VERTEX
  8
0
  6
CONTINUOUS
 10
7.014480
 20
2.656280
  0
VERTEX
  8
0
  6
CONTINUOUS
 10
6.376040
 20
2.308240
  0
VERTEX
  8
0
  6
CONTINUOUS
 10
6.304320
 20
2.426600
  0
SEQEND
  8
0
  0
SOLID
  8
0
 62
    15
 10
6.376040
 20
2.308240
 11
7.014480
 21
2.656280
 12
6.423120
 22
2.188560
 13
7.061120
 23
2.536600
  0
POLYLINE
  8
0
  6
CONTINUOUS
 66
     1
 40
0.000000
 41
0.000000
  0
VERTEX
  8
0
  6
CONTINUOUS
 10
6.376040
 20
2.308240
  0
VERTEX
  8
0
  6
CONTINUOUS
 10
7.014480
 20
2.656280
  0
VERTEX
  8
0
  6
CONTINUOUS
 10
7.061120
 20
2.536600
  0
VERTEX
  8
0
  6
CONTINUOUS
 10
6.423120
 20
2.188560
  0
VERTEX
  8
0
  6
CONTINUOUS
 10
6.376040
 20
2.308240
  0
SEQEND
  8
0
  0
SOLID
  8
0
 62
    15
 10
6.423120
 20
2.188560
 11
7.061120
 21
2.536600
 12
6.444680
 22
2.069760
 13
7.083120
 23
2.417800
  0
POLYLINE
  8
0
  6
CONTINUOUS
 66
     1
 40
0.000000
 41
0.000000
  0
VERTEX
  8
0
  6
CONTINUOUS
 10
6.423120
 20
2.188560
  0
VERTEX
  8
0
  6
CONTINUOUS
 10
7.061120
 20
2.536600
  0
VERTEX
  8
0
  6
CONTINUOUS
 10
7.083120
 20
2.417800
  0
VERTEX
  8
0
  6
CONTINUOUS
 10
6.444680
 20
2.069760
  0
VERTEX
  8
0
  6
CONTINUOUS
 10
6.423120
 20
2.188560
  0
SEQEND
  8
0
  0
SOLID
  8
0
 62
    15
 10
6.444680
 20
2.069760
 11
7.083120
 21
2.417800
 12
6.441600
 22
1.954920
 13
7.079600
 23
2.303400
  0
POLYLINE
  8
0
  6
CONTINUOUS
 66
     1
 40
0.000000
 41
0.000000
  0
VERTEX
  8
0
  6
CONTINUOUS
 10
6.444680
 20
2.069760
  0
VERTEX
  8
0
  6
CONTINUOUS
 10
7.083120
 20
2.417800
  0
VERTEX
  8
0
  6
CONTINUOUS
 10
7.079600
 20
2.303400
  0
VERTEX
  8
0
  6
CONTINUOUS
 10
6.441600
 20
1.954920
  0
VERTEX
  8
0
  6
CONTINUOUS
 10
6.444680
 20
2.069760
  0
SEQEND
  8
0
  0
SOLID
  8
0
 62
    15
 10
6.413440
 20
1.847120
 11
7.051440
 21
2.195160
 12
6.360200
 22
1.748120
 13
6.998200
 23
2.096160
  0
POLYLINE
  8
0
  6
CONTINUOUS
 66
     1
 40
0.000000
 41
0.000000
  0
VERTEX
  8
0
  6
CONTINUOUS
 10
6.413440
 20
1.847120
  0
VERTEX
  8
0
  6
CONTINUOUS
 10
7.051440
 20
2.195160
  0
VERTEX
  8
0
  6
CONTINUOUS
 10
6.998200
 20
2.096160
  0
VERTEX
  8
0
  6
CONTINUOUS
 10
6.360200
 20
1.748120
  0
VERTEX
  8
0
  6
CONTINUOUS
 10
6.413440
 20
1.847120
  0
SEQEND
  8
0
  0
SOLID
  8
0
 62
    15
 10
6.441600
 20
1.954920
 11
7.079600
 21
2.303400
 12
6.413440
 22
1.847120
 13
7.051440
 23
2.195160
  0
POLYLINE
  8
0
  6
CONTINUOUS
 66
     1
 40
0.000000
 41
0.000000
  0
VERTEX
  8
0
  6
CONTINUOUS
 10
6.441600
 20
1.954920
  0
VERTEX
  8
0
  6
CONTINUOUS
 10
7.079600
 20
2.303400
  0
VERTEX
  8
0
  6
CONTINUOUS
 10
7.051440
 20
2.195160
  0
VERTEX
  8
0
  6
CONTINUOUS
 10
6.413440
 20
1.847120
  0
VERTEX
  8
0
  6
CONTINUOUS
 10
6.441600
 20
1.954920
  0
SEQEND
  8
0
  0
SOLID
  8
0
 62
    15
 10
6.360200
 20
1.748120
 11
6.998200
 21
2.096160
 12
6.281880
 22
1.661000
 13
6.920320
 23
2.009480
  0
POLYLINE
  8
0
  6
CONTINUOUS
 66
     1
 40
0.000000
 41
0.000000
  0
VERTEX
  8
0
  6
CONTINUOUS
 10
6.360200
 20
1.748120
  0
VERTEX
  8
0
  6
CONTINUOUS
 10
6.998200
 20
2.096160
  0
VERTEX
  8
0
  6
CONTINUOUS
 10
6.920320
 20
2.009480
  0
VERTEX
  8
0
  6
CONTINUOUS
 10
6.281880
 20
1.661000
  0
VERTEX
  8
0
  6
CONTINUOUS
 10
6.360200
 20
1.748120
  0
SEQEND
  8
0
  0
SOLID
  8
0
 62
    15
 10
6.281880
 20
1.661000
 11
6.920320
 21
2.009480
 12
6.178920
 22
1.588840
 13
6.817360
 23
1.936880
  0
POLYLINE
  8
0
  6
CONTINUOUS
 66
     1
 40
0.000000
 41
0.000000
  0
VERTEX
  8
0
  6
CONTINUOUS
 10
6.281880
 20
1.661000
  0
VERTEX
  8
0
  6
CONTINUOUS
 10
6.920320
 20
2.009480
  0
VERTEX
  8
0
  6
CONTINUOUS
 10
6.817360
 20
1.936880
  0
VERTEX
  8
0
  6
CONTINUOUS
 10
6.178920
 20
1.588840
  0
VERTEX
  8
0
  6
CONTINUOUS
 10
6.281880
 20
1.661000
  0
SEQEND
  8
0
  0
POLYLINE
  8
0
  6
CONTINUOUS
 66
     1
 40
0.000000
 41
0.000000
  0
VERTEX
  8
0
  6
CONTINUOUS
 10
5.691400
 20
1.486760
  0
VERTEX
  8
0
  6
CONTINUOUS
 10
1.775400
 20
1.486760
  0
VERTEX
  8
0
  6
CONTINUOUS
 10
1.606440
 20
1.496440
  0
VERTEX
  8
0
  6
CONTINUOUS
 10
1.458600
 20
1.524160
  0
VERTEX
  8
0
  6
CONTINUOUS
 10
1.332320
 20
1.568160
  0
VERTEX
  8
0
  6
CONTINUOUS
 10
1.226280
 20
1.626240
  0
VERTEX
  8
0
  6
CONTINUOUS
 10
1.140920
 20
1.696640
  0
VERTEX
  8
0
  6
CONTINUOUS
 10
1.075800
 20
1.777160
  0
VERTEX
  8
0
  6
CONTINUOUS
 10
1.030040
 20
1.866040
  0
VERTEX
  8
0
  6
CONTINUOUS
 10
1.003640
 20
1.961520
  0
VERTEX
  8
0
  6
CONTINUOUS
 10
0.996600
 20
2.061400
  0
VERTEX
  8
0
  6
CONTINUOUS
 10
1.008040
 20
2.164360
  0
VERTEX
  8
0
  6
CONTINUOUS
 10
1.037960
 20
2.267320
  0
VERTEX
  8
0
  6
CONTINUOUS
 10
1.085920
 20
2.369400
  0
VERTEX
  8
0
  6
CONTINUOUS
 10
1.151480
 20
2.467960
  0
VERTEX
  8
0
  6
CONTINUOUS
 10
1.234200
 20
2.561680
  0
VERTEX
  8
0
  6
CONTINUOUS
 10
1.334520
 20
2.647920
  0
VERTEX
  8
0
  6
CONTINUOUS
 10
1.451120
 20
2.725360
  0
VERTEX
  8
0
  6
CONTINUOUS
 10
1.592800
 20
2.799720
  0
VERTEX
  8
0
  6
CONTINUOUS
 10
1.744600
 20
2.866160
  0
VERTEX
  8
0
  6
CONTINUOUS
 10
1.904760
 20
2.925120
  0
VERTEX
  8
0
  6
CONTINUOUS
 10
2.071960
 20
2.976600
  0
VERTEX
  8
0
  6
CONTINUOUS
 10
2.418240
 20
3.060200
  0
VERTEX
  8
0
  6
CONTINUOUS
 10
2.768480
 20
3.119600
  0
VERTEX
  8
0
  6
CONTINUOUS
 10
3.107720
 20
3.158760
  0
VERTEX
  8
0
  6
CONTINUOUS
 10
3.268760
 20
3.171520
  0
VERTEX
  8
0
  6
CONTINUOUS
 10
3.421000
 20
3.180320
  0
VERTEX
  8
0
  6
CONTINUOUS
 10
3.563120
 20
3.185600
  0
VERTEX
  8
0
  6
CONTINUOUS
 10
3.693360
 20
3.187800
  0
VERTEX
  8
0
  6
CONTINUOUS
 10
3.809520
 20
3.186920
  0
VERTEX
  8
0
  6
CONTINUOUS
 10
3.931400
 20
3.183840
  0
VERTEX
  8
0
  6
CONTINUOUS
 10
3.941520
 20
3.186040
  0
VERTEX
  8
0
  6
CONTINUOUS
 10
3.964400
 20
3.187800
  0
VERTEX
  8
0
  6
CONTINUOUS
 10
4.048880
 20
3.187800
  0
VERTEX
  8
0
  6
CONTINUOUS
 10
4.110040
 20
3.185600
  0
VERTEX
  8
0
  6
CONTINUOUS
 10
4.183520
 20
3.180760
  0
VERTEX
  8
0
  6
CONTINUOUS
 10
4.268880
 20
3.173280
  0
VERTEX
  8
0
  6
CONTINUOUS
 10
4.366560
 20
3.162280
  0
VERTEX
  8
0
  6
CONTINUOUS
 10
4.476120
 20
3.148200
  0
VERTEX
  8
0
  6
CONTINUOUS
 10
4.597560
 20
3.129280
  0
VERTEX
  8
0
  6
CONTINUOUS
 10
4.730440
 20
3.105960
  0
VERTEX
  8
0
  6
CONTINUOUS
 10
4.875200
 20
3.077360
  0
VERTEX
  8
0
  6
CONTINUOUS
 10
5.030960
 20
3.043480
  0
VERTEX
  8
0
  6
CONTINUOUS
 10
5.198160
 20
3.003440
  0
VERTEX
  8
0
  6
CONTINUOUS
 10
5.376360
 20
2.956360
  0
VERTEX
  8
0
  6
CONTINUOUS
 10
5.566000
 20
2.902680
  0
VERTEX
  8
0
  6
CONTINUOUS
 10
5.764000
 20
2.831840
  0
VERTEX
  8
0
  6
CONTINUOUS
 10
5.936920
 20
2.746040
  0
VERTEX
  8
0
  6
CONTINUOUS
 10
6.084760
 20
2.648360
  0
VERTEX
  8
0
  6
CONTINUOUS
 10
6.207080
 20
2.541000
  0
VERTEX
  8
0
  6
CONTINUOUS
 10
6.304320
 20
2.426600
  0
VERTEX
  8
0
  6
CONTINUOUS
 10
6.376040
 20
2.308240
  0
VERTEX
  8
0
  6
CONTINUOUS
 10
6.423120
 20
2.188560
  0
VERTEX
  8
0
  6
CONTINUOUS
 10
6.444680
 20
2.069760
  0
VERTEX
  8
0
  6
CONTINUOUS
 10
6.441600
 20
1.954920
  0
VERTEX
  8
0
  6
CONTINUOUS
 10
6.413440
 20
1.847120
  0
VERTEX
  8
0
  6
CONTINUOUS
 10
6.360200
 20
1.748120
  0
VERTEX
  8
0
  6
CONTINUOUS
 10
6.281880
 20
1.661000
  0
VERTEX
  8
0
  6
CONTINUOUS
 10
6.178920
 20
1.588840
  0
VERTEX
  8
0
  6
CONTINUOUS
 10
6.051320
 20
1.533840
  0
VERTEX
  8
0
  6
CONTINUOUS
 10
5.978280
 20
1.514040
  0
VERTEX
  8
0
  6
CONTINUOUS
 10
5.899080
 20
1.499080
  0
VERTEX
  8
0
  6
CONTINUOUS
 10
5.813280
 20
1.489840
  0
VERTEX
  8
0
  6
CONTINUOUS
 10
5.721760
 20
1.486760
  0
VERTEX
  8
0
  6
CONTINUOUS
 10
5.691400
 20
1.486760
  0
SEQEND
  8
0
  0
TEXT
  8
0
 10
3.744840
 20
1.210440
 40
0.138113
  1
BA  119
 41
1.000000
  7
SN0
 71
     0
 72
     5
 11
4.335318
 21
1.210440
  0
TEXT
  8
0
 10
3.377000
 20
1.019040
 40
0.138113
  1
1-11/16" x 5-7/16"
 41
1.000000
  7
SN0
 71
     0
 72
     5
 11
4.701923
 21
1.019040
  0
ENDSEC
  0
EOF
