  0
SECTION
  2
HEADER
  9
$ACADVER
  1
AC1006
  9
$EXTMIN
 10
2.654520
 20
1.063920
  9
$EXTMAX
 10
5.883240
 20
4.210800
  9
$LTSCALE
 40
0.044000
  9
$PDMODE
 70
    35
  9
$PDSIZE
 40
0.035200
  0
ENDSEC
  0
SECTION
  2
TABLES
  0
TABLE
  2
LTYPE
 70
     9
  0
LTYPE
  2
CONTINUOUS
 70
    64
  3
Solid line
 72
    65
 73
     0
 40
0.000000
  0
LTYPE
  2
DASHED
 70
    64
  3
__ __ __ __ __ __ __ __ __ __ __ __ __ __ __
 72
    65
 73
     2
 40
0.000330
 49
0.000220
 49
-0.000110
  0
LTYPE
  2
HIDDEN
 70
    64
  3
 _ _ _ _ _ _ _ _ _ _ _ _ _ _ _ _ _ _ _ _ _ _
 72
    65
 73
     2
 40
0.000165
 49
0.000110
 49
-0.000055
  0
LTYPE
  2
CENTER
 70
    64
  3
____ _ ____ _ ____ _ ____ _ ____ _ ____ _ ____
 72
    65
 73
     4
 40
0.000880
 49
0.000550
 49
-0.000110
 49
0.000110
 49
-0.000110
  0
LTYPE
  2
PHANTOM
 70
    64
  3
_____ _ _ _____ _ _ _____ _ _ _____ _ _ ____
 72
    65
 73
     6
 40
0.001100
 49
0.000550
 49
-0.000110
 49
0.000110
 49
-0.000110
 49
0.000110
 49
-0.000110
  0
LTYPE
  2
DOT
 70
    64
  3
...............................................
 72
    65
 73
     2
 40
0.000110
 49
0.000000
 49
-0.000110
  0
LTYPE
  2
DASHDOT
 70
    64
  3
__ . __ . __ . __ . __ . __ . __ . __ . __ . __
 72
    65
 73
     4
 40
0.000440
 49
0.000220
 49
-0.000110
 49
0.000000
 49
-0.000110
  0
LTYPE
  2
BORDER
 70
    64
  3
__ __ . __ __ . __ __ . __ __ . __ __ . __ __
 72
    65
 73
     6
 40
0.000770
 49
0.000220
 49
-0.000110
 49
0.000220
 49
-0.000110
 49
0.000000
 49
-0.000110
  0
LTYPE
  2
DIVIDE
 70
    64
  3
__ . . __ . . __ . . __ . . __ . . __ . . __
 72
    65
 73
     6
 40
0.000550
 49
0.000220
 49
-0.000110
 49
0.000000
 49
-0.000110
 49
0.000000
 49
-0.000110
  0
LTYPE
  2
DOTDOT
 70
    64
  3
 . .  . .  . .  . .  . .  . . 
 72
    65
 73
     5
 40
0.000242
 49
-0.000110
 49
0.000000
 49
-0.000110
 49
0.000000
 49
-0.000110
  0
ENDTAB
  0
TABLE
  2
STYLE
 70
     2
  0
STYLE
 70
     0
  2
SN0
 40
0.000000
 41
0.000440
 50
0.000000
 71
     0
 42
0.000000
  3
ROMAND
  0
STYLE
 70
    68
  2
SV0
 40
0.000000
 41
0.000440
 50
0.000000
 71
     0
 42
0.000000
  3
ROMAND
  0
ENDTAB
  0
TABLE
  2
LAYER
 70
     3
  0
LAYER
  2
FOREGROUND
 70
    64
 62
     7
  6
CONTINUOUS
  0
LAYER
  2
BACKGROUND
 70
    65
 62
    -7
  6
CONTINUOUS
  0
LAYER
  2
0
 70
    64
 62
     7
  6
CONTINUOUS
  0
ENDTAB
  0
ENDSEC
  0
SECTION
  2
ENTITIES
  0
POLYLINE
  8
FOREGROUND
  6
CONTINUOUS
 66
     1
 40
0.000000
 41
0.000000
  0
VERTEX
  8
FOREGROUND
  6
CONTINUOUS
 10
0.000000
 20
5.274720
  0
VERTEX
  8
FOREGROUND
  6
CONTINUOUS
 10
8.499920
 20
5.274720
  0
VERTEX
  8
FOREGROUND
  6
CONTINUOUS
 10
8.499920
 20
-5.725280
  0
VERTEX
  8
FOREGROUND
  6
CONTINUOUS
 10
0.000000
 20
-5.725280
  0
VERTEX
  8
FOREGROUND
  6
CONTINUOUS
 10
0.000000
 20
5.274720
  0
SEQEND
  8
0
  0
POLYLINE
  8
FOREGROUND
  6
CONTINUOUS
 66
     1
 40
0.000000
 41
0.000000
  0
VERTEX
  8
FOREGROUND
  6
CONTINUOUS
 10
0.000000
 20
5.274720
  0
VERTEX
  8
FOREGROUND
  6
CONTINUOUS
 10
8.499920
 20
5.274720
  0
VERTEX
  8
FOREGROUND
  6
CONTINUOUS
 10
8.499920
 20
-5.725280
  0
VERTEX
  8
FOREGROUND
  6
CONTINUOUS
 10
0.000000
 20
-5.725280
  0
VERTEX
  8
FOREGROUND
  6
CONTINUOUS
 10
0.000000
 20
5.274720
  0
SEQEND
  8
0
  0
POLYLINE
  8
0
  6
CONTINUOUS
 66
     1
 40
0.014080
 41
0.014080
  0
VERTEX
  8
0
  6
CONTINUOUS
 10
2.802360
 20
3.816120
  0
VERTEX
  8
0
  6
CONTINUOUS
 10
2.807200
 20
3.862320
  0
VERTEX
  8
0
  6
CONTINUOUS
 10
2.815120
 20
3.905440
  0
VERTEX
  8
0
  6
CONTINUOUS
 10
2.825240
 20
3.945040
  0
VERTEX
  8
0
  6
CONTINUOUS
 10
2.845040
 20
3.998280
  0
VERTEX
  8
0
  6
CONTINUOUS
 10
2.869680
 20
4.044920
  0
VERTEX
  8
0
  6
CONTINUOUS
 10
2.898720
 20
4.084960
  0
VERTEX
  8
0
  6
CONTINUOUS
 10
2.931280
 20
4.118840
  0
VERTEX
  8
0
  6
CONTINUOUS
 10
2.966480
 20
4.146120
  0
VERTEX
  8
0
  6
CONTINUOUS
 10
3.004760
 20
4.168120
  0
VERTEX
  8
0
  6
CONTINUOUS
 10
3.031600
 20
4.179560
  0
VERTEX
  8
0
  6
CONTINUOUS
 10
3.058880
 20
4.188800
  0
VERTEX
  8
0
  6
CONTINUOUS
 10
3.086600
 20
4.195400
  0
VERTEX
  8
0
  6
CONTINUOUS
 10
3.114760
 20
4.200240
  0
VERTEX
  8
0
  6
CONTINUOUS
 10
3.143360
 20
4.202880
  0
VERTEX
  8
0
  6
CONTINUOUS
 10
3.171960
 20
4.203320
  0
VERTEX
  8
0
  6
CONTINUOUS
 10
3.200120
 20
4.202000
  0
VERTEX
  8
0
  6
CONTINUOUS
 10
3.256000
 20
4.193640
  0
VERTEX
  8
0
  6
CONTINUOUS
 10
3.283280
 20
4.187040
  0
VERTEX
  8
0
  6
CONTINUOUS
 10
3.309680
 20
4.178680
  0
VERTEX
  8
0
  6
CONTINUOUS
 10
3.359400
 20
4.157560
  0
VERTEX
  8
0
  6
CONTINUOUS
 10
3.404280
 20
4.131160
  0
VERTEX
  8
0
  6
CONTINUOUS
 10
3.442560
 20
4.099480
  0
VERTEX
  8
0
  6
CONTINUOUS
 10
3.458840
 20
4.082320
  0
VERTEX
  8
0
  6
CONTINUOUS
 10
3.479520
 20
4.055040
  0
VERTEX
  8
0
  6
CONTINUOUS
 10
3.500640
 20
4.020720
  0
VERTEX
  8
0
  6
CONTINUOUS
 10
3.528360
 20
3.988160
  0
VERTEX
  8
0
  6
CONTINUOUS
 10
3.560480
 20
3.961320
  0
VERTEX
  8
0
  6
CONTINUOUS
 10
3.583800
 20
3.945920
  0
VERTEX
  8
0
  6
CONTINUOUS
 10
3.608000
 20
3.932720
  0
VERTEX
  8
0
  6
CONTINUOUS
 10
3.633080
 20
3.921720
  0
VERTEX
  8
0
  6
CONTINUOUS
 10
3.658600
 20
3.912480
  0
VERTEX
  8
0
  6
CONTINUOUS
 10
3.710080
 20
3.899280
  0
VERTEX
  8
0
  6
CONTINUOUS
 10
3.735160
 20
3.894880
  0
VERTEX
  8
0
  6
CONTINUOUS
 10
3.782240
 20
3.890920
  0
VERTEX
  8
0
  6
CONTINUOUS
 10
3.803800
 20
3.890920
  0
VERTEX
  8
0
  6
CONTINUOUS
 10
3.841200
 20
3.894440
  0
VERTEX
  8
0
  6
CONTINUOUS
 10
3.842520
 20
3.890480
  0
VERTEX
  8
0
  6
CONTINUOUS
 10
3.842520
 20
3.833280
  0
VERTEX
  8
0
  6
CONTINUOUS
 10
5.478440
 20
3.833280
  0
VERTEX
  8
0
  6
CONTINUOUS
 10
5.478440
 20
3.810840
  0
VERTEX
  8
0
  6
CONTINUOUS
 10
5.511440
 20
3.809080
  0
VERTEX
  8
0
  6
CONTINUOUS
 10
5.557640
 20
3.802920
  0
VERTEX
  8
0
  6
CONTINUOUS
 10
5.600760
 20
3.792800
  0
VERTEX
  8
0
  6
CONTINUOUS
 10
5.640800
 20
3.778720
  0
VERTEX
  8
0
  6
CONTINUOUS
 10
5.678200
 20
3.761560
  0
VERTEX
  8
0
  6
CONTINUOUS
 10
5.712520
 20
3.740880
  0
VERTEX
  8
0
  6
CONTINUOUS
 10
5.744200
 20
3.716680
  0
VERTEX
  8
0
  6
CONTINUOUS
 10
5.772360
 20
3.689400
  0
VERTEX
  8
0
  6
CONTINUOUS
 10
5.797440
 20
3.659040
  0
VERTEX
  8
0
  6
CONTINUOUS
 10
5.819000
 20
3.626040
  0
VERTEX
  8
0
  6
CONTINUOUS
 10
5.837480
 20
3.589960
  0
VERTEX
  8
0
  6
CONTINUOUS
 10
5.852440
 20
3.551680
  0
VERTEX
  8
0
  6
CONTINUOUS
 10
5.863440
 20
3.510760
  0
VERTEX
  8
0
  6
CONTINUOUS
 10
5.871360
 20
3.467640
  0
VERTEX
  8
0
  6
CONTINUOUS
 10
5.875320
 20
3.422320
  0
VERTEX
  8
0
  6
CONTINUOUS
 10
5.875760
 20
3.374800
  0
VERTEX
  8
0
  6
CONTINUOUS
 10
5.874440
 20
3.350600
  0
VERTEX
  8
0
  6
CONTINUOUS
 10
5.873120
 20
3.347960
  0
VERTEX
  8
0
  6
CONTINUOUS
 10
2.702480
 20
3.347960
  0
VERTEX
  8
0
  6
CONTINUOUS
 10
2.702480
 20
3.809080
  0
VERTEX
  8
0
  6
CONTINUOUS
 10
2.803680
 20
3.809080
  0
VERTEX
  8
0
  6
CONTINUOUS
 10
2.802360
 20
3.816120
  0
SEQEND
  8
0
  0
SOLID
  8
0
 62
    15
 10
3.711840
 20
2.078560
 11
3.713160
 21
2.816880
 12
3.756280
 22
2.077240
 13
3.757600
 23
2.815560
  0
POLYLINE
  8
0
  6
CONTINUOUS
 66
     1
 40
0.000000
 41
0.000000
  0
VERTEX
  8
0
  6
CONTINUOUS
 10
3.711840
 20
2.078560
  0
VERTEX
  8
0
  6
CONTINUOUS
 10
3.713160
 20
2.816880
  0
VERTEX
  8
0
  6
CONTINUOUS
 10
3.757600
 20
2.815560
  0
VERTEX
  8
0
  6
CONTINUOUS
 10
3.756280
 20
2.077240
  0
VERTEX
  8
0
  6
CONTINUOUS
 10
3.711840
 20
2.078560
  0
SEQEND
  8
0
  0
SOLID
  8
0
 62
    15
 10
2.760120
 20
2.048200
 11
2.761440
 21
2.786520
 12
2.768040
 22
2.091320
 13
2.769360
 23
2.829640
  0
POLYLINE
  8
0
  6
CONTINUOUS
 66
     1
 40
0.000000
 41
0.000000
  0
VERTEX
  8
0
  6
CONTINUOUS
 10
2.760120
 20
2.048200
  0
VERTEX
  8
0
  6
CONTINUOUS
 10
2.761440
 20
2.786520
  0
VERTEX
  8
0
  6
CONTINUOUS
 10
2.769360
 20
2.829640
  0
VERTEX
  8
0
  6
CONTINUOUS
 10
2.768040
 20
2.091320
  0
VERTEX
  8
0
  6
CONTINUOUS
 10
2.760120
 20
2.048200
  0
SEQEND
  8
0
  0
SOLID
  8
0
 62
    15
 10
2.768040
 20
2.091320
 11
2.769360
 21
2.829640
 12
2.790920
 22
2.167440
 13
2.792240
 23
2.905760
  0
POLYLINE
  8
0
  6
CONTINUOUS
 66
     1
 40
0.000000
 41
0.000000
  0
VERTEX
  8
0
  6
CONTINUOUS
 10
2.768040
 20
2.091320
  0
VERTEX
  8
0
  6
CONTINUOUS
 10
2.769360
 20
2.829640
  0
VERTEX
  8
0
  6
CONTINUOUS
 10
2.792240
 20
2.905760
  0
VERTEX
  8
0
  6
CONTINUOUS
 10
2.790920
 20
2.167440
  0
VERTEX
  8
0
  6
CONTINUOUS
 10
2.768040
 20
2.091320
  0
SEQEND
  8
0
  0
SOLID
  8
0
 62
    15
 10
2.790920
 20
2.167440
 11
2.792240
 21
2.905760
 12
2.822600
 22
2.231240
 13
2.823920
 23
2.969120
  0
POLYLINE
  8
0
  6
CONTINUOUS
 66
     1
 40
0.000000
 41
0.000000
  0
VERTEX
  8
0
  6
CONTINUOUS
 10
2.790920
 20
2.167440
  0
VERTEX
  8
0
  6
CONTINUOUS
 10
2.792240
 20
2.905760
  0
VERTEX
  8
0
  6
CONTINUOUS
 10
2.823920
 20
2.969120
  0
VERTEX
  8
0
  6
CONTINUOUS
 10
2.822600
 20
2.231240
  0
VERTEX
  8
0
  6
CONTINUOUS
 10
2.790920
 20
2.167440
  0
SEQEND
  8
0
  0
SOLID
  8
0
 62
    15
 10
2.822600
 20
2.231240
 11
2.823920
 21
2.969120
 12
2.861760
 22
2.282720
 13
2.863080
 23
3.021040
  0
POLYLINE
  8
0
  6
CONTINUOUS
 66
     1
 40
0.000000
 41
0.000000
  0
VERTEX
  8
0
  6
CONTINUOUS
 10
2.822600
 20
2.231240
  0
VERTEX
  8
0
  6
CONTINUOUS
 10
2.823920
 20
2.969120
  0
VERTEX
  8
0
  6
CONTINUOUS
 10
2.863080
 20
3.021040
  0
VERTEX
  8
0
  6
CONTINUOUS
 10
2.861760
 20
2.282720
  0
VERTEX
  8
0
  6
CONTINUOUS
 10
2.822600
 20
2.231240
  0
SEQEND
  8
0
  0
SOLID
  8
0
 62
    15
 10
2.861760
 20
2.282720
 11
2.863080
 21
3.021040
 12
2.907080
 22
2.323640
 13
2.908400
 23
3.061960
  0
POLYLINE
  8
0
  6
CONTINUOUS
 66
     1
 40
0.000000
 41
0.000000
  0
VERTEX
  8
0
  6
CONTINUOUS
 10
2.861760
 20
2.282720
  0
VERTEX
  8
0
  6
CONTINUOUS
 10
2.863080
 20
3.021040
  0
VERTEX
  8
0
  6
CONTINUOUS
 10
2.908400
 20
3.061960
  0
VERTEX
  8
0
  6
CONTINUOUS
 10
2.907080
 20
2.323640
  0
VERTEX
  8
0
  6
CONTINUOUS
 10
2.861760
 20
2.282720
  0
SEQEND
  8
0
  0
SOLID
  8
0
 62
    15
 10
2.907080
 20
2.323640
 11
2.908400
 21
3.061960
 12
2.957680
 22
2.354000
 13
2.959000
 23
3.092320
  0
POLYLINE
  8
0
  6
CONTINUOUS
 66
     1
 40
0.000000
 41
0.000000
  0
VERTEX
  8
0
  6
CONTINUOUS
 10
2.907080
 20
2.323640
  0
VERTEX
  8
0
  6
CONTINUOUS
 10
2.908400
 20
3.061960
  0
VERTEX
  8
0
  6
CONTINUOUS
 10
2.959000
 20
3.092320
  0
VERTEX
  8
0
  6
CONTINUOUS
 10
2.957680
 20
2.354000
  0
VERTEX
  8
0
  6
CONTINUOUS
 10
2.907080
 20
2.323640
  0
SEQEND
  8
0
  0
SOLID
  8
0
 62
    15
 10
2.957680
 20
2.354000
 11
2.959000
 21
3.092320
 12
3.011360
 22
2.374680
 13
3.012680
 23
3.113000
  0
POLYLINE
  8
0
  6
CONTINUOUS
 66
     1
 40
0.000000
 41
0.000000
  0
VERTEX
  8
0
  6
CONTINUOUS
 10
2.957680
 20
2.354000
  0
VERTEX
  8
0
  6
CONTINUOUS
 10
2.959000
 20
3.092320
  0
VERTEX
  8
0
  6
CONTINUOUS
 10
3.012680
 20
3.113000
  0
VERTEX
  8
0
  6
CONTINUOUS
 10
3.011360
 20
2.374680
  0
VERTEX
  8
0
  6
CONTINUOUS
 10
2.957680
 20
2.354000
  0
SEQEND
  8
0
  0
SOLID
  8
0
 62
    15
 10
3.011360
 20
2.374680
 11
3.012680
 21
3.113000
 12
3.067240
 22
2.386120
 13
3.069000
 23
3.124440
  0
POLYLINE
  8
0
  6
CONTINUOUS
 66
     1
 40
0.000000
 41
0.000000
  0
VERTEX
  8
0
  6
CONTINUOUS
 10
3.011360
 20
2.374680
  0
VERTEX
  8
0
  6
CONTINUOUS
 10
3.012680
 20
3.113000
  0
VERTEX
  8
0
  6
CONTINUOUS
 10
3.069000
 20
3.124440
  0
VERTEX
  8
0
  6
CONTINUOUS
 10
3.067240
 20
2.386120
  0
VERTEX
  8
0
  6
CONTINUOUS
 10
3.011360
 20
2.374680
  0
SEQEND
  8
0
  0
SOLID
  8
0
 62
    15
 10
3.067240
 20
2.386120
 11
3.069000
 21
3.124440
 12
3.124440
 22
2.389200
 13
3.125760
 23
3.127520
  0
POLYLINE
  8
0
  6
CONTINUOUS
 66
     1
 40
0.000000
 41
0.000000
  0
VERTEX
  8
0
  6
CONTINUOUS
 10
3.067240
 20
2.386120
  0
VERTEX
  8
0
  6
CONTINUOUS
 10
3.069000
 20
3.124440
  0
VERTEX
  8
0
  6
CONTINUOUS
 10
3.125760
 20
3.127520
  0
VERTEX
  8
0
  6
CONTINUOUS
 10
3.124440
 20
2.389200
  0
VERTEX
  8
0
  6
CONTINUOUS
 10
3.067240
 20
2.386120
  0
SEQEND
  8
0
  0
SOLID
  8
0
 62
    15
 10
3.124440
 20
2.389200
 11
3.125760
 21
3.127520
 12
3.180760
 22
2.384800
 13
3.182520
 23
3.123120
  0
POLYLINE
  8
0
  6
CONTINUOUS
 66
     1
 40
0.000000
 41
0.000000
  0
VERTEX
  8
0
  6
CONTINUOUS
 10
3.124440
 20
2.389200
  0
VERTEX
  8
0
  6
CONTINUOUS
 10
3.125760
 20
3.127520
  0
VERTEX
  8
0
  6
CONTINUOUS
 10
3.182520
 20
3.123120
  0
VERTEX
  8
0
  6
CONTINUOUS
 10
3.180760
 20
2.384800
  0
VERTEX
  8
0
  6
CONTINUOUS
 10
3.124440
 20
2.389200
  0
SEQEND
  8
0
  0
SOLID
  8
0
 62
    15
 10
3.180760
 20
2.384800
 11
3.182520
 21
3.123120
 12
3.235760
 22
2.372920
 13
3.237080
 23
3.111240
  0
POLYLINE
  8
0
  6
CONTINUOUS
 66
     1
 40
0.000000
 41
0.000000
  0
VERTEX
  8
0
  6
CONTINUOUS
 10
3.180760
 20
2.384800
  0
VERTEX
  8
0
  6
CONTINUOUS
 10
3.182520
 20
3.123120
  0
VERTEX
  8
0
  6
CONTINUOUS
 10
3.237080
 20
3.111240
  0
VERTEX
  8
0
  6
CONTINUOUS
 10
3.235760
 20
2.372920
  0
VERTEX
  8
0
  6
CONTINUOUS
 10
3.180760
 20
2.384800
  0
SEQEND
  8
0
  0
SOLID
  8
0
 62
    15
 10
3.235760
 20
2.372920
 11
3.237080
 21
3.111240
 12
3.287680
 22
2.354880
 13
3.289000
 23
3.093200
  0
POLYLINE
  8
0
  6
CONTINUOUS
 66
     1
 40
0.000000
 41
0.000000
  0
VERTEX
  8
0
  6
CONTINUOUS
 10
3.235760
 20
2.372920
  0
VERTEX
  8
0
  6
CONTINUOUS
 10
3.237080
 20
3.111240
  0
VERTEX
  8
0
  6
CONTINUOUS
 10
3.289000
 20
3.093200
  0
VERTEX
  8
0
  6
CONTINUOUS
 10
3.287680
 20
2.354880
  0
VERTEX
  8
0
  6
CONTINUOUS
 10
3.235760
 20
2.372920
  0
SEQEND
  8
0
  0
SOLID
  8
0
 62
    15
 10
3.287680
 20
2.354880
 11
3.289000
 21
3.093200
 12
3.334760
 22
2.330680
 13
3.336520
 23
3.069000
  0
POLYLINE
  8
0
  6
CONTINUOUS
 66
     1
 40
0.000000
 41
0.000000
  0
VERTEX
  8
0
  6
CONTINUOUS
 10
3.287680
 20
2.354880
  0
VERTEX
  8
0
  6
CONTINUOUS
 10
3.289000
 20
3.093200
  0
VERTEX
  8
0
  6
CONTINUOUS
 10
3.336520
 20
3.069000
  0
VERTEX
  8
0
  6
CONTINUOUS
 10
3.334760
 20
2.330680
  0
VERTEX
  8
0
  6
CONTINUOUS
 10
3.287680
 20
2.354880
  0
SEQEND
  8
0
  0
SOLID
  8
0
 62
    15
 10
3.334760
 20
2.330680
 11
3.336520
 21
3.069000
 12
3.376560
 22
2.302080
 13
3.378320
 23
3.039960
  0
POLYLINE
  8
0
  6
CONTINUOUS
 66
     1
 40
0.000000
 41
0.000000
  0
VERTEX
  8
0
  6
CONTINUOUS
 10
3.334760
 20
2.330680
  0
VERTEX
  8
0
  6
CONTINUOUS
 10
3.336520
 20
3.069000
  0
VERTEX
  8
0
  6
CONTINUOUS
 10
3.378320
 20
3.039960
  0
VERTEX
  8
0
  6
CONTINUOUS
 10
3.376560
 20
2.302080
  0
VERTEX
  8
0
  6
CONTINUOUS
 10
3.334760
 20
2.330680
  0
SEQEND
  8
0
  0
SOLID
  8
0
 62
    15
 10
3.376560
 20
2.302080
 11
3.378320
 21
3.039960
 12
3.411320
 22
2.268640
 13
3.412640
 23
3.006960
  0
POLYLINE
  8
0
  6
CONTINUOUS
 66
     1
 40
0.000000
 41
0.000000
  0
VERTEX
  8
0
  6
CONTINUOUS
 10
3.376560
 20
2.302080
  0
VERTEX
  8
0
  6
CONTINUOUS
 10
3.378320
 20
3.039960
  0
VERTEX
  8
0
  6
CONTINUOUS
 10
3.412640
 20
3.006960
  0
VERTEX
  8
0
  6
CONTINUOUS
 10
3.411320
 20
2.268640
  0
VERTEX
  8
0
  6
CONTINUOUS
 10
3.376560
 20
2.302080
  0
SEQEND
  8
0
  0
SOLID
  8
0
 62
    15
 10
3.411320
 20
2.268640
 11
3.412640
 21
3.006960
 12
3.437720
 22
2.231240
 13
3.439040
 23
2.969560
  0
POLYLINE
  8
0
  6
CONTINUOUS
 66
     1
 40
0.000000
 41
0.000000
  0
VERTEX
  8
0
  6
CONTINUOUS
 10
3.411320
 20
2.268640
  0
VERTEX
  8
0
  6
CONTINUOUS
 10
3.412640
 20
3.006960
  0
VERTEX
  8
0
  6
CONTINUOUS
 10
3.439040
 20
2.969560
  0
VERTEX
  8
0
  6
CONTINUOUS
 10
3.437720
 20
2.231240
  0
VERTEX
  8
0
  6
CONTINUOUS
 10
3.411320
 20
2.268640
  0
SEQEND
  8
0
  0
SOLID
  8
0
 62
    15
 10
3.437720
 20
2.231240
 11
3.439040
 21
2.969560
 12
3.471160
 22
2.184600
 13
3.472920
 23
2.922920
  0
POLYLINE
  8
0
  6
CONTINUOUS
 66
     1
 40
0.000000
 41
0.000000
  0
VERTEX
  8
0
  6
CONTINUOUS
 10
3.437720
 20
2.231240
  0
VERTEX
  8
0
  6
CONTINUOUS
 10
3.439040
 20
2.969560
  0
VERTEX
  8
0
  6
CONTINUOUS
 10
3.472920
 20
2.922920
  0
VERTEX
  8
0
  6
CONTINUOUS
 10
3.471160
 20
2.184600
  0
VERTEX
  8
0
  6
CONTINUOUS
 10
3.437720
 20
2.231240
  0
SEQEND
  8
0
  0
SOLID
  8
0
 62
    15
 10
3.471160
 20
2.184600
 11
3.472920
 21
2.922920
 12
3.512960
 22
2.147200
 13
3.514720
 23
2.885520
  0
POLYLINE
  8
0
  6
CONTINUOUS
 66
     1
 40
0.000000
 41
0.000000
  0
VERTEX
  8
0
  6
CONTINUOUS
 10
3.471160
 20
2.184600
  0
VERTEX
  8
0
  6
CONTINUOUS
 10
3.472920
 20
2.922920
  0
VERTEX
  8
0
  6
CONTINUOUS
 10
3.514720
 20
2.885520
  0
VERTEX
  8
0
  6
CONTINUOUS
 10
3.512960
 20
2.147200
  0
VERTEX
  8
0
  6
CONTINUOUS
 10
3.471160
 20
2.184600
  0
SEQEND
  8
0
  0
SOLID
  8
0
 62
    15
 10
3.512960
 20
2.147200
 11
3.514720
 21
2.885520
 12
3.560480
 22
2.119040
 13
3.562240
 23
2.856920
  0
POLYLINE
  8
0
  6
CONTINUOUS
 66
     1
 40
0.000000
 41
0.000000
  0
VERTEX
  8
0
  6
CONTINUOUS
 10
3.512960
 20
2.147200
  0
VERTEX
  8
0
  6
CONTINUOUS
 10
3.514720
 20
2.885520
  0
VERTEX
  8
0
  6
CONTINUOUS
 10
3.562240
 20
2.856920
  0
VERTEX
  8
0
  6
CONTINUOUS
 10
3.560480
 20
2.119040
  0
VERTEX
  8
0
  6
CONTINUOUS
 10
3.512960
 20
2.147200
  0
SEQEND
  8
0
  0
SOLID
  8
0
 62
    15
 10
3.560480
 20
2.119040
 11
3.562240
 21
2.856920
 12
3.611080
 22
2.098360
 13
3.612840
 23
2.836680
  0
POLYLINE
  8
0
  6
CONTINUOUS
 66
     1
 40
0.000000
 41
0.000000
  0
VERTEX
  8
0
  6
CONTINUOUS
 10
3.560480
 20
2.119040
  0
VERTEX
  8
0
  6
CONTINUOUS
 10
3.562240
 20
2.856920
  0
VERTEX
  8
0
  6
CONTINUOUS
 10
3.612840
 20
2.836680
  0
VERTEX
  8
0
  6
CONTINUOUS
 10
3.611080
 20
2.098360
  0
VERTEX
  8
0
  6
CONTINUOUS
 10
3.560480
 20
2.119040
  0
SEQEND
  8
0
  0
SOLID
  8
0
 62
    15
 10
3.611080
 20
2.098360
 11
3.612840
 21
2.836680
 12
3.662560
 22
2.085160
 13
3.663880
 23
2.823480
  0
POLYLINE
  8
0
  6
CONTINUOUS
 66
     1
 40
0.000000
 41
0.000000
  0
VERTEX
  8
0
  6
CONTINUOUS
 10
3.611080
 20
2.098360
  0
VERTEX
  8
0
  6
CONTINUOUS
 10
3.612840
 20
2.836680
  0
VERTEX
  8
0
  6
CONTINUOUS
 10
3.663880
 20
2.823480
  0
VERTEX
  8
0
  6
CONTINUOUS
 10
3.662560
 20
2.085160
  0
VERTEX
  8
0
  6
CONTINUOUS
 10
3.611080
 20
2.098360
  0
SEQEND
  8
0
  0
SOLID
  8
0
 62
    15
 10
3.662560
 20
2.085160
 11
3.663880
 21
2.823480
 12
3.711840
 22
2.078560
 13
3.713160
 23
2.816880
  0
POLYLINE
  8
0
  6
CONTINUOUS
 66
     1
 40
0.000000
 41
0.000000
  0
VERTEX
  8
0
  6
CONTINUOUS
 10
3.662560
 20
2.085160
  0
VERTEX
  8
0
  6
CONTINUOUS
 10
3.663880
 20
2.823480
  0
VERTEX
  8
0
  6
CONTINUOUS
 10
3.713160
 20
2.816880
  0
VERTEX
  8
0
  6
CONTINUOUS
 10
3.711840
 20
2.078560
  0
VERTEX
  8
0
  6
CONTINUOUS
 10
3.662560
 20
2.085160
  0
SEQEND
  8
0
  0
SOLID
  8
0
 62
    15
 10
2.654960
 20
1.995400
 11
2.656720
 21
2.733720
 12
2.756600
 22
1.995400
 13
2.757920
 23
2.733720
  0
POLYLINE
  8
0
  6
CONTINUOUS
 66
     1
 40
0.000000
 41
0.000000
  0
VERTEX
  8
0
  6
CONTINUOUS
 10
2.654960
 20
1.995400
  0
VERTEX
  8
0
  6
CONTINUOUS
 10
2.656720
 20
2.733720
  0
VERTEX
  8
0
  6
CONTINUOUS
 10
2.757920
 20
2.733720
  0
VERTEX
  8
0
  6
CONTINUOUS
 10
2.756600
 20
1.995400
  0
VERTEX
  8
0
  6
CONTINUOUS
 10
2.654960
 20
1.995400
  0
SEQEND
  8
0
  0
SOLID
  8
0
 62
    15
 10
3.756280
 20
2.077240
 11
3.757600
 21
2.815560
 12
3.793680
 22
2.080760
 13
3.795440
 23
2.819080
  0
POLYLINE
  8
0
  6
CONTINUOUS
 66
     1
 40
0.000000
 41
0.000000
  0
VERTEX
  8
0
  6
CONTINUOUS
 10
3.756280
 20
2.077240
  0
VERTEX
  8
0
  6
CONTINUOUS
 10
3.757600
 20
2.815560
  0
VERTEX
  8
0
  6
CONTINUOUS
 10
3.795440
 20
2.819080
  0
VERTEX
  8
0
  6
CONTINUOUS
 10
3.793680
 20
2.080760
  0
VERTEX
  8
0
  6
CONTINUOUS
 10
3.756280
 20
2.077240
  0
SEQEND
  8
0
  0
SOLID
  8
0
 62
    15
 10
3.793680
 20
2.080760
 11
3.795440
 21
2.819080
 12
3.795000
 22
2.076800
 13
3.796760
 23
2.815120
  0
POLYLINE
  8
0
  6
CONTINUOUS
 66
     1
 40
0.000000
 41
0.000000
  0
VERTEX
  8
0
  6
CONTINUOUS
 10
3.793680
 20
2.080760
  0
VERTEX
  8
0
  6
CONTINUOUS
 10
3.795440
 20
2.819080
  0
VERTEX
  8
0
  6
CONTINUOUS
 10
3.796760
 20
2.815120
  0
VERTEX
  8
0
  6
CONTINUOUS
 10
3.795000
 20
2.076800
  0
VERTEX
  8
0
  6
CONTINUOUS
 10
3.793680
 20
2.080760
  0
SEQEND
  8
0
  0
SOLID
  8
0
 62
    15
 10
3.795000
 20
2.076800
 11
3.796760
 21
2.815120
 12
3.795000
 22
2.019160
 13
3.796760
 23
2.757480
  0
POLYLINE
  8
0
  6
CONTINUOUS
 66
     1
 40
0.000000
 41
0.000000
  0
VERTEX
  8
0
  6
CONTINUOUS
 10
3.795000
 20
2.076800
  0
VERTEX
  8
0
  6
CONTINUOUS
 10
3.796760
 20
2.815120
  0
VERTEX
  8
0
  6
CONTINUOUS
 10
3.796760
 20
2.757480
  0
VERTEX
  8
0
  6
CONTINUOUS
 10
3.795000
 20
2.019160
  0
VERTEX
  8
0
  6
CONTINUOUS
 10
3.795000
 20
2.076800
  0
SEQEND
  8
0
  0
SOLID
  8
0
 62
    15
 10
5.431360
 20
1.996720
 11
5.432680
 21
2.735040
 12
5.440600
 22
1.996720
 13
5.441920
 23
2.735040
  0
POLYLINE
  8
0
  6
CONTINUOUS
 66
     1
 40
0.000000
 41
0.000000
  0
VERTEX
  8
0
  6
CONTINUOUS
 10
5.431360
 20
1.996720
  0
VERTEX
  8
0
  6
CONTINUOUS
 10
5.432680
 20
2.735040
  0
VERTEX
  8
0
  6
CONTINUOUS
 10
5.441920
 20
2.735040
  0
VERTEX
  8
0
  6
CONTINUOUS
 10
5.440600
 20
1.996720
  0
VERTEX
  8
0
  6
CONTINUOUS
 10
5.431360
 20
1.996720
  0
SEQEND
  8
0
  0
SOLID
  8
0
 62
    15
 10
5.431360
 20
2.019160
 11
5.432680
 21
2.757480
 12
5.431360
 22
1.996720
 13
5.432680
 23
2.735040
  0
POLYLINE
  8
0
  6
CONTINUOUS
 66
     1
 40
0.000000
 41
0.000000
  0
VERTEX
  8
0
  6
CONTINUOUS
 10
5.431360
 20
2.019160
  0
VERTEX
  8
0
  6
CONTINUOUS
 10
5.432680
 20
2.757480
  0
VERTEX
  8
0
  6
CONTINUOUS
 10
5.432680
 20
2.735040
  0
VERTEX
  8
0
  6
CONTINUOUS
 10
5.431360
 20
1.996720
  0
VERTEX
  8
0
  6
CONTINUOUS
 10
5.431360
 20
2.019160
  0
SEQEND
  8
0
  0
SOLID
  8
0
 62
    15
 10
3.795000
 20
2.019160
 11
3.796760
 21
2.757480
 12
5.431360
 22
2.019160
 13
5.432680
 23
2.757480
  0
POLYLINE
  8
0
  6
CONTINUOUS
 66
     1
 40
0.000000
 41
0.000000
  0
VERTEX
  8
0
  6
CONTINUOUS
 10
3.795000
 20
2.019160
  0
VERTEX
  8
0
  6
CONTINUOUS
 10
3.796760
 20
2.757480
  0
VERTEX
  8
0
  6
CONTINUOUS
 10
5.432680
 20
2.757480
  0
VERTEX
  8
0
  6
CONTINUOUS
 10
5.431360
 20
2.019160
  0
VERTEX
  8
0
  6
CONTINUOUS
 10
3.795000
 20
2.019160
  0
SEQEND
  8
0
  0
SOLID
  8
0
 62
    15
 10
5.440600
 20
1.996720
 11
5.441920
 21
2.735040
 12
5.487680
 22
1.992320
 13
5.489000
 23
2.730640
  0
POLYLINE
  8
0
  6
CONTINUOUS
 66
     1
 40
0.000000
 41
0.000000
  0
VERTEX
  8
0
  6
CONTINUOUS
 10
5.440600
 20
1.996720
  0
VERTEX
  8
0
  6
CONTINUOUS
 10
5.441920
 20
2.735040
  0
VERTEX
  8
0
  6
CONTINUOUS
 10
5.489000
 20
2.730640
  0
VERTEX
  8
0
  6
CONTINUOUS
 10
5.487680
 20
1.992320
  0
VERTEX
  8
0
  6
CONTINUOUS
 10
5.440600
 20
1.996720
  0
SEQEND
  8
0
  0
SOLID
  8
0
 62
    15
 10
5.487680
 20
1.992320
 11
5.489000
 21
2.730640
 12
5.532120
 22
1.984400
 13
5.533440
 23
2.722720
  0
POLYLINE
  8
0
  6
CONTINUOUS
 66
     1
 40
0.000000
 41
0.000000
  0
VERTEX
  8
0
  6
CONTINUOUS
 10
5.487680
 20
1.992320
  0
VERTEX
  8
0
  6
CONTINUOUS
 10
5.489000
 20
2.730640
  0
VERTEX
  8
0
  6
CONTINUOUS
 10
5.533440
 20
2.722720
  0
VERTEX
  8
0
  6
CONTINUOUS
 10
5.532120
 20
1.984400
  0
VERTEX
  8
0
  6
CONTINUOUS
 10
5.487680
 20
1.992320
  0
SEQEND
  8
0
  0
SOLID
  8
0
 62
    15
 10
5.532120
 20
1.984400
 11
5.533440
 21
2.722720
 12
5.573920
 22
1.972520
 13
5.575240
 23
2.710400
  0
POLYLINE
  8
0
  6
CONTINUOUS
 66
     1
 40
0.000000
 41
0.000000
  0
VERTEX
  8
0
  6
CONTINUOUS
 10
5.532120
 20
1.984400
  0
VERTEX
  8
0
  6
CONTINUOUS
 10
5.533440
 20
2.722720
  0
VERTEX
  8
0
  6
CONTINUOUS
 10
5.575240
 20
2.710400
  0
VERTEX
  8
0
  6
CONTINUOUS
 10
5.573920
 20
1.972520
  0
VERTEX
  8
0
  6
CONTINUOUS
 10
5.532120
 20
1.984400
  0
SEQEND
  8
0
  0
SOLID
  8
0
 62
    15
 10
5.573920
 20
1.972520
 11
5.575240
 21
2.710400
 12
5.612640
 22
1.956680
 13
5.613960
 23
2.695000
  0
POLYLINE
  8
0
  6
CONTINUOUS
 66
     1
 40
0.000000
 41
0.000000
  0
VERTEX
  8
0
  6
CONTINUOUS
 10
5.573920
 20
1.972520
  0
VERTEX
  8
0
  6
CONTINUOUS
 10
5.575240
 20
2.710400
  0
VERTEX
  8
0
  6
CONTINUOUS
 10
5.613960
 20
2.695000
  0
VERTEX
  8
0
  6
CONTINUOUS
 10
5.612640
 20
1.956680
  0
VERTEX
  8
0
  6
CONTINUOUS
 10
5.573920
 20
1.972520
  0
SEQEND
  8
0
  0
SOLID
  8
0
 62
    15
 10
5.612640
 20
1.956680
 11
5.613960
 21
2.695000
 12
5.648280
 22
1.937760
 13
5.650040
 23
2.676080
  0
POLYLINE
  8
0
  6
CONTINUOUS
 66
     1
 40
0.000000
 41
0.000000
  0
VERTEX
  8
0
  6
CONTINUOUS
 10
5.612640
 20
1.956680
  0
VERTEX
  8
0
  6
CONTINUOUS
 10
5.613960
 20
2.695000
  0
VERTEX
  8
0
  6
CONTINUOUS
 10
5.650040
 20
2.676080
  0
VERTEX
  8
0
  6
CONTINUOUS
 10
5.648280
 20
1.937760
  0
VERTEX
  8
0
  6
CONTINUOUS
 10
5.612640
 20
1.956680
  0
SEQEND
  8
0
  0
SOLID
  8
0
 62
    15
 10
5.648280
 20
1.937760
 11
5.650040
 21
2.676080
 12
5.681280
 22
1.915320
 13
5.682600
 23
2.653640
  0
POLYLINE
  8
0
  6
CONTINUOUS
 66
     1
 40
0.000000
 41
0.000000
  0
VERTEX
  8
0
  6
CONTINUOUS
 10
5.648280
 20
1.937760
  0
VERTEX
  8
0
  6
CONTINUOUS
 10
5.650040
 20
2.676080
  0
VERTEX
  8
0
  6
CONTINUOUS
 10
5.682600
 20
2.653640
  0
VERTEX
  8
0
  6
CONTINUOUS
 10
5.681280
 20
1.915320
  0
VERTEX
  8
0
  6
CONTINUOUS
 10
5.648280
 20
1.937760
  0
SEQEND
  8
0
  0
SOLID
  8
0
 62
    15
 10
5.681280
 20
1.915320
 11
5.682600
 21
2.653640
 12
5.711200
 22
1.889360
 13
5.712520
 23
2.627680
  0
POLYLINE
  8
0
  6
CONTINUOUS
 66
     1
 40
0.000000
 41
0.000000
  0
VERTEX
  8
0
  6
CONTINUOUS
 10
5.681280
 20
1.915320
  0
VERTEX
  8
0
  6
CONTINUOUS
 10
5.682600
 20
2.653640
  0
VERTEX
  8
0
  6
CONTINUOUS
 10
5.712520
 20
2.627680
  0
VERTEX
  8
0
  6
CONTINUOUS
 10
5.711200
 20
1.889360
  0
VERTEX
  8
0
  6
CONTINUOUS
 10
5.681280
 20
1.915320
  0
SEQEND
  8
0
  0
SOLID
  8
0
 62
    15
 10
5.711200
 20
1.889360
 11
5.712520
 21
2.627680
 12
5.737600
 22
1.860760
 13
5.739360
 23
2.599080
  0
POLYLINE
  8
0
  6
CONTINUOUS
 66
     1
 40
0.000000
 41
0.000000
  0
VERTEX
  8
0
  6
CONTINUOUS
 10
5.711200
 20
1.889360
  0
VERTEX
  8
0
  6
CONTINUOUS
 10
5.712520
 20
2.627680
  0
VERTEX
  8
0
  6
CONTINUOUS
 10
5.739360
 20
2.599080
  0
VERTEX
  8
0
  6
CONTINUOUS
 10
5.737600
 20
1.860760
  0
VERTEX
  8
0
  6
CONTINUOUS
 10
5.711200
 20
1.889360
  0
SEQEND
  8
0
  0
SOLID
  8
0
 62
    15
 10
5.737600
 20
1.860760
 11
5.739360
 21
2.599080
 12
5.760920
 22
1.829080
 13
5.762680
 23
2.567400
  0
POLYLINE
  8
0
  6
CONTINUOUS
 66
     1
 40
0.000000
 41
0.000000
  0
VERTEX
  8
0
  6
CONTINUOUS
 10
5.737600
 20
1.860760
  0
VERTEX
  8
0
  6
CONTINUOUS
 10
5.739360
 20
2.599080
  0
VERTEX
  8
0
  6
CONTINUOUS
 10
5.762680
 20
2.567400
  0
VERTEX
  8
0
  6
CONTINUOUS
 10
5.760920
 20
1.829080
  0
VERTEX
  8
0
  6
CONTINUOUS
 10
5.737600
 20
1.860760
  0
SEQEND
  8
0
  0
SOLID
  8
0
 62
    15
 10
5.760920
 20
1.829080
 11
5.762680
 21
2.567400
 12
5.781160
 22
1.794320
 13
5.782480
 23
2.532640
  0
POLYLINE
  8
0
  6
CONTINUOUS
 66
     1
 40
0.000000
 41
0.000000
  0
VERTEX
  8
0
  6
CONTINUOUS
 10
5.760920
 20
1.829080
  0
VERTEX
  8
0
  6
CONTINUOUS
 10
5.762680
 20
2.567400
  0
VERTEX
  8
0
  6
CONTINUOUS
 10
5.782480
 20
2.532640
  0
VERTEX
  8
0
  6
CONTINUOUS
 10
5.781160
 20
1.794320
  0
VERTEX
  8
0
  6
CONTINUOUS
 10
5.760920
 20
1.829080
  0
SEQEND
  8
0
  0
SOLID
  8
0
 62
    15
 10
5.781160
 20
1.794320
 11
5.782480
 21
2.532640
 12
5.797880
 22
1.757360
 13
5.799200
 23
2.495680
  0
POLYLINE
  8
0
  6
CONTINUOUS
 66
     1
 40
0.000000
 41
0.000000
  0
VERTEX
  8
0
  6
CONTINUOUS
 10
5.781160
 20
1.794320
  0
VERTEX
  8
0
  6
CONTINUOUS
 10
5.782480
 20
2.532640
  0
VERTEX
  8
0
  6
CONTINUOUS
 10
5.799200
 20
2.495680
  0
VERTEX
  8
0
  6
CONTINUOUS
 10
5.797880
 20
1.757360
  0
VERTEX
  8
0
  6
CONTINUOUS
 10
5.781160
 20
1.794320
  0
SEQEND
  8
0
  0
SOLID
  8
0
 62
    15
 10
5.797880
 20
1.757360
 11
5.799200
 21
2.495680
 12
5.811080
 22
1.717760
 13
5.812400
 23
2.456080
  0
POLYLINE
  8
0
  6
CONTINUOUS
 66
     1
 40
0.000000
 41
0.000000
  0
VERTEX
  8
0
  6
CONTINUOUS
 10
5.797880
 20
1.757360
  0
VERTEX
  8
0
  6
CONTINUOUS
 10
5.799200
 20
2.495680
  0
VERTEX
  8
0
  6
CONTINUOUS
 10
5.812400
 20
2.456080
  0
VERTEX
  8
0
  6
CONTINUOUS
 10
5.811080
 20
1.717760
  0
VERTEX
  8
0
  6
CONTINUOUS
 10
5.797880
 20
1.757360
  0
SEQEND
  8
0
  0
SOLID
  8
0
 62
    15
 10
5.820320
 20
1.675520
 11
5.822080
 21
2.413840
 12
5.826480
 22
1.631520
 13
5.827800
 23
2.369840
  0
POLYLINE
  8
0
  6
CONTINUOUS
 66
     1
 40
0.000000
 41
0.000000
  0
VERTEX
  8
0
  6
CONTINUOUS
 10
5.820320
 20
1.675520
  0
VERTEX
  8
0
  6
CONTINUOUS
 10
5.822080
 20
2.413840
  0
VERTEX
  8
0
  6
CONTINUOUS
 10
5.827800
 20
2.369840
  0
VERTEX
  8
0
  6
CONTINUOUS
 10
5.826480
 20
1.631520
  0
VERTEX
  8
0
  6
CONTINUOUS
 10
5.820320
 20
1.675520
  0
SEQEND
  8
0
  0
SOLID
  8
0
 62
    15
 10
5.811080
 20
1.717760
 11
5.812400
 21
2.456080
 12
5.820320
 22
1.675520
 13
5.822080
 23
2.413840
  0
POLYLINE
  8
0
  6
CONTINUOUS
 66
     1
 40
0.000000
 41
0.000000
  0
VERTEX
  8
0
  6
CONTINUOUS
 10
5.811080
 20
1.717760
  0
VERTEX
  8
0
  6
CONTINUOUS
 10
5.812400
 20
2.456080
  0
VERTEX
  8
0
  6
CONTINUOUS
 10
5.822080
 20
2.413840
  0
VERTEX
  8
0
  6
CONTINUOUS
 10
5.820320
 20
1.675520
  0
VERTEX
  8
0
  6
CONTINUOUS
 10
5.811080
 20
1.717760
  0
SEQEND
  8
0
  0
SOLID
  8
0
 62
    15
 10
5.826480
 20
1.631520
 11
5.827800
 21
2.369840
 12
5.828680
 22
1.584880
 13
5.830000
 23
2.323200
  0
POLYLINE
  8
0
  6
CONTINUOUS
 66
     1
 40
0.000000
 41
0.000000
  0
VERTEX
  8
0
  6
CONTINUOUS
 10
5.826480
 20
1.631520
  0
VERTEX
  8
0
  6
CONTINUOUS
 10
5.827800
 20
2.369840
  0
VERTEX
  8
0
  6
CONTINUOUS
 10
5.830000
 20
2.323200
  0
VERTEX
  8
0
  6
CONTINUOUS
 10
5.828680
 20
1.584880
  0
VERTEX
  8
0
  6
CONTINUOUS
 10
5.826480
 20
1.631520
  0
SEQEND
  8
0
  0
SOLID
  8
0
 62
    15
 10
2.755280
 20
2.002000
 11
2.756600
 21
2.740320
 12
2.760120
 22
2.048200
 13
2.761440
 23
2.786520
  0
POLYLINE
  8
0
  6
CONTINUOUS
 66
     1
 40
0.000000
 41
0.000000
  0
VERTEX
  8
0
  6
CONTINUOUS
 10
2.755280
 20
2.002000
  0
VERTEX
  8
0
  6
CONTINUOUS
 10
2.756600
 20
2.740320
  0
VERTEX
  8
0
  6
CONTINUOUS
 10
2.761440
 20
2.786520
  0
VERTEX
  8
0
  6
CONTINUOUS
 10
2.760120
 20
2.048200
  0
VERTEX
  8
0
  6
CONTINUOUS
 10
2.755280
 20
2.002000
  0
SEQEND
  8
0
  0
POLYLINE
  8
0
  6
CONTINUOUS
 66
     1
 40
0.000000
 41
0.000000
  0
VERTEX
  8
0
  6
CONTINUOUS
 10
2.755280
 20
2.002000
  0
VERTEX
  8
0
  6
CONTINUOUS
 10
2.760120
 20
2.048200
  0
VERTEX
  8
0
  6
CONTINUOUS
 10
2.768040
 20
2.091320
  0
VERTEX
  8
0
  6
CONTINUOUS
 10
2.790920
 20
2.167440
  0
VERTEX
  8
0
  6
CONTINUOUS
 10
2.822600
 20
2.231240
  0
VERTEX
  8
0
  6
CONTINUOUS
 10
2.861760
 20
2.282720
  0
VERTEX
  8
0
  6
CONTINUOUS
 10
2.907080
 20
2.323640
  0
VERTEX
  8
0
  6
CONTINUOUS
 10
2.957680
 20
2.354000
  0
VERTEX
  8
0
  6
CONTINUOUS
 10
3.011360
 20
2.374680
  0
VERTEX
  8
0
  6
CONTINUOUS
 10
3.067240
 20
2.386120
  0
VERTEX
  8
0
  6
CONTINUOUS
 10
3.124440
 20
2.389200
  0
VERTEX
  8
0
  6
CONTINUOUS
 10
3.180760
 20
2.384800
  0
VERTEX
  8
0
  6
CONTINUOUS
 10
3.235760
 20
2.372920
  0
VERTEX
  8
0
  6
CONTINUOUS
 10
3.287680
 20
2.354880
  0
VERTEX
  8
0
  6
CONTINUOUS
 10
3.334760
 20
2.330680
  0
VERTEX
  8
0
  6
CONTINUOUS
 10
3.376560
 20
2.302080
  0
VERTEX
  8
0
  6
CONTINUOUS
 10
3.411320
 20
2.268640
  0
VERTEX
  8
0
  6
CONTINUOUS
 10
3.471160
 20
2.184600
  0
VERTEX
  8
0
  6
CONTINUOUS
 10
3.512960
 20
2.147200
  0
VERTEX
  8
0
  6
CONTINUOUS
 10
3.560480
 20
2.119040
  0
VERTEX
  8
0
  6
CONTINUOUS
 10
3.611080
 20
2.098360
  0
VERTEX
  8
0
  6
CONTINUOUS
 10
3.662560
 20
2.085160
  0
VERTEX
  8
0
  6
CONTINUOUS
 10
3.711840
 20
2.078560
  0
VERTEX
  8
0
  6
CONTINUOUS
 10
3.756280
 20
2.077240
  0
VERTEX
  8
0
  6
CONTINUOUS
 10
3.793680
 20
2.080760
  0
VERTEX
  8
0
  6
CONTINUOUS
 10
3.795000
 20
2.076800
  0
VERTEX
  8
0
  6
CONTINUOUS
 10
3.795000
 20
2.019160
  0
VERTEX
  8
0
  6
CONTINUOUS
 10
5.431360
 20
2.019160
  0
VERTEX
  8
0
  6
CONTINUOUS
 10
5.431360
 20
1.996720
  0
VERTEX
  8
0
  6
CONTINUOUS
 10
5.440600
 20
1.996720
  0
VERTEX
  8
0
  6
CONTINUOUS
 10
5.487680
 20
1.992320
  0
VERTEX
  8
0
  6
CONTINUOUS
 10
5.532120
 20
1.984400
  0
VERTEX
  8
0
  6
CONTINUOUS
 10
5.573920
 20
1.972520
  0
VERTEX
  8
0
  6
CONTINUOUS
 10
5.612640
 20
1.956680
  0
VERTEX
  8
0
  6
CONTINUOUS
 10
5.648280
 20
1.937760
  0
VERTEX
  8
0
  6
CONTINUOUS
 10
5.681280
 20
1.915320
  0
VERTEX
  8
0
  6
CONTINUOUS
 10
5.711200
 20
1.889360
  0
VERTEX
  8
0
  6
CONTINUOUS
 10
5.737600
 20
1.860760
  0
VERTEX
  8
0
  6
CONTINUOUS
 10
5.760920
 20
1.829080
  0
VERTEX
  8
0
  6
CONTINUOUS
 10
5.781160
 20
1.794320
  0
VERTEX
  8
0
  6
CONTINUOUS
 10
5.797880
 20
1.757360
  0
VERTEX
  8
0
  6
CONTINUOUS
 10
5.811080
 20
1.717760
  0
VERTEX
  8
0
  6
CONTINUOUS
 10
5.820320
 20
1.675520
  0
VERTEX
  8
0
  6
CONTINUOUS
 10
5.826480
 20
1.631520
  0
VERTEX
  8
0
  6
CONTINUOUS
 10
5.828680
 20
1.584880
  0
VERTEX
  8
0
  6
CONTINUOUS
 10
5.826920
 20
1.536480
  0
VERTEX
  8
0
  6
CONTINUOUS
 10
5.826040
 20
1.533840
  0
VERTEX
  8
0
  6
CONTINUOUS
 10
2.654960
 20
1.533840
  0
VERTEX
  8
0
  6
CONTINUOUS
 10
2.654960
 20
1.995400
  0
VERTEX
  8
0
  6
CONTINUOUS
 10
2.756600
 20
1.995400
  0
VERTEX
  8
0
  6
CONTINUOUS
 10
2.755280
 20
2.002000
  0
SEQEND
  8
0
  0
TEXT
  8
0
 10
3.948120
 20
1.300200
 40
0.138073
  1
BA  118
 41
1.000000
  7
SN0
 71
     0
 72
     5
 11
4.538169
 21
1.300200
  0
TEXT
  8
0
 10
3.746160
 20
1.108360
 40
0.138073
  1
7/8" x 3-3/16"
 41
1.000000
  7
SN0
 71
     0
 72
     5
 11
4.738507
 21
1.108360
  0
ENDSEC
  0
EOF
