  0
SECTION
  2
HEADER
  9
$ACADVER
  1
AC1006
  9
$EXTMIN
 10
2.454320
 20
1.640320
  9
$EXTMAX
 10
6.026240
 20
4.604160
  9
$LTSCALE
 40
0.044000
  9
$PDMODE
 70
    35
  9
$PDSIZE
 40
0.035200
  0
ENDSEC
  0
SECTION
  2
TABLES
  0
TABLE
  2
LTYPE
 70
     9
  0
LTYPE
  2
CONTINUOUS
 70
    64
  3
Solid line
 72
    65
 73
     0
 40
0.000000
  0
LTYPE
  2
DASHED
 70
    64
  3
__ __ __ __ __ __ __ __ __ __ __ __ __ __ __
 72
    65
 73
     2
 40
0.000330
 49
0.000220
 49
-0.000110
  0
LTYPE
  2
HIDDEN
 70
    64
  3
 _ _ _ _ _ _ _ _ _ _ _ _ _ _ _ _ _ _ _ _ _ _
 72
    65
 73
     2
 40
0.000165
 49
0.000110
 49
-0.000055
  0
LTYPE
  2
CENTER
 70
    64
  3
____ _ ____ _ ____ _ ____ _ ____ _ ____ _ ____
 72
    65
 73
     4
 40
0.000880
 49
0.000550
 49
-0.000110
 49
0.000110
 49
-0.000110
  0
LTYPE
  2
PHANTOM
 70
    64
  3
_____ _ _ _____ _ _ _____ _ _ _____ _ _ ____
 72
    65
 73
     6
 40
0.001100
 49
0.000550
 49
-0.000110
 49
0.000110
 49
-0.000110
 49
0.000110
 49
-0.000110
  0
LTYPE
  2
DOT
 70
    64
  3
...............................................
 72
    65
 73
     2
 40
0.000110
 49
0.000000
 49
-0.000110
  0
LTYPE
  2
DASHDOT
 70
    64
  3
__ . __ . __ . __ . __ . __ . __ . __ . __ . __
 72
    65
 73
     4
 40
0.000440
 49
0.000220
 49
-0.000110
 49
0.000000
 49
-0.000110
  0
LTYPE
  2
BORDER
 70
    64
  3
__ __ . __ __ . __ __ . __ __ . __ __ . __ __
 72
    65
 73
     6
 40
0.000770
 49
0.000220
 49
-0.000110
 49
0.000220
 49
-0.000110
 49
0.000000
 49
-0.000110
  0
LTYPE
  2
DIVIDE
 70
    64
  3
__ . . __ . . __ . . __ . . __ . . __ . . __
 72
    65
 73
     6
 40
0.000550
 49
0.000220
 49
-0.000110
 49
0.000000
 49
-0.000110
 49
0.000000
 49
-0.000110
  0
LTYPE
  2
DOTDOT
 70
    64
  3
 . .  . .  . .  . .  . .  . . 
 72
    65
 73
     5
 40
0.000242
 49
-0.000110
 49
0.000000
 49
-0.000110
 49
0.000000
 49
-0.000110
  0
ENDTAB
  0
TABLE
  2
STYLE
 70
     2
  0
STYLE
 70
     0
  2
SN0
 40
0.000000
 41
0.000440
 50
0.000000
 71
     0
 42
0.000000
  3
ROMAND
  0
STYLE
 70
    68
  2
SV0
 40
0.000000
 41
0.000440
 50
0.000000
 71
     0
 42
0.000000
  3
ROMAND
  0
ENDTAB
  0
TABLE
  2
LAYER
 70
     3
  0
LAYER
  2
FOREGROUND
 70
    64
 62
     7
  6
CONTINUOUS
  0
LAYER
  2
BACKGROUND
 70
    65
 62
    -7
  6
CONTINUOUS
  0
LAYER
  2
0
 70
    64
 62
     7
  6
CONTINUOUS
  0
ENDTAB
  0
ENDSEC
  0
SECTION
  2
ENTITIES
  0
POLYLINE
  8
FOREGROUND
  6
CONTINUOUS
 66
     1
 40
0.000000
 41
0.000000
  0
VERTEX
  8
FOREGROUND
  6
CONTINUOUS
 10
0.000000
 20
6.244480
  0
VERTEX
  8
FOREGROUND
  6
CONTINUOUS
 10
8.499920
 20
6.244480
  0
VERTEX
  8
FOREGROUND
  6
CONTINUOUS
 10
8.499920
 20
-4.755520
  0
VERTEX
  8
FOREGROUND
  6
CONTINUOUS
 10
0.000000
 20
-4.755520
  0
VERTEX
  8
FOREGROUND
  6
CONTINUOUS
 10
0.000000
 20
6.244480
  0
SEQEND
  8
0
  0
POLYLINE
  8
FOREGROUND
  6
CONTINUOUS
 66
     1
 40
0.000000
 41
0.000000
  0
VERTEX
  8
FOREGROUND
  6
CONTINUOUS
 10
0.000000
 20
6.244480
  0
VERTEX
  8
FOREGROUND
  6
CONTINUOUS
 10
8.499920
 20
6.244480
  0
VERTEX
  8
FOREGROUND
  6
CONTINUOUS
 10
8.499920
 20
-4.755520
  0
VERTEX
  8
FOREGROUND
  6
CONTINUOUS
 10
0.000000
 20
-4.755520
  0
VERTEX
  8
FOREGROUND
  6
CONTINUOUS
 10
0.000000
 20
6.244480
  0
SEQEND
  8
0
  0
SOLID
  8
0
 62
    15
 10
4.247760
 20
2.824800
 11
4.244240
 21
3.568400
 12
4.253920
 22
2.824800
 13
4.250400
 23
3.568400
  0
POLYLINE
  8
0
  6
CONTINUOUS
 66
     1
 40
0.000000
 41
0.000000
  0
VERTEX
  8
0
  6
CONTINUOUS
 10
4.247760
 20
2.824800
  0
VERTEX
  8
0
  6
CONTINUOUS
 10
4.244240
 20
3.568400
  0
VERTEX
  8
0
  6
CONTINUOUS
 10
4.250400
 20
3.568400
  0
VERTEX
  8
0
  6
CONTINUOUS
 10
4.253920
 20
2.824800
  0
VERTEX
  8
0
  6
CONTINUOUS
 10
4.247760
 20
2.824800
  0
SEQEND
  8
0
  0
SOLID
  8
0
 62
    15
 10
2.508000
 20
2.110680
 11
2.504480
 21
2.854280
 12
2.508000
 22
2.856040
 13
2.504480
 23
3.600080
  0
POLYLINE
  8
0
  6
CONTINUOUS
 66
     1
 40
0.000000
 41
0.000000
  0
VERTEX
  8
0
  6
CONTINUOUS
 10
2.508000
 20
2.110680
  0
VERTEX
  8
0
  6
CONTINUOUS
 10
2.504480
 20
2.854280
  0
VERTEX
  8
0
  6
CONTINUOUS
 10
2.504480
 20
3.600080
  0
VERTEX
  8
0
  6
CONTINUOUS
 10
2.508000
 20
2.856040
  0
VERTEX
  8
0
  6
CONTINUOUS
 10
2.508000
 20
2.110680
  0
SEQEND
  8
0
  0
SOLID
  8
0
 62
    15
 10
3.230920
 20
2.856040
 11
3.227400
 21
3.600080
 12
3.232680
 22
2.834920
 13
3.229160
 23
3.578960
  0
POLYLINE
  8
0
  6
CONTINUOUS
 66
     1
 40
0.000000
 41
0.000000
  0
VERTEX
  8
0
  6
CONTINUOUS
 10
3.230920
 20
2.856040
  0
VERTEX
  8
0
  6
CONTINUOUS
 10
3.227400
 20
3.600080
  0
VERTEX
  8
0
  6
CONTINUOUS
 10
3.229160
 20
3.578960
  0
VERTEX
  8
0
  6
CONTINUOUS
 10
3.232680
 20
2.834920
  0
VERTEX
  8
0
  6
CONTINUOUS
 10
3.230920
 20
2.856040
  0
SEQEND
  8
0
  0
SOLID
  8
0
 62
    15
 10
3.232680
 20
2.834920
 11
3.229160
 21
3.578960
 12
3.235760
 22
2.817320
 13
3.232240
 23
3.560920
  0
POLYLINE
  8
0
  6
CONTINUOUS
 66
     1
 40
0.000000
 41
0.000000
  0
VERTEX
  8
0
  6
CONTINUOUS
 10
3.232680
 20
2.834920
  0
VERTEX
  8
0
  6
CONTINUOUS
 10
3.229160
 20
3.578960
  0
VERTEX
  8
0
  6
CONTINUOUS
 10
3.232240
 20
3.560920
  0
VERTEX
  8
0
  6
CONTINUOUS
 10
3.235760
 20
2.817320
  0
VERTEX
  8
0
  6
CONTINUOUS
 10
3.232680
 20
2.834920
  0
SEQEND
  8
0
  0
SOLID
  8
0
 62
    15
 10
3.235760
 20
2.817320
 11
3.232240
 21
3.560920
 12
3.245880
 22
2.790480
 13
3.242360
 23
3.534520
  0
POLYLINE
  8
0
  6
CONTINUOUS
 66
     1
 40
0.000000
 41
0.000000
  0
VERTEX
  8
0
  6
CONTINUOUS
 10
3.235760
 20
2.817320
  0
VERTEX
  8
0
  6
CONTINUOUS
 10
3.232240
 20
3.560920
  0
VERTEX
  8
0
  6
CONTINUOUS
 10
3.242360
 20
3.534520
  0
VERTEX
  8
0
  6
CONTINUOUS
 10
3.245880
 20
2.790480
  0
VERTEX
  8
0
  6
CONTINUOUS
 10
3.235760
 20
2.817320
  0
SEQEND
  8
0
  0
SOLID
  8
0
 62
    15
 10
3.245880
 20
2.790480
 11
3.242360
 21
3.534520
 12
3.259960
 22
2.774200
 13
3.256440
 23
3.518240
  0
POLYLINE
  8
0
  6
CONTINUOUS
 66
     1
 40
0.000000
 41
0.000000
  0
VERTEX
  8
0
  6
CONTINUOUS
 10
3.245880
 20
2.790480
  0
VERTEX
  8
0
  6
CONTINUOUS
 10
3.242360
 20
3.534520
  0
VERTEX
  8
0
  6
CONTINUOUS
 10
3.256440
 20
3.518240
  0
VERTEX
  8
0
  6
CONTINUOUS
 10
3.259960
 20
2.774200
  0
VERTEX
  8
0
  6
CONTINUOUS
 10
3.245880
 20
2.790480
  0
SEQEND
  8
0
  0
SOLID
  8
0
 62
    15
 10
3.259960
 20
2.774200
 11
3.256440
 21
3.518240
 12
3.276240
 22
2.767160
 13
3.272720
 23
3.510760
  0
POLYLINE
  8
0
  6
CONTINUOUS
 66
     1
 40
0.000000
 41
0.000000
  0
VERTEX
  8
0
  6
CONTINUOUS
 10
3.259960
 20
2.774200
  0
VERTEX
  8
0
  6
CONTINUOUS
 10
3.256440
 20
3.518240
  0
VERTEX
  8
0
  6
CONTINUOUS
 10
3.272720
 20
3.510760
  0
VERTEX
  8
0
  6
CONTINUOUS
 10
3.276240
 20
2.767160
  0
VERTEX
  8
0
  6
CONTINUOUS
 10
3.259960
 20
2.774200
  0
SEQEND
  8
0
  0
SOLID
  8
0
 62
    15
 10
3.276240
 20
2.767160
 11
3.272720
 21
3.510760
 12
3.292520
 22
2.766720
 13
3.289000
 23
3.510760
  0
POLYLINE
  8
0
  6
CONTINUOUS
 66
     1
 40
0.000000
 41
0.000000
  0
VERTEX
  8
0
  6
CONTINUOUS
 10
3.276240
 20
2.767160
  0
VERTEX
  8
0
  6
CONTINUOUS
 10
3.272720
 20
3.510760
  0
VERTEX
  8
0
  6
CONTINUOUS
 10
3.289000
 20
3.510760
  0
VERTEX
  8
0
  6
CONTINUOUS
 10
3.292520
 20
2.766720
  0
VERTEX
  8
0
  6
CONTINUOUS
 10
3.276240
 20
2.767160
  0
SEQEND
  8
0
  0
SOLID
  8
0
 62
    15
 10
3.292520
 20
2.766720
 11
3.289000
 21
3.510760
 12
3.307920
 22
2.772440
 13
3.304400
 23
3.516040
  0
POLYLINE
  8
0
  6
CONTINUOUS
 66
     1
 40
0.000000
 41
0.000000
  0
VERTEX
  8
0
  6
CONTINUOUS
 10
3.292520
 20
2.766720
  0
VERTEX
  8
0
  6
CONTINUOUS
 10
3.289000
 20
3.510760
  0
VERTEX
  8
0
  6
CONTINUOUS
 10
3.304400
 20
3.516040
  0
VERTEX
  8
0
  6
CONTINUOUS
 10
3.307920
 20
2.772440
  0
VERTEX
  8
0
  6
CONTINUOUS
 10
3.292520
 20
2.766720
  0
SEQEND
  8
0
  0
SOLID
  8
0
 62
    15
 10
3.307920
 20
2.772440
 11
3.304400
 21
3.516040
 12
3.320680
 22
2.781680
 13
3.317160
 23
3.525720
  0
POLYLINE
  8
0
  6
CONTINUOUS
 66
     1
 40
0.000000
 41
0.000000
  0
VERTEX
  8
0
  6
CONTINUOUS
 10
3.307920
 20
2.772440
  0
VERTEX
  8
0
  6
CONTINUOUS
 10
3.304400
 20
3.516040
  0
VERTEX
  8
0
  6
CONTINUOUS
 10
3.317160
 20
3.525720
  0
VERTEX
  8
0
  6
CONTINUOUS
 10
3.320680
 20
2.781680
  0
VERTEX
  8
0
  6
CONTINUOUS
 10
3.307920
 20
2.772440
  0
SEQEND
  8
0
  0
SOLID
  8
0
 62
    15
 10
3.320680
 20
2.781680
 11
3.317160
 21
3.525720
 12
3.329040
 22
2.793560
 13
3.325520
 23
3.537600
  0
POLYLINE
  8
0
  6
CONTINUOUS
 66
     1
 40
0.000000
 41
0.000000
  0
VERTEX
  8
0
  6
CONTINUOUS
 10
3.320680
 20
2.781680
  0
VERTEX
  8
0
  6
CONTINUOUS
 10
3.317160
 20
3.525720
  0
VERTEX
  8
0
  6
CONTINUOUS
 10
3.325520
 20
3.537600
  0
VERTEX
  8
0
  6
CONTINUOUS
 10
3.329040
 20
2.793560
  0
VERTEX
  8
0
  6
CONTINUOUS
 10
3.320680
 20
2.781680
  0
SEQEND
  8
0
  0
SOLID
  8
0
 62
    15
 10
3.329040
 20
2.793560
 11
3.325520
 21
3.537600
 12
3.334760
 22
2.806320
 13
3.331240
 23
3.550360
  0
POLYLINE
  8
0
  6
CONTINUOUS
 66
     1
 40
0.000000
 41
0.000000
  0
VERTEX
  8
0
  6
CONTINUOUS
 10
3.329040
 20
2.793560
  0
VERTEX
  8
0
  6
CONTINUOUS
 10
3.325520
 20
3.537600
  0
VERTEX
  8
0
  6
CONTINUOUS
 10
3.331240
 20
3.550360
  0
VERTEX
  8
0
  6
CONTINUOUS
 10
3.334760
 20
2.806320
  0
VERTEX
  8
0
  6
CONTINUOUS
 10
3.329040
 20
2.793560
  0
SEQEND
  8
0
  0
SOLID
  8
0
 62
    15
 10
3.334760
 20
2.806320
 11
3.331240
 21
3.550360
 12
3.343560
 22
2.816440
 13
3.340040
 23
3.560040
  0
POLYLINE
  8
0
  6
CONTINUOUS
 66
     1
 40
0.000000
 41
0.000000
  0
VERTEX
  8
0
  6
CONTINUOUS
 10
3.334760
 20
2.806320
  0
VERTEX
  8
0
  6
CONTINUOUS
 10
3.331240
 20
3.550360
  0
VERTEX
  8
0
  6
CONTINUOUS
 10
3.340040
 20
3.560040
  0
VERTEX
  8
0
  6
CONTINUOUS
 10
3.343560
 20
2.816440
  0
VERTEX
  8
0
  6
CONTINUOUS
 10
3.334760
 20
2.806320
  0
SEQEND
  8
0
  0
SOLID
  8
0
 62
    15
 10
3.343560
 20
2.816440
 11
3.340040
 21
3.560040
 12
3.355440
 22
2.822160
 13
3.351920
 23
3.565760
  0
POLYLINE
  8
0
  6
CONTINUOUS
 66
     1
 40
0.000000
 41
0.000000
  0
VERTEX
  8
0
  6
CONTINUOUS
 10
3.343560
 20
2.816440
  0
VERTEX
  8
0
  6
CONTINUOUS
 10
3.340040
 20
3.560040
  0
VERTEX
  8
0
  6
CONTINUOUS
 10
3.351920
 20
3.565760
  0
VERTEX
  8
0
  6
CONTINUOUS
 10
3.355440
 20
2.822160
  0
VERTEX
  8
0
  6
CONTINUOUS
 10
3.343560
 20
2.816440
  0
SEQEND
  8
0
  0
SOLID
  8
0
 62
    15
 10
3.355440
 20
2.822160
 11
3.351920
 21
3.565760
 12
3.369080
 22
2.822600
 13
3.365560
 23
3.566640
  0
POLYLINE
  8
0
  6
CONTINUOUS
 66
     1
 40
0.000000
 41
0.000000
  0
VERTEX
  8
0
  6
CONTINUOUS
 10
3.355440
 20
2.822160
  0
VERTEX
  8
0
  6
CONTINUOUS
 10
3.351920
 20
3.565760
  0
VERTEX
  8
0
  6
CONTINUOUS
 10
3.365560
 20
3.566640
  0
VERTEX
  8
0
  6
CONTINUOUS
 10
3.369080
 20
2.822600
  0
VERTEX
  8
0
  6
CONTINUOUS
 10
3.355440
 20
2.822160
  0
SEQEND
  8
0
  0
SOLID
  8
0
 62
    15
 10
3.369080
 20
2.822600
 11
3.365560
 21
3.566640
 12
3.384040
 22
2.816880
 13
3.380520
 23
3.560920
  0
POLYLINE
  8
0
  6
CONTINUOUS
 66
     1
 40
0.000000
 41
0.000000
  0
VERTEX
  8
0
  6
CONTINUOUS
 10
3.369080
 20
2.822600
  0
VERTEX
  8
0
  6
CONTINUOUS
 10
3.365560
 20
3.566640
  0
VERTEX
  8
0
  6
CONTINUOUS
 10
3.380520
 20
3.560920
  0
VERTEX
  8
0
  6
CONTINUOUS
 10
3.384040
 20
2.816880
  0
VERTEX
  8
0
  6
CONTINUOUS
 10
3.369080
 20
2.822600
  0
SEQEND
  8
0
  0
SOLID
  8
0
 62
    15
 10
3.384040
 20
2.816880
 11
3.380520
 21
3.560920
 12
3.399880
 22
2.804120
 13
3.396360
 23
3.548160
  0
POLYLINE
  8
0
  6
CONTINUOUS
 66
     1
 40
0.000000
 41
0.000000
  0
VERTEX
  8
0
  6
CONTINUOUS
 10
3.384040
 20
2.816880
  0
VERTEX
  8
0
  6
CONTINUOUS
 10
3.380520
 20
3.560920
  0
VERTEX
  8
0
  6
CONTINUOUS
 10
3.396360
 20
3.548160
  0
VERTEX
  8
0
  6
CONTINUOUS
 10
3.399880
 20
2.804120
  0
VERTEX
  8
0
  6
CONTINUOUS
 10
3.384040
 20
2.816880
  0
SEQEND
  8
0
  0
SOLID
  8
0
 62
    15
 10
3.399880
 20
2.804120
 11
3.396360
 21
3.548160
 12
3.415720
 22
2.782560
 13
3.412200
 23
3.526600
  0
POLYLINE
  8
0
  6
CONTINUOUS
 66
     1
 40
0.000000
 41
0.000000
  0
VERTEX
  8
0
  6
CONTINUOUS
 10
3.399880
 20
2.804120
  0
VERTEX
  8
0
  6
CONTINUOUS
 10
3.396360
 20
3.548160
  0
VERTEX
  8
0
  6
CONTINUOUS
 10
3.412200
 20
3.526600
  0
VERTEX
  8
0
  6
CONTINUOUS
 10
3.415720
 20
2.782560
  0
VERTEX
  8
0
  6
CONTINUOUS
 10
3.399880
 20
2.804120
  0
SEQEND
  8
0
  0
SOLID
  8
0
 62
    15
 10
3.415720
 20
2.782560
 11
3.412200
 21
3.526600
 12
3.431120
 22
2.751760
 13
3.427600
 23
3.495800
  0
POLYLINE
  8
0
  6
CONTINUOUS
 66
     1
 40
0.000000
 41
0.000000
  0
VERTEX
  8
0
  6
CONTINUOUS
 10
3.415720
 20
2.782560
  0
VERTEX
  8
0
  6
CONTINUOUS
 10
3.412200
 20
3.526600
  0
VERTEX
  8
0
  6
CONTINUOUS
 10
3.427600
 20
3.495800
  0
VERTEX
  8
0
  6
CONTINUOUS
 10
3.431120
 20
2.751760
  0
VERTEX
  8
0
  6
CONTINUOUS
 10
3.415720
 20
2.782560
  0
SEQEND
  8
0
  0
SOLID
  8
0
 62
    15
 10
3.431120
 20
2.751760
 11
3.427600
 21
3.495800
 12
3.460600
 22
2.709960
 13
3.457080
 23
3.453560
  0
POLYLINE
  8
0
  6
CONTINUOUS
 66
     1
 40
0.000000
 41
0.000000
  0
VERTEX
  8
0
  6
CONTINUOUS
 10
3.431120
 20
2.751760
  0
VERTEX
  8
0
  6
CONTINUOUS
 10
3.427600
 20
3.495800
  0
VERTEX
  8
0
  6
CONTINUOUS
 10
3.457080
 20
3.453560
  0
VERTEX
  8
0
  6
CONTINUOUS
 10
3.460600
 20
2.709960
  0
VERTEX
  8
0
  6
CONTINUOUS
 10
3.431120
 20
2.751760
  0
SEQEND
  8
0
  0
SOLID
  8
0
 62
    15
 10
3.460600
 20
2.709960
 11
3.457080
 21
3.453560
 12
3.497560
 22
2.671680
 13
3.494040
 23
3.415720
  0
POLYLINE
  8
0
  6
CONTINUOUS
 66
     1
 40
0.000000
 41
0.000000
  0
VERTEX
  8
0
  6
CONTINUOUS
 10
3.460600
 20
2.709960
  0
VERTEX
  8
0
  6
CONTINUOUS
 10
3.457080
 20
3.453560
  0
VERTEX
  8
0
  6
CONTINUOUS
 10
3.494040
 20
3.415720
  0
VERTEX
  8
0
  6
CONTINUOUS
 10
3.497560
 20
2.671680
  0
VERTEX
  8
0
  6
CONTINUOUS
 10
3.460600
 20
2.709960
  0
SEQEND
  8
0
  0
SOLID
  8
0
 62
    15
 10
3.497560
 20
2.671680
 11
3.494040
 21
3.415720
 12
3.541120
 22
2.640880
 13
3.537600
 23
3.384920
  0
POLYLINE
  8
0
  6
CONTINUOUS
 66
     1
 40
0.000000
 41
0.000000
  0
VERTEX
  8
0
  6
CONTINUOUS
 10
3.497560
 20
2.671680
  0
VERTEX
  8
0
  6
CONTINUOUS
 10
3.494040
 20
3.415720
  0
VERTEX
  8
0
  6
CONTINUOUS
 10
3.537600
 20
3.384920
  0
VERTEX
  8
0
  6
CONTINUOUS
 10
3.541120
 20
2.640880
  0
VERTEX
  8
0
  6
CONTINUOUS
 10
3.497560
 20
2.671680
  0
SEQEND
  8
0
  0
SOLID
  8
0
 62
    15
 10
3.541120
 20
2.640880
 11
3.537600
 21
3.384920
 12
3.589960
 22
2.621080
 13
3.586440
 23
3.364680
  0
POLYLINE
  8
0
  6
CONTINUOUS
 66
     1
 40
0.000000
 41
0.000000
  0
VERTEX
  8
0
  6
CONTINUOUS
 10
3.541120
 20
2.640880
  0
VERTEX
  8
0
  6
CONTINUOUS
 10
3.537600
 20
3.384920
  0
VERTEX
  8
0
  6
CONTINUOUS
 10
3.586440
 20
3.364680
  0
VERTEX
  8
0
  6
CONTINUOUS
 10
3.589960
 20
2.621080
  0
VERTEX
  8
0
  6
CONTINUOUS
 10
3.541120
 20
2.640880
  0
SEQEND
  8
0
  0
SOLID
  8
0
 62
    15
 10
3.589960
 20
2.621080
 11
3.586440
 21
3.364680
 12
3.615920
 22
2.615800
 13
3.612400
 23
3.359840
  0
POLYLINE
  8
0
  6
CONTINUOUS
 66
     1
 40
0.000000
 41
0.000000
  0
VERTEX
  8
0
  6
CONTINUOUS
 10
3.589960
 20
2.621080
  0
VERTEX
  8
0
  6
CONTINUOUS
 10
3.586440
 20
3.364680
  0
VERTEX
  8
0
  6
CONTINUOUS
 10
3.612400
 20
3.359840
  0
VERTEX
  8
0
  6
CONTINUOUS
 10
3.615920
 20
2.615800
  0
VERTEX
  8
0
  6
CONTINUOUS
 10
3.589960
 20
2.621080
  0
SEQEND
  8
0
  0
SOLID
  8
0
 62
    15
 10
3.615920
 20
2.615800
 11
3.612400
 21
3.359840
 12
3.642320
 22
2.614920
 13
3.638800
 23
3.358960
  0
POLYLINE
  8
0
  6
CONTINUOUS
 66
     1
 40
0.000000
 41
0.000000
  0
VERTEX
  8
0
  6
CONTINUOUS
 10
3.615920
 20
2.615800
  0
VERTEX
  8
0
  6
CONTINUOUS
 10
3.612400
 20
3.359840
  0
VERTEX
  8
0
  6
CONTINUOUS
 10
3.638800
 20
3.358960
  0
VERTEX
  8
0
  6
CONTINUOUS
 10
3.642320
 20
2.614920
  0
VERTEX
  8
0
  6
CONTINUOUS
 10
3.615920
 20
2.615800
  0
SEQEND
  8
0
  0
SOLID
  8
0
 62
    15
 10
3.642320
 20
2.614920
 11
3.638800
 21
3.358960
 12
3.669600
 22
2.618440
 13
3.666080
 23
3.362480
  0
POLYLINE
  8
0
  6
CONTINUOUS
 66
     1
 40
0.000000
 41
0.000000
  0
VERTEX
  8
0
  6
CONTINUOUS
 10
3.642320
 20
2.614920
  0
VERTEX
  8
0
  6
CONTINUOUS
 10
3.638800
 20
3.358960
  0
VERTEX
  8
0
  6
CONTINUOUS
 10
3.666080
 20
3.362480
  0
VERTEX
  8
0
  6
CONTINUOUS
 10
3.669600
 20
2.618440
  0
VERTEX
  8
0
  6
CONTINUOUS
 10
3.642320
 20
2.614920
  0
SEQEND
  8
0
  0
SOLID
  8
0
 62
    15
 10
3.669600
 20
2.618440
 11
3.666080
 21
3.362480
 12
3.696880
 22
2.626800
 13
3.693360
 23
3.370840
  0
POLYLINE
  8
0
  6
CONTINUOUS
 66
     1
 40
0.000000
 41
0.000000
  0
VERTEX
  8
0
  6
CONTINUOUS
 10
3.669600
 20
2.618440
  0
VERTEX
  8
0
  6
CONTINUOUS
 10
3.666080
 20
3.362480
  0
VERTEX
  8
0
  6
CONTINUOUS
 10
3.693360
 20
3.370840
  0
VERTEX
  8
0
  6
CONTINUOUS
 10
3.696880
 20
2.626800
  0
VERTEX
  8
0
  6
CONTINUOUS
 10
3.669600
 20
2.618440
  0
SEQEND
  8
0
  0
SOLID
  8
0
 62
    15
 10
3.696880
 20
2.626800
 11
3.693360
 21
3.370840
 12
3.725040
 22
2.640440
 13
3.721520
 23
3.384040
  0
POLYLINE
  8
0
  6
CONTINUOUS
 66
     1
 40
0.000000
 41
0.000000
  0
VERTEX
  8
0
  6
CONTINUOUS
 10
3.696880
 20
2.626800
  0
VERTEX
  8
0
  6
CONTINUOUS
 10
3.693360
 20
3.370840
  0
VERTEX
  8
0
  6
CONTINUOUS
 10
3.721520
 20
3.384040
  0
VERTEX
  8
0
  6
CONTINUOUS
 10
3.725040
 20
2.640440
  0
VERTEX
  8
0
  6
CONTINUOUS
 10
3.696880
 20
2.626800
  0
SEQEND
  8
0
  0
SOLID
  8
0
 62
    15
 10
3.725040
 20
2.640440
 11
3.721520
 21
3.384040
 12
3.752760
 22
2.659360
 13
3.749240
 23
3.403400
  0
POLYLINE
  8
0
  6
CONTINUOUS
 66
     1
 40
0.000000
 41
0.000000
  0
VERTEX
  8
0
  6
CONTINUOUS
 10
3.725040
 20
2.640440
  0
VERTEX
  8
0
  6
CONTINUOUS
 10
3.721520
 20
3.384040
  0
VERTEX
  8
0
  6
CONTINUOUS
 10
3.749240
 20
3.403400
  0
VERTEX
  8
0
  6
CONTINUOUS
 10
3.752760
 20
2.659360
  0
VERTEX
  8
0
  6
CONTINUOUS
 10
3.725040
 20
2.640440
  0
SEQEND
  8
0
  0
SOLID
  8
0
 62
    15
 10
3.752760
 20
2.659360
 11
3.749240
 21
3.403400
 12
3.780480
 22
2.684880
 13
3.776960
 23
3.428480
  0
POLYLINE
  8
0
  6
CONTINUOUS
 66
     1
 40
0.000000
 41
0.000000
  0
VERTEX
  8
0
  6
CONTINUOUS
 10
3.752760
 20
2.659360
  0
VERTEX
  8
0
  6
CONTINUOUS
 10
3.749240
 20
3.403400
  0
VERTEX
  8
0
  6
CONTINUOUS
 10
3.776960
 20
3.428480
  0
VERTEX
  8
0
  6
CONTINUOUS
 10
3.780480
 20
2.684880
  0
VERTEX
  8
0
  6
CONTINUOUS
 10
3.752760
 20
2.659360
  0
SEQEND
  8
0
  0
SOLID
  8
0
 62
    15
 10
3.780480
 20
2.684880
 11
3.776960
 21
3.428480
 12
3.808200
 22
2.716560
 13
3.804680
 23
3.460160
  0
POLYLINE
  8
0
  6
CONTINUOUS
 66
     1
 40
0.000000
 41
0.000000
  0
VERTEX
  8
0
  6
CONTINUOUS
 10
3.780480
 20
2.684880
  0
VERTEX
  8
0
  6
CONTINUOUS
 10
3.776960
 20
3.428480
  0
VERTEX
  8
0
  6
CONTINUOUS
 10
3.804680
 20
3.460160
  0
VERTEX
  8
0
  6
CONTINUOUS
 10
3.808200
 20
2.716560
  0
VERTEX
  8
0
  6
CONTINUOUS
 10
3.780480
 20
2.684880
  0
SEQEND
  8
0
  0
SOLID
  8
0
 62
    15
 10
3.808200
 20
2.716560
 11
3.804680
 21
3.460160
 12
3.810400
 22
2.716560
 13
3.806880
 23
3.460160
  0
POLYLINE
  8
0
  6
CONTINUOUS
 66
     1
 40
0.000000
 41
0.000000
  0
VERTEX
  8
0
  6
CONTINUOUS
 10
3.808200
 20
2.716560
  0
VERTEX
  8
0
  6
CONTINUOUS
 10
3.804680
 20
3.460160
  0
VERTEX
  8
0
  6
CONTINUOUS
 10
3.806880
 20
3.460160
  0
VERTEX
  8
0
  6
CONTINUOUS
 10
3.810400
 20
2.716560
  0
VERTEX
  8
0
  6
CONTINUOUS
 10
3.808200
 20
2.716560
  0
SEQEND
  8
0
  0
SOLID
  8
0
 62
    15
 10
3.810400
 20
2.716560
 11
3.806880
 21
3.460160
 12
3.816560
 22
2.718320
 13
3.813040
 23
3.462360
  0
POLYLINE
  8
0
  6
CONTINUOUS
 66
     1
 40
0.000000
 41
0.000000
  0
VERTEX
  8
0
  6
CONTINUOUS
 10
3.810400
 20
2.716560
  0
VERTEX
  8
0
  6
CONTINUOUS
 10
3.806880
 20
3.460160
  0
VERTEX
  8
0
  6
CONTINUOUS
 10
3.813040
 20
3.462360
  0
VERTEX
  8
0
  6
CONTINUOUS
 10
3.816560
 20
2.718320
  0
VERTEX
  8
0
  6
CONTINUOUS
 10
3.810400
 20
2.716560
  0
SEQEND
  8
0
  0
SOLID
  8
0
 62
    15
 10
3.816560
 20
2.718320
 11
3.813040
 21
3.462360
 12
3.818760
 22
2.718320
 13
3.815240
 23
3.462360
  0
POLYLINE
  8
0
  6
CONTINUOUS
 66
     1
 40
0.000000
 41
0.000000
  0
VERTEX
  8
0
  6
CONTINUOUS
 10
3.816560
 20
2.718320
  0
VERTEX
  8
0
  6
CONTINUOUS
 10
3.813040
 20
3.462360
  0
VERTEX
  8
0
  6
CONTINUOUS
 10
3.815240
 20
3.462360
  0
VERTEX
  8
0
  6
CONTINUOUS
 10
3.818760
 20
2.718320
  0
VERTEX
  8
0
  6
CONTINUOUS
 10
3.816560
 20
2.718320
  0
SEQEND
  8
0
  0
SOLID
  8
0
 62
    15
 10
3.818760
 20
2.718320
 11
3.815240
 21
3.462360
 12
3.828880
 22
2.699840
 13
3.825360
 23
3.443880
  0
POLYLINE
  8
0
  6
CONTINUOUS
 66
     1
 40
0.000000
 41
0.000000
  0
VERTEX
  8
0
  6
CONTINUOUS
 10
3.818760
 20
2.718320
  0
VERTEX
  8
0
  6
CONTINUOUS
 10
3.815240
 20
3.462360
  0
VERTEX
  8
0
  6
CONTINUOUS
 10
3.825360
 20
3.443880
  0
VERTEX
  8
0
  6
CONTINUOUS
 10
3.828880
 20
2.699840
  0
VERTEX
  8
0
  6
CONTINUOUS
 10
3.818760
 20
2.718320
  0
SEQEND
  8
0
  0
SOLID
  8
0
 62
    15
 10
3.828880
 20
2.699840
 11
3.825360
 21
3.443880
 12
3.840320
 22
2.688400
 13
3.836800
 23
3.432440
  0
POLYLINE
  8
0
  6
CONTINUOUS
 66
     1
 40
0.000000
 41
0.000000
  0
VERTEX
  8
0
  6
CONTINUOUS
 10
3.828880
 20
2.699840
  0
VERTEX
  8
0
  6
CONTINUOUS
 10
3.825360
 20
3.443880
  0
VERTEX
  8
0
  6
CONTINUOUS
 10
3.836800
 20
3.432440
  0
VERTEX
  8
0
  6
CONTINUOUS
 10
3.840320
 20
2.688400
  0
VERTEX
  8
0
  6
CONTINUOUS
 10
3.828880
 20
2.699840
  0
SEQEND
  8
0
  0
SOLID
  8
0
 62
    15
 10
3.840320
 20
2.688400
 11
3.836800
 21
3.432440
 12
3.852200
 22
2.683560
 13
3.848680
 23
3.427600
  0
POLYLINE
  8
0
  6
CONTINUOUS
 66
     1
 40
0.000000
 41
0.000000
  0
VERTEX
  8
0
  6
CONTINUOUS
 10
3.840320
 20
2.688400
  0
VERTEX
  8
0
  6
CONTINUOUS
 10
3.836800
 20
3.432440
  0
VERTEX
  8
0
  6
CONTINUOUS
 10
3.848680
 20
3.427600
  0
VERTEX
  8
0
  6
CONTINUOUS
 10
3.852200
 20
2.683560
  0
VERTEX
  8
0
  6
CONTINUOUS
 10
3.840320
 20
2.688400
  0
SEQEND
  8
0
  0
SOLID
  8
0
 62
    15
 10
3.852200
 20
2.683560
 11
3.848680
 21
3.427600
 12
3.864520
 22
2.684440
 13
3.861000
 23
3.428040
  0
POLYLINE
  8
0
  6
CONTINUOUS
 66
     1
 40
0.000000
 41
0.000000
  0
VERTEX
  8
0
  6
CONTINUOUS
 10
3.852200
 20
2.683560
  0
VERTEX
  8
0
  6
CONTINUOUS
 10
3.848680
 20
3.427600
  0
VERTEX
  8
0
  6
CONTINUOUS
 10
3.861000
 20
3.428040
  0
VERTEX
  8
0
  6
CONTINUOUS
 10
3.864520
 20
2.684440
  0
VERTEX
  8
0
  6
CONTINUOUS
 10
3.852200
 20
2.683560
  0
SEQEND
  8
0
  0
SOLID
  8
0
 62
    15
 10
3.864520
 20
2.684440
 11
3.861000
 21
3.428040
 12
3.878160
 22
2.690160
 13
3.874640
 23
3.433760
  0
POLYLINE
  8
0
  6
CONTINUOUS
 66
     1
 40
0.000000
 41
0.000000
  0
VERTEX
  8
0
  6
CONTINUOUS
 10
3.864520
 20
2.684440
  0
VERTEX
  8
0
  6
CONTINUOUS
 10
3.861000
 20
3.428040
  0
VERTEX
  8
0
  6
CONTINUOUS
 10
3.874640
 20
3.433760
  0
VERTEX
  8
0
  6
CONTINUOUS
 10
3.878160
 20
2.690160
  0
VERTEX
  8
0
  6
CONTINUOUS
 10
3.864520
 20
2.684440
  0
SEQEND
  8
0
  0
SOLID
  8
0
 62
    15
 10
3.878160
 20
2.690160
 11
3.874640
 21
3.433760
 12
3.892680
 22
2.699400
 13
3.889160
 23
3.443440
  0
POLYLINE
  8
0
  6
CONTINUOUS
 66
     1
 40
0.000000
 41
0.000000
  0
VERTEX
  8
0
  6
CONTINUOUS
 10
3.878160
 20
2.690160
  0
VERTEX
  8
0
  6
CONTINUOUS
 10
3.874640
 20
3.433760
  0
VERTEX
  8
0
  6
CONTINUOUS
 10
3.889160
 20
3.443440
  0
VERTEX
  8
0
  6
CONTINUOUS
 10
3.892680
 20
2.699400
  0
VERTEX
  8
0
  6
CONTINUOUS
 10
3.878160
 20
2.690160
  0
SEQEND
  8
0
  0
SOLID
  8
0
 62
    15
 10
3.892680
 20
2.699400
 11
3.889160
 21
3.443440
 12
3.924800
 22
2.726680
 13
3.921280
 23
3.470720
  0
POLYLINE
  8
0
  6
CONTINUOUS
 66
     1
 40
0.000000
 41
0.000000
  0
VERTEX
  8
0
  6
CONTINUOUS
 10
3.892680
 20
2.699400
  0
VERTEX
  8
0
  6
CONTINUOUS
 10
3.889160
 20
3.443440
  0
VERTEX
  8
0
  6
CONTINUOUS
 10
3.921280
 20
3.470720
  0
VERTEX
  8
0
  6
CONTINUOUS
 10
3.924800
 20
2.726680
  0
VERTEX
  8
0
  6
CONTINUOUS
 10
3.892680
 20
2.699400
  0
SEQEND
  8
0
  0
SOLID
  8
0
 62
    15
 10
3.924800
 20
2.726680
 11
3.921280
 21
3.470720
 12
3.927000
 22
2.728880
 13
3.923480
 23
3.472920
  0
POLYLINE
  8
0
  6
CONTINUOUS
 66
     1
 40
0.000000
 41
0.000000
  0
VERTEX
  8
0
  6
CONTINUOUS
 10
3.924800
 20
2.726680
  0
VERTEX
  8
0
  6
CONTINUOUS
 10
3.921280
 20
3.470720
  0
VERTEX
  8
0
  6
CONTINUOUS
 10
3.923480
 20
3.472920
  0
VERTEX
  8
0
  6
CONTINUOUS
 10
3.927000
 20
2.728880
  0
VERTEX
  8
0
  6
CONTINUOUS
 10
3.924800
 20
2.726680
  0
SEQEND
  8
0
  0
SOLID
  8
0
 62
    15
 10
3.927000
 20
2.728880
 11
3.923480
 21
3.472920
 12
3.979800
 22
2.762760
 13
3.976280
 23
3.506800
  0
POLYLINE
  8
0
  6
CONTINUOUS
 66
     1
 40
0.000000
 41
0.000000
  0
VERTEX
  8
0
  6
CONTINUOUS
 10
3.927000
 20
2.728880
  0
VERTEX
  8
0
  6
CONTINUOUS
 10
3.923480
 20
3.472920
  0
VERTEX
  8
0
  6
CONTINUOUS
 10
3.976280
 20
3.506800
  0
VERTEX
  8
0
  6
CONTINUOUS
 10
3.979800
 20
2.762760
  0
VERTEX
  8
0
  6
CONTINUOUS
 10
3.927000
 20
2.728880
  0
SEQEND
  8
0
  0
SOLID
  8
0
 62
    15
 10
3.979800
 20
2.762760
 11
3.976280
 21
3.506800
 12
4.032600
 22
2.787400
 13
4.029080
 23
3.531000
  0
POLYLINE
  8
0
  6
CONTINUOUS
 66
     1
 40
0.000000
 41
0.000000
  0
VERTEX
  8
0
  6
CONTINUOUS
 10
3.979800
 20
2.762760
  0
VERTEX
  8
0
  6
CONTINUOUS
 10
3.976280
 20
3.506800
  0
VERTEX
  8
0
  6
CONTINUOUS
 10
4.029080
 20
3.531000
  0
VERTEX
  8
0
  6
CONTINUOUS
 10
4.032600
 20
2.787400
  0
VERTEX
  8
0
  6
CONTINUOUS
 10
3.979800
 20
2.762760
  0
SEQEND
  8
0
  0
SOLID
  8
0
 62
    15
 10
4.032600
 20
2.787400
 11
4.029080
 21
3.531000
 12
4.083200
 22
2.804120
 13
4.079680
 23
3.547720
  0
POLYLINE
  8
0
  6
CONTINUOUS
 66
     1
 40
0.000000
 41
0.000000
  0
VERTEX
  8
0
  6
CONTINUOUS
 10
4.032600
 20
2.787400
  0
VERTEX
  8
0
  6
CONTINUOUS
 10
4.029080
 20
3.531000
  0
VERTEX
  8
0
  6
CONTINUOUS
 10
4.079680
 20
3.547720
  0
VERTEX
  8
0
  6
CONTINUOUS
 10
4.083200
 20
2.804120
  0
VERTEX
  8
0
  6
CONTINUOUS
 10
4.032600
 20
2.787400
  0
SEQEND
  8
0
  0
SOLID
  8
0
 62
    15
 10
4.083200
 20
2.804120
 11
4.079680
 21
3.547720
 12
4.130280
 22
2.814240
 13
4.126760
 23
3.558280
  0
POLYLINE
  8
0
  6
CONTINUOUS
 66
     1
 40
0.000000
 41
0.000000
  0
VERTEX
  8
0
  6
CONTINUOUS
 10
4.083200
 20
2.804120
  0
VERTEX
  8
0
  6
CONTINUOUS
 10
4.079680
 20
3.547720
  0
VERTEX
  8
0
  6
CONTINUOUS
 10
4.126760
 20
3.558280
  0
VERTEX
  8
0
  6
CONTINUOUS
 10
4.130280
 20
2.814240
  0
VERTEX
  8
0
  6
CONTINUOUS
 10
4.083200
 20
2.804120
  0
SEQEND
  8
0
  0
SOLID
  8
0
 62
    15
 10
4.130280
 20
2.814240
 11
4.126760
 21
3.558280
 12
4.172080
 22
2.819960
 13
4.168560
 23
3.564000
  0
POLYLINE
  8
0
  6
CONTINUOUS
 66
     1
 40
0.000000
 41
0.000000
  0
VERTEX
  8
0
  6
CONTINUOUS
 10
4.130280
 20
2.814240
  0
VERTEX
  8
0
  6
CONTINUOUS
 10
4.126760
 20
3.558280
  0
VERTEX
  8
0
  6
CONTINUOUS
 10
4.168560
 20
3.564000
  0
VERTEX
  8
0
  6
CONTINUOUS
 10
4.172080
 20
2.819960
  0
VERTEX
  8
0
  6
CONTINUOUS
 10
4.130280
 20
2.814240
  0
SEQEND
  8
0
  0
SOLID
  8
0
 62
    15
 10
4.172080
 20
2.819960
 11
4.168560
 21
3.564000
 12
4.206840
 22
2.822600
 13
4.203320
 23
3.566640
  0
POLYLINE
  8
0
  6
CONTINUOUS
 66
     1
 40
0.000000
 41
0.000000
  0
VERTEX
  8
0
  6
CONTINUOUS
 10
4.172080
 20
2.819960
  0
VERTEX
  8
0
  6
CONTINUOUS
 10
4.168560
 20
3.564000
  0
VERTEX
  8
0
  6
CONTINUOUS
 10
4.203320
 20
3.566640
  0
VERTEX
  8
0
  6
CONTINUOUS
 10
4.206840
 20
2.822600
  0
VERTEX
  8
0
  6
CONTINUOUS
 10
4.172080
 20
2.819960
  0
SEQEND
  8
0
  0
SOLID
  8
0
 62
    15
 10
4.206840
 20
2.822600
 11
4.203320
 21
3.566640
 12
4.220920
 22
2.823480
 13
4.217400
 23
3.567080
  0
POLYLINE
  8
0
  6
CONTINUOUS
 66
     1
 40
0.000000
 41
0.000000
  0
VERTEX
  8
0
  6
CONTINUOUS
 10
4.206840
 20
2.822600
  0
VERTEX
  8
0
  6
CONTINUOUS
 10
4.203320
 20
3.566640
  0
VERTEX
  8
0
  6
CONTINUOUS
 10
4.217400
 20
3.567080
  0
VERTEX
  8
0
  6
CONTINUOUS
 10
4.220920
 20
2.823480
  0
VERTEX
  8
0
  6
CONTINUOUS
 10
4.206840
 20
2.822600
  0
SEQEND
  8
0
  0
SOLID
  8
0
 62
    15
 10
4.220920
 20
2.823480
 11
4.217400
 21
3.567080
 12
4.232360
 22
2.823920
 13
4.228840
 23
3.567520
  0
POLYLINE
  8
0
  6
CONTINUOUS
 66
     1
 40
0.000000
 41
0.000000
  0
VERTEX
  8
0
  6
CONTINUOUS
 10
4.220920
 20
2.823480
  0
VERTEX
  8
0
  6
CONTINUOUS
 10
4.217400
 20
3.567080
  0
VERTEX
  8
0
  6
CONTINUOUS
 10
4.228840
 20
3.567520
  0
VERTEX
  8
0
  6
CONTINUOUS
 10
4.232360
 20
2.823920
  0
VERTEX
  8
0
  6
CONTINUOUS
 10
4.220920
 20
2.823480
  0
SEQEND
  8
0
  0
SOLID
  8
0
 62
    15
 10
4.232360
 20
2.823920
 11
4.228840
 21
3.567520
 12
4.247760
 22
2.824800
 13
4.244240
 23
3.568400
  0
POLYLINE
  8
0
  6
CONTINUOUS
 66
     1
 40
0.000000
 41
0.000000
  0
VERTEX
  8
0
  6
CONTINUOUS
 10
4.232360
 20
2.823920
  0
VERTEX
  8
0
  6
CONTINUOUS
 10
4.228840
 20
3.567520
  0
VERTEX
  8
0
  6
CONTINUOUS
 10
4.244240
 20
3.568400
  0
VERTEX
  8
0
  6
CONTINUOUS
 10
4.247760
 20
2.824800
  0
VERTEX
  8
0
  6
CONTINUOUS
 10
4.232360
 20
2.823920
  0
SEQEND
  8
0
  0
SOLID
  8
0
 62
    15
 10
2.508000
 20
2.856040
 11
2.504480
 21
3.600080
 12
3.230920
 22
2.856040
 13
3.227400
 23
3.600080
  0
POLYLINE
  8
0
  6
CONTINUOUS
 66
     1
 40
0.000000
 41
0.000000
  0
VERTEX
  8
0
  6
CONTINUOUS
 10
2.508000
 20
2.856040
  0
VERTEX
  8
0
  6
CONTINUOUS
 10
2.504480
 20
3.600080
  0
VERTEX
  8
0
  6
CONTINUOUS
 10
3.227400
 20
3.600080
  0
VERTEX
  8
0
  6
CONTINUOUS
 10
3.230920
 20
2.856040
  0
VERTEX
  8
0
  6
CONTINUOUS
 10
2.508000
 20
2.856040
  0
SEQEND
  8
0
  0
SOLID
  8
0
 62
    15
 10
4.253920
 20
2.824800
 11
4.250400
 21
3.568400
 12
4.269320
 22
2.823920
 13
4.265800
 23
3.567520
  0
POLYLINE
  8
0
  6
CONTINUOUS
 66
     1
 40
0.000000
 41
0.000000
  0
VERTEX
  8
0
  6
CONTINUOUS
 10
4.253920
 20
2.824800
  0
VERTEX
  8
0
  6
CONTINUOUS
 10
4.250400
 20
3.568400
  0
VERTEX
  8
0
  6
CONTINUOUS
 10
4.265800
 20
3.567520
  0
VERTEX
  8
0
  6
CONTINUOUS
 10
4.269320
 20
2.823920
  0
VERTEX
  8
0
  6
CONTINUOUS
 10
4.253920
 20
2.824800
  0
SEQEND
  8
0
  0
SOLID
  8
0
 62
    15
 10
4.269320
 20
2.823920
 11
4.265800
 21
3.567520
 12
4.294840
 22
2.823040
 13
4.291320
 23
3.567080
  0
POLYLINE
  8
0
  6
CONTINUOUS
 66
     1
 40
0.000000
 41
0.000000
  0
VERTEX
  8
0
  6
CONTINUOUS
 10
4.269320
 20
2.823920
  0
VERTEX
  8
0
  6
CONTINUOUS
 10
4.265800
 20
3.567520
  0
VERTEX
  8
0
  6
CONTINUOUS
 10
4.291320
 20
3.567080
  0
VERTEX
  8
0
  6
CONTINUOUS
 10
4.294840
 20
2.823040
  0
VERTEX
  8
0
  6
CONTINUOUS
 10
4.269320
 20
2.823920
  0
SEQEND
  8
0
  0
SOLID
  8
0
 62
    15
 10
4.294840
 20
2.823040
 11
4.291320
 21
3.567080
 12
4.329600
 22
2.820840
 13
4.326080
 23
3.564440
  0
POLYLINE
  8
0
  6
CONTINUOUS
 66
     1
 40
0.000000
 41
0.000000
  0
VERTEX
  8
0
  6
CONTINUOUS
 10
4.294840
 20
2.823040
  0
VERTEX
  8
0
  6
CONTINUOUS
 10
4.291320
 20
3.567080
  0
VERTEX
  8
0
  6
CONTINUOUS
 10
4.326080
 20
3.564440
  0
VERTEX
  8
0
  6
CONTINUOUS
 10
4.329600
 20
2.820840
  0
VERTEX
  8
0
  6
CONTINUOUS
 10
4.294840
 20
2.823040
  0
SEQEND
  8
0
  0
SOLID
  8
0
 62
    15
 10
4.329600
 20
2.820840
 11
4.326080
 21
3.564440
 12
4.371400
 22
2.815560
 13
4.367880
 23
3.559160
  0
POLYLINE
  8
0
  6
CONTINUOUS
 66
     1
 40
0.000000
 41
0.000000
  0
VERTEX
  8
0
  6
CONTINUOUS
 10
4.329600
 20
2.820840
  0
VERTEX
  8
0
  6
CONTINUOUS
 10
4.326080
 20
3.564440
  0
VERTEX
  8
0
  6
CONTINUOUS
 10
4.367880
 20
3.559160
  0
VERTEX
  8
0
  6
CONTINUOUS
 10
4.371400
 20
2.815560
  0
VERTEX
  8
0
  6
CONTINUOUS
 10
4.329600
 20
2.820840
  0
SEQEND
  8
0
  0
SOLID
  8
0
 62
    15
 10
4.371400
 20
2.815560
 11
4.367880
 21
3.559160
 12
4.418480
 22
2.805440
 13
4.414960
 23
3.549040
  0
POLYLINE
  8
0
  6
CONTINUOUS
 66
     1
 40
0.000000
 41
0.000000
  0
VERTEX
  8
0
  6
CONTINUOUS
 10
4.371400
 20
2.815560
  0
VERTEX
  8
0
  6
CONTINUOUS
 10
4.367880
 20
3.559160
  0
VERTEX
  8
0
  6
CONTINUOUS
 10
4.414960
 20
3.549040
  0
VERTEX
  8
0
  6
CONTINUOUS
 10
4.418480
 20
2.805440
  0
VERTEX
  8
0
  6
CONTINUOUS
 10
4.371400
 20
2.815560
  0
SEQEND
  8
0
  0
SOLID
  8
0
 62
    15
 10
4.418480
 20
2.805440
 11
4.414960
 21
3.549040
 12
4.469080
 22
2.789160
 13
4.466000
 23
3.532760
  0
POLYLINE
  8
0
  6
CONTINUOUS
 66
     1
 40
0.000000
 41
0.000000
  0
VERTEX
  8
0
  6
CONTINUOUS
 10
4.418480
 20
2.805440
  0
VERTEX
  8
0
  6
CONTINUOUS
 10
4.414960
 20
3.549040
  0
VERTEX
  8
0
  6
CONTINUOUS
 10
4.466000
 20
3.532760
  0
VERTEX
  8
0
  6
CONTINUOUS
 10
4.469080
 20
2.789160
  0
VERTEX
  8
0
  6
CONTINUOUS
 10
4.418480
 20
2.805440
  0
SEQEND
  8
0
  0
SOLID
  8
0
 62
    15
 10
4.469080
 20
2.789160
 11
4.466000
 21
3.532760
 12
4.521880
 22
2.764960
 13
4.518360
 23
3.508560
  0
POLYLINE
  8
0
  6
CONTINUOUS
 66
     1
 40
0.000000
 41
0.000000
  0
VERTEX
  8
0
  6
CONTINUOUS
 10
4.469080
 20
2.789160
  0
VERTEX
  8
0
  6
CONTINUOUS
 10
4.466000
 20
3.532760
  0
VERTEX
  8
0
  6
CONTINUOUS
 10
4.518360
 20
3.508560
  0
VERTEX
  8
0
  6
CONTINUOUS
 10
4.521880
 20
2.764960
  0
VERTEX
  8
0
  6
CONTINUOUS
 10
4.469080
 20
2.789160
  0
SEQEND
  8
0
  0
SOLID
  8
0
 62
    15
 10
4.521880
 20
2.764960
 11
4.518360
 21
3.508560
 12
4.574680
 22
2.731080
 13
4.571160
 23
3.474680
  0
POLYLINE
  8
0
  6
CONTINUOUS
 66
     1
 40
0.000000
 41
0.000000
  0
VERTEX
  8
0
  6
CONTINUOUS
 10
4.521880
 20
2.764960
  0
VERTEX
  8
0
  6
CONTINUOUS
 10
4.518360
 20
3.508560
  0
VERTEX
  8
0
  6
CONTINUOUS
 10
4.571160
 20
3.474680
  0
VERTEX
  8
0
  6
CONTINUOUS
 10
4.574680
 20
2.731080
  0
VERTEX
  8
0
  6
CONTINUOUS
 10
4.521880
 20
2.764960
  0
SEQEND
  8
0
  0
SOLID
  8
0
 62
    15
 10
4.574680
 20
2.731080
 11
4.571160
 21
3.474680
 12
4.576880
 22
2.731080
 13
4.573360
 23
3.474680
  0
POLYLINE
  8
0
  6
CONTINUOUS
 66
     1
 40
0.000000
 41
0.000000
  0
VERTEX
  8
0
  6
CONTINUOUS
 10
4.574680
 20
2.731080
  0
VERTEX
  8
0
  6
CONTINUOUS
 10
4.571160
 20
3.474680
  0
VERTEX
  8
0
  6
CONTINUOUS
 10
4.573360
 20
3.474680
  0
VERTEX
  8
0
  6
CONTINUOUS
 10
4.576880
 20
2.731080
  0
VERTEX
  8
0
  6
CONTINUOUS
 10
4.574680
 20
2.731080
  0
SEQEND
  8
0
  0
SOLID
  8
0
 62
    15
 10
4.576880
 20
2.731080
 11
4.573360
 21
3.474680
 12
4.609000
 22
2.703360
 13
4.605480
 23
3.447400
  0
POLYLINE
  8
0
  6
CONTINUOUS
 66
     1
 40
0.000000
 41
0.000000
  0
VERTEX
  8
0
  6
CONTINUOUS
 10
4.576880
 20
2.731080
  0
VERTEX
  8
0
  6
CONTINUOUS
 10
4.573360
 20
3.474680
  0
VERTEX
  8
0
  6
CONTINUOUS
 10
4.605480
 20
3.447400
  0
VERTEX
  8
0
  6
CONTINUOUS
 10
4.609000
 20
2.703360
  0
VERTEX
  8
0
  6
CONTINUOUS
 10
4.576880
 20
2.731080
  0
SEQEND
  8
0
  0
SOLID
  8
0
 62
    15
 10
4.609000
 20
2.703360
 11
4.605480
 21
3.447400
 12
4.623520
 22
2.693680
 13
4.620000
 23
3.437280
  0
POLYLINE
  8
0
  6
CONTINUOUS
 66
     1
 40
0.000000
 41
0.000000
  0
VERTEX
  8
0
  6
CONTINUOUS
 10
4.609000
 20
2.703360
  0
VERTEX
  8
0
  6
CONTINUOUS
 10
4.605480
 20
3.447400
  0
VERTEX
  8
0
  6
CONTINUOUS
 10
4.620000
 20
3.437280
  0
VERTEX
  8
0
  6
CONTINUOUS
 10
4.623520
 20
2.693680
  0
VERTEX
  8
0
  6
CONTINUOUS
 10
4.609000
 20
2.703360
  0
SEQEND
  8
0
  0
SOLID
  8
0
 62
    15
 10
4.623520
 20
2.693680
 11
4.620000
 21
3.437280
 12
4.637160
 22
2.687520
 13
4.633640
 23
3.431560
  0
POLYLINE
  8
0
  6
CONTINUOUS
 66
     1
 40
0.000000
 41
0.000000
  0
VERTEX
  8
0
  6
CONTINUOUS
 10
4.623520
 20
2.693680
  0
VERTEX
  8
0
  6
CONTINUOUS
 10
4.620000
 20
3.437280
  0
VERTEX
  8
0
  6
CONTINUOUS
 10
4.633640
 20
3.431560
  0
VERTEX
  8
0
  6
CONTINUOUS
 10
4.637160
 20
2.687520
  0
VERTEX
  8
0
  6
CONTINUOUS
 10
4.623520
 20
2.693680
  0
SEQEND
  8
0
  0
SOLID
  8
0
 62
    15
 10
4.637160
 20
2.687520
 11
4.633640
 21
3.431560
 12
4.649920
 22
2.686200
 13
4.646400
 23
3.430240
  0
POLYLINE
  8
0
  6
CONTINUOUS
 66
     1
 40
0.000000
 41
0.000000
  0
VERTEX
  8
0
  6
CONTINUOUS
 10
4.637160
 20
2.687520
  0
VERTEX
  8
0
  6
CONTINUOUS
 10
4.633640
 20
3.431560
  0
VERTEX
  8
0
  6
CONTINUOUS
 10
4.646400
 20
3.430240
  0
VERTEX
  8
0
  6
CONTINUOUS
 10
4.649920
 20
2.686200
  0
VERTEX
  8
0
  6
CONTINUOUS
 10
4.637160
 20
2.687520
  0
SEQEND
  8
0
  0
SOLID
  8
0
 62
    15
 10
4.649920
 20
2.686200
 11
4.646400
 21
3.430240
 12
4.661360
 22
2.691040
 13
4.658280
 23
3.434640
  0
POLYLINE
  8
0
  6
CONTINUOUS
 66
     1
 40
0.000000
 41
0.000000
  0
VERTEX
  8
0
  6
CONTINUOUS
 10
4.649920
 20
2.686200
  0
VERTEX
  8
0
  6
CONTINUOUS
 10
4.646400
 20
3.430240
  0
VERTEX
  8
0
  6
CONTINUOUS
 10
4.658280
 20
3.434640
  0
VERTEX
  8
0
  6
CONTINUOUS
 10
4.661360
 20
2.691040
  0
VERTEX
  8
0
  6
CONTINUOUS
 10
4.649920
 20
2.686200
  0
SEQEND
  8
0
  0
SOLID
  8
0
 62
    15
 10
4.661360
 20
2.691040
 11
4.658280
 21
3.434640
 12
4.672800
 22
2.702040
 13
4.669280
 23
3.445640
  0
POLYLINE
  8
0
  6
CONTINUOUS
 66
     1
 40
0.000000
 41
0.000000
  0
VERTEX
  8
0
  6
CONTINUOUS
 10
4.661360
 20
2.691040
  0
VERTEX
  8
0
  6
CONTINUOUS
 10
4.658280
 20
3.434640
  0
VERTEX
  8
0
  6
CONTINUOUS
 10
4.669280
 20
3.445640
  0
VERTEX
  8
0
  6
CONTINUOUS
 10
4.672800
 20
2.702040
  0
VERTEX
  8
0
  6
CONTINUOUS
 10
4.661360
 20
2.691040
  0
SEQEND
  8
0
  0
SOLID
  8
0
 62
    15
 10
4.672800
 20
2.702040
 11
4.669280
 21
3.445640
 12
4.683360
 22
2.720520
 13
4.679840
 23
3.464560
  0
POLYLINE
  8
0
  6
CONTINUOUS
 66
     1
 40
0.000000
 41
0.000000
  0
VERTEX
  8
0
  6
CONTINUOUS
 10
4.672800
 20
2.702040
  0
VERTEX
  8
0
  6
CONTINUOUS
 10
4.669280
 20
3.445640
  0
VERTEX
  8
0
  6
CONTINUOUS
 10
4.679840
 20
3.464560
  0
VERTEX
  8
0
  6
CONTINUOUS
 10
4.683360
 20
2.720520
  0
VERTEX
  8
0
  6
CONTINUOUS
 10
4.672800
 20
2.702040
  0
SEQEND
  8
0
  0
SOLID
  8
0
 62
    15
 10
4.683360
 20
2.720520
 11
4.679840
 21
3.464560
 12
4.691280
 22
2.718320
 13
4.688200
 23
3.462360
  0
POLYLINE
  8
0
  6
CONTINUOUS
 66
     1
 40
0.000000
 41
0.000000
  0
VERTEX
  8
0
  6
CONTINUOUS
 10
4.683360
 20
2.720520
  0
VERTEX
  8
0
  6
CONTINUOUS
 10
4.679840
 20
3.464560
  0
VERTEX
  8
0
  6
CONTINUOUS
 10
4.688200
 20
3.462360
  0
VERTEX
  8
0
  6
CONTINUOUS
 10
4.691280
 20
2.718320
  0
VERTEX
  8
0
  6
CONTINUOUS
 10
4.683360
 20
2.720520
  0
SEQEND
  8
0
  0
SOLID
  8
0
 62
    15
 10
4.691280
 20
2.718320
 11
4.688200
 21
3.462360
 12
4.693480
 22
2.718320
 13
4.689960
 23
3.462360
  0
POLYLINE
  8
0
  6
CONTINUOUS
 66
     1
 40
0.000000
 41
0.000000
  0
VERTEX
  8
0
  6
CONTINUOUS
 10
4.691280
 20
2.718320
  0
VERTEX
  8
0
  6
CONTINUOUS
 10
4.688200
 20
3.462360
  0
VERTEX
  8
0
  6
CONTINUOUS
 10
4.689960
 20
3.462360
  0
VERTEX
  8
0
  6
CONTINUOUS
 10
4.693480
 20
2.718320
  0
VERTEX
  8
0
  6
CONTINUOUS
 10
4.691280
 20
2.718320
  0
SEQEND
  8
0
  0
SOLID
  8
0
 62
    15
 10
4.693480
 20
2.718320
 11
4.689960
 21
3.462360
 12
4.721200
 22
2.686640
 13
4.717680
 23
3.430680
  0
POLYLINE
  8
0
  6
CONTINUOUS
 66
     1
 40
0.000000
 41
0.000000
  0
VERTEX
  8
0
  6
CONTINUOUS
 10
4.693480
 20
2.718320
  0
VERTEX
  8
0
  6
CONTINUOUS
 10
4.689960
 20
3.462360
  0
VERTEX
  8
0
  6
CONTINUOUS
 10
4.717680
 20
3.430680
  0
VERTEX
  8
0
  6
CONTINUOUS
 10
4.721200
 20
2.686640
  0
VERTEX
  8
0
  6
CONTINUOUS
 10
4.693480
 20
2.718320
  0
SEQEND
  8
0
  0
SOLID
  8
0
 62
    15
 10
4.721200
 20
2.686640
 11
4.717680
 21
3.430680
 12
4.748920
 22
2.661560
 13
4.745400
 23
3.405600
  0
POLYLINE
  8
0
  6
CONTINUOUS
 66
     1
 40
0.000000
 41
0.000000
  0
VERTEX
  8
0
  6
CONTINUOUS
 10
4.721200
 20
2.686640
  0
VERTEX
  8
0
  6
CONTINUOUS
 10
4.717680
 20
3.430680
  0
VERTEX
  8
0
  6
CONTINUOUS
 10
4.745400
 20
3.405600
  0
VERTEX
  8
0
  6
CONTINUOUS
 10
4.748920
 20
2.661560
  0
VERTEX
  8
0
  6
CONTINUOUS
 10
4.721200
 20
2.686640
  0
SEQEND
  8
0
  0
SOLID
  8
0
 62
    15
 10
4.748920
 20
2.661560
 11
4.745400
 21
3.405600
 12
4.776640
 22
2.642640
 13
4.773120
 23
3.386240
  0
POLYLINE
  8
0
  6
CONTINUOUS
 66
     1
 40
0.000000
 41
0.000000
  0
VERTEX
  8
0
  6
CONTINUOUS
 10
4.748920
 20
2.661560
  0
VERTEX
  8
0
  6
CONTINUOUS
 10
4.745400
 20
3.405600
  0
VERTEX
  8
0
  6
CONTINUOUS
 10
4.773120
 20
3.386240
  0
VERTEX
  8
0
  6
CONTINUOUS
 10
4.776640
 20
2.642640
  0
VERTEX
  8
0
  6
CONTINUOUS
 10
4.748920
 20
2.661560
  0
SEQEND
  8
0
  0
SOLID
  8
0
 62
    15
 10
4.776640
 20
2.642640
 11
4.773120
 21
3.386240
 12
4.804360
 22
2.629000
 13
4.800840
 23
3.373040
  0
POLYLINE
  8
0
  6
CONTINUOUS
 66
     1
 40
0.000000
 41
0.000000
  0
VERTEX
  8
0
  6
CONTINUOUS
 10
4.776640
 20
2.642640
  0
VERTEX
  8
0
  6
CONTINUOUS
 10
4.773120
 20
3.386240
  0
VERTEX
  8
0
  6
CONTINUOUS
 10
4.800840
 20
3.373040
  0
VERTEX
  8
0
  6
CONTINUOUS
 10
4.804360
 20
2.629000
  0
VERTEX
  8
0
  6
CONTINUOUS
 10
4.776640
 20
2.642640
  0
SEQEND
  8
0
  0
SOLID
  8
0
 62
    15
 10
4.804360
 20
2.629000
 11
4.800840
 21
3.373040
 12
4.831640
 22
2.621080
 13
4.828120
 23
3.365120
  0
POLYLINE
  8
0
  6
CONTINUOUS
 66
     1
 40
0.000000
 41
0.000000
  0
VERTEX
  8
0
  6
CONTINUOUS
 10
4.804360
 20
2.629000
  0
VERTEX
  8
0
  6
CONTINUOUS
 10
4.800840
 20
3.373040
  0
VERTEX
  8
0
  6
CONTINUOUS
 10
4.828120
 20
3.365120
  0
VERTEX
  8
0
  6
CONTINUOUS
 10
4.831640
 20
2.621080
  0
VERTEX
  8
0
  6
CONTINUOUS
 10
4.804360
 20
2.629000
  0
SEQEND
  8
0
  0
SOLID
  8
0
 62
    15
 10
4.831640
 20
2.621080
 11
4.828120
 21
3.365120
 12
4.858920
 22
2.618000
 13
4.855400
 23
3.361600
  0
POLYLINE
  8
0
  6
CONTINUOUS
 66
     1
 40
0.000000
 41
0.000000
  0
VERTEX
  8
0
  6
CONTINUOUS
 10
4.831640
 20
2.621080
  0
VERTEX
  8
0
  6
CONTINUOUS
 10
4.828120
 20
3.365120
  0
VERTEX
  8
0
  6
CONTINUOUS
 10
4.855400
 20
3.361600
  0
VERTEX
  8
0
  6
CONTINUOUS
 10
4.858920
 20
2.618000
  0
VERTEX
  8
0
  6
CONTINUOUS
 10
4.831640
 20
2.621080
  0
SEQEND
  8
0
  0
SOLID
  8
0
 62
    15
 10
4.858920
 20
2.618000
 11
4.855400
 21
3.361600
 12
4.885320
 22
2.618880
 13
4.881800
 23
3.362920
  0
POLYLINE
  8
0
  6
CONTINUOUS
 66
     1
 40
0.000000
 41
0.000000
  0
VERTEX
  8
0
  6
CONTINUOUS
 10
4.858920
 20
2.618000
  0
VERTEX
  8
0
  6
CONTINUOUS
 10
4.855400
 20
3.361600
  0
VERTEX
  8
0
  6
CONTINUOUS
 10
4.881800
 20
3.362920
  0
VERTEX
  8
0
  6
CONTINUOUS
 10
4.885320
 20
2.618880
  0
VERTEX
  8
0
  6
CONTINUOUS
 10
4.858920
 20
2.618000
  0
SEQEND
  8
0
  0
SOLID
  8
0
 62
    15
 10
4.885320
 20
2.618880
 11
4.881800
 21
3.362920
 12
4.910840
 22
2.624160
 13
4.907320
 23
3.367760
  0
POLYLINE
  8
0
  6
CONTINUOUS
 66
     1
 40
0.000000
 41
0.000000
  0
VERTEX
  8
0
  6
CONTINUOUS
 10
4.885320
 20
2.618880
  0
VERTEX
  8
0
  6
CONTINUOUS
 10
4.881800
 20
3.362920
  0
VERTEX
  8
0
  6
CONTINUOUS
 10
4.907320
 20
3.367760
  0
VERTEX
  8
0
  6
CONTINUOUS
 10
4.910840
 20
2.624160
  0
VERTEX
  8
0
  6
CONTINUOUS
 10
4.885320
 20
2.618880
  0
SEQEND
  8
0
  0
SOLID
  8
0
 62
    15
 10
4.910840
 20
2.624160
 11
4.907320
 21
3.367760
 12
4.959680
 22
2.644400
 13
4.956160
 23
3.388440
  0
POLYLINE
  8
0
  6
CONTINUOUS
 66
     1
 40
0.000000
 41
0.000000
  0
VERTEX
  8
0
  6
CONTINUOUS
 10
4.910840
 20
2.624160
  0
VERTEX
  8
0
  6
CONTINUOUS
 10
4.907320
 20
3.367760
  0
VERTEX
  8
0
  6
CONTINUOUS
 10
4.956160
 20
3.388440
  0
VERTEX
  8
0
  6
CONTINUOUS
 10
4.959680
 20
2.644400
  0
VERTEX
  8
0
  6
CONTINUOUS
 10
4.910840
 20
2.624160
  0
SEQEND
  8
0
  0
SOLID
  8
0
 62
    15
 10
4.959680
 20
2.644400
 11
4.956160
 21
3.388440
 12
5.003240
 22
2.675640
 13
4.999720
 23
3.419240
  0
POLYLINE
  8
0
  6
CONTINUOUS
 66
     1
 40
0.000000
 41
0.000000
  0
VERTEX
  8
0
  6
CONTINUOUS
 10
4.959680
 20
2.644400
  0
VERTEX
  8
0
  6
CONTINUOUS
 10
4.956160
 20
3.388440
  0
VERTEX
  8
0
  6
CONTINUOUS
 10
4.999720
 20
3.419240
  0
VERTEX
  8
0
  6
CONTINUOUS
 10
5.003240
 20
2.675640
  0
VERTEX
  8
0
  6
CONTINUOUS
 10
4.959680
 20
2.644400
  0
SEQEND
  8
0
  0
SOLID
  8
0
 62
    15
 10
5.003240
 20
2.675640
 11
4.999720
 21
3.419240
 12
5.040640
 22
2.713920
 13
5.037120
 23
3.457520
  0
POLYLINE
  8
0
  6
CONTINUOUS
 66
     1
 40
0.000000
 41
0.000000
  0
VERTEX
  8
0
  6
CONTINUOUS
 10
5.003240
 20
2.675640
  0
VERTEX
  8
0
  6
CONTINUOUS
 10
4.999720
 20
3.419240
  0
VERTEX
  8
0
  6
CONTINUOUS
 10
5.037120
 20
3.457520
  0
VERTEX
  8
0
  6
CONTINUOUS
 10
5.040640
 20
2.713920
  0
VERTEX
  8
0
  6
CONTINUOUS
 10
5.003240
 20
2.675640
  0
SEQEND
  8
0
  0
SOLID
  8
0
 62
    15
 10
5.040640
 20
2.713920
 11
5.037120
 21
3.457520
 12
5.070560
 22
2.756160
 13
5.067040
 23
3.499760
  0
POLYLINE
  8
0
  6
CONTINUOUS
 66
     1
 40
0.000000
 41
0.000000
  0
VERTEX
  8
0
  6
CONTINUOUS
 10
5.040640
 20
2.713920
  0
VERTEX
  8
0
  6
CONTINUOUS
 10
5.037120
 20
3.457520
  0
VERTEX
  8
0
  6
CONTINUOUS
 10
5.067040
 20
3.499760
  0
VERTEX
  8
0
  6
CONTINUOUS
 10
5.070560
 20
2.756160
  0
VERTEX
  8
0
  6
CONTINUOUS
 10
5.040640
 20
2.713920
  0
SEQEND
  8
0
  0
SOLID
  8
0
 62
    15
 10
5.070560
 20
2.756160
 11
5.067040
 21
3.499760
 12
5.085960
 22
2.786080
 13
5.082440
 23
3.530120
  0
POLYLINE
  8
0
  6
CONTINUOUS
 66
     1
 40
0.000000
 41
0.000000
  0
VERTEX
  8
0
  6
CONTINUOUS
 10
5.070560
 20
2.756160
  0
VERTEX
  8
0
  6
CONTINUOUS
 10
5.067040
 20
3.499760
  0
VERTEX
  8
0
  6
CONTINUOUS
 10
5.082440
 20
3.530120
  0
VERTEX
  8
0
  6
CONTINUOUS
 10
5.085960
 20
2.786080
  0
VERTEX
  8
0
  6
CONTINUOUS
 10
5.070560
 20
2.756160
  0
SEQEND
  8
0
  0
SOLID
  8
0
 62
    15
 10
5.085960
 20
2.786080
 11
5.082440
 21
3.530120
 12
5.101800
 22
2.807200
 13
5.098280
 23
3.550800
  0
POLYLINE
  8
0
  6
CONTINUOUS
 66
     1
 40
0.000000
 41
0.000000
  0
VERTEX
  8
0
  6
CONTINUOUS
 10
5.085960
 20
2.786080
  0
VERTEX
  8
0
  6
CONTINUOUS
 10
5.082440
 20
3.530120
  0
VERTEX
  8
0
  6
CONTINUOUS
 10
5.098280
 20
3.550800
  0
VERTEX
  8
0
  6
CONTINUOUS
 10
5.101800
 20
2.807200
  0
VERTEX
  8
0
  6
CONTINUOUS
 10
5.085960
 20
2.786080
  0
SEQEND
  8
0
  0
SOLID
  8
0
 62
    15
 10
5.101800
 20
2.807200
 11
5.098280
 21
3.550800
 12
5.117640
 22
2.819960
 13
5.114120
 23
3.563560
  0
POLYLINE
  8
0
  6
CONTINUOUS
 66
     1
 40
0.000000
 41
0.000000
  0
VERTEX
  8
0
  6
CONTINUOUS
 10
5.101800
 20
2.807200
  0
VERTEX
  8
0
  6
CONTINUOUS
 10
5.098280
 20
3.550800
  0
VERTEX
  8
0
  6
CONTINUOUS
 10
5.114120
 20
3.563560
  0
VERTEX
  8
0
  6
CONTINUOUS
 10
5.117640
 20
2.819960
  0
VERTEX
  8
0
  6
CONTINUOUS
 10
5.101800
 20
2.807200
  0
SEQEND
  8
0
  0
SOLID
  8
0
 62
    15
 10
5.117640
 20
2.819960
 11
5.114120
 21
3.563560
 12
5.132600
 22
2.825240
 13
5.129080
 23
3.569280
  0
POLYLINE
  8
0
  6
CONTINUOUS
 66
     1
 40
0.000000
 41
0.000000
  0
VERTEX
  8
0
  6
CONTINUOUS
 10
5.117640
 20
2.819960
  0
VERTEX
  8
0
  6
CONTINUOUS
 10
5.114120
 20
3.563560
  0
VERTEX
  8
0
  6
CONTINUOUS
 10
5.129080
 20
3.569280
  0
VERTEX
  8
0
  6
CONTINUOUS
 10
5.132600
 20
2.825240
  0
VERTEX
  8
0
  6
CONTINUOUS
 10
5.117640
 20
2.819960
  0
SEQEND
  8
0
  0
SOLID
  8
0
 62
    15
 10
5.132600
 20
2.825240
 11
5.129080
 21
3.569280
 12
5.146240
 22
2.824800
 13
5.142720
 23
3.568840
  0
POLYLINE
  8
0
  6
CONTINUOUS
 66
     1
 40
0.000000
 41
0.000000
  0
VERTEX
  8
0
  6
CONTINUOUS
 10
5.132600
 20
2.825240
  0
VERTEX
  8
0
  6
CONTINUOUS
 10
5.129080
 20
3.569280
  0
VERTEX
  8
0
  6
CONTINUOUS
 10
5.142720
 20
3.568840
  0
VERTEX
  8
0
  6
CONTINUOUS
 10
5.146240
 20
2.824800
  0
VERTEX
  8
0
  6
CONTINUOUS
 10
5.132600
 20
2.825240
  0
SEQEND
  8
0
  0
SOLID
  8
0
 62
    15
 10
5.146240
 20
2.824800
 11
5.142720
 21
3.568840
 12
5.158120
 22
2.819520
 13
5.154600
 23
3.563120
  0
POLYLINE
  8
0
  6
CONTINUOUS
 66
     1
 40
0.000000
 41
0.000000
  0
VERTEX
  8
0
  6
CONTINUOUS
 10
5.146240
 20
2.824800
  0
VERTEX
  8
0
  6
CONTINUOUS
 10
5.142720
 20
3.568840
  0
VERTEX
  8
0
  6
CONTINUOUS
 10
5.154600
 20
3.563120
  0
VERTEX
  8
0
  6
CONTINUOUS
 10
5.158120
 20
2.819520
  0
VERTEX
  8
0
  6
CONTINUOUS
 10
5.146240
 20
2.824800
  0
SEQEND
  8
0
  0
SOLID
  8
0
 62
    15
 10
5.158120
 20
2.819520
 11
5.154600
 21
3.563120
 12
5.166920
 22
2.809840
 13
5.163400
 23
3.553880
  0
POLYLINE
  8
0
  6
CONTINUOUS
 66
     1
 40
0.000000
 41
0.000000
  0
VERTEX
  8
0
  6
CONTINUOUS
 10
5.158120
 20
2.819520
  0
VERTEX
  8
0
  6
CONTINUOUS
 10
5.154600
 20
3.563120
  0
VERTEX
  8
0
  6
CONTINUOUS
 10
5.163400
 20
3.553880
  0
VERTEX
  8
0
  6
CONTINUOUS
 10
5.166920
 20
2.809840
  0
VERTEX
  8
0
  6
CONTINUOUS
 10
5.158120
 20
2.819520
  0
SEQEND
  8
0
  0
SOLID
  8
0
 62
    15
 10
5.166920
 20
2.809840
 11
5.163400
 21
3.553880
 12
5.172640
 22
2.797520
 13
5.169120
 23
3.541560
  0
POLYLINE
  8
0
  6
CONTINUOUS
 66
     1
 40
0.000000
 41
0.000000
  0
VERTEX
  8
0
  6
CONTINUOUS
 10
5.166920
 20
2.809840
  0
VERTEX
  8
0
  6
CONTINUOUS
 10
5.163400
 20
3.553880
  0
VERTEX
  8
0
  6
CONTINUOUS
 10
5.169120
 20
3.541560
  0
VERTEX
  8
0
  6
CONTINUOUS
 10
5.172640
 20
2.797520
  0
VERTEX
  8
0
  6
CONTINUOUS
 10
5.166920
 20
2.809840
  0
SEQEND
  8
0
  0
SOLID
  8
0
 62
    15
 10
5.172640
 20
2.797520
 11
5.169120
 21
3.541560
 12
5.181000
 22
2.785640
 13
5.177480
 23
3.529680
  0
POLYLINE
  8
0
  6
CONTINUOUS
 66
     1
 40
0.000000
 41
0.000000
  0
VERTEX
  8
0
  6
CONTINUOUS
 10
5.172640
 20
2.797520
  0
VERTEX
  8
0
  6
CONTINUOUS
 10
5.169120
 20
3.541560
  0
VERTEX
  8
0
  6
CONTINUOUS
 10
5.177480
 20
3.529680
  0
VERTEX
  8
0
  6
CONTINUOUS
 10
5.181000
 20
2.785640
  0
VERTEX
  8
0
  6
CONTINUOUS
 10
5.172640
 20
2.797520
  0
SEQEND
  8
0
  0
SOLID
  8
0
 62
    15
 10
5.181000
 20
2.785640
 11
5.177480
 21
3.529680
 12
5.193760
 22
2.775520
 13
5.190240
 23
3.519560
  0
POLYLINE
  8
0
  6
CONTINUOUS
 66
     1
 40
0.000000
 41
0.000000
  0
VERTEX
  8
0
  6
CONTINUOUS
 10
5.181000
 20
2.785640
  0
VERTEX
  8
0
  6
CONTINUOUS
 10
5.177480
 20
3.529680
  0
VERTEX
  8
0
  6
CONTINUOUS
 10
5.190240
 20
3.519560
  0
VERTEX
  8
0
  6
CONTINUOUS
 10
5.193760
 20
2.775520
  0
VERTEX
  8
0
  6
CONTINUOUS
 10
5.181000
 20
2.785640
  0
SEQEND
  8
0
  0
SOLID
  8
0
 62
    15
 10
5.193760
 20
2.775520
 11
5.190240
 21
3.519560
 12
5.209160
 22
2.769800
 13
5.205640
 23
3.513400
  0
POLYLINE
  8
0
  6
CONTINUOUS
 66
     1
 40
0.000000
 41
0.000000
  0
VERTEX
  8
0
  6
CONTINUOUS
 10
5.193760
 20
2.775520
  0
VERTEX
  8
0
  6
CONTINUOUS
 10
5.190240
 20
3.519560
  0
VERTEX
  8
0
  6
CONTINUOUS
 10
5.205640
 20
3.513400
  0
VERTEX
  8
0
  6
CONTINUOUS
 10
5.209160
 20
2.769800
  0
VERTEX
  8
0
  6
CONTINUOUS
 10
5.193760
 20
2.775520
  0
SEQEND
  8
0
  0
SOLID
  8
0
 62
    15
 10
5.209160
 20
2.769800
 11
5.205640
 21
3.513400
 12
5.225440
 22
2.768920
 13
5.221920
 23
3.512960
  0
POLYLINE
  8
0
  6
CONTINUOUS
 66
     1
 40
0.000000
 41
0.000000
  0
VERTEX
  8
0
  6
CONTINUOUS
 10
5.209160
 20
2.769800
  0
VERTEX
  8
0
  6
CONTINUOUS
 10
5.205640
 20
3.513400
  0
VERTEX
  8
0
  6
CONTINUOUS
 10
5.221920
 20
3.512960
  0
VERTEX
  8
0
  6
CONTINUOUS
 10
5.225440
 20
2.768920
  0
VERTEX
  8
0
  6
CONTINUOUS
 10
5.209160
 20
2.769800
  0
SEQEND
  8
0
  0
SOLID
  8
0
 62
    15
 10
5.225440
 20
2.768920
 11
5.221920
 21
3.512960
 12
5.241720
 22
2.775520
 13
5.238200
 23
3.519560
  0
POLYLINE
  8
0
  6
CONTINUOUS
 66
     1
 40
0.000000
 41
0.000000
  0
VERTEX
  8
0
  6
CONTINUOUS
 10
5.225440
 20
2.768920
  0
VERTEX
  8
0
  6
CONTINUOUS
 10
5.221920
 20
3.512960
  0
VERTEX
  8
0
  6
CONTINUOUS
 10
5.238200
 20
3.519560
  0
VERTEX
  8
0
  6
CONTINUOUS
 10
5.241720
 20
2.775520
  0
VERTEX
  8
0
  6
CONTINUOUS
 10
5.225440
 20
2.768920
  0
SEQEND
  8
0
  0
SOLID
  8
0
 62
    15
 10
5.241720
 20
2.775520
 11
5.238200
 21
3.519560
 12
5.255800
 22
2.791360
 13
5.252280
 23
3.534960
  0
POLYLINE
  8
0
  6
CONTINUOUS
 66
     1
 40
0.000000
 41
0.000000
  0
VERTEX
  8
0
  6
CONTINUOUS
 10
5.241720
 20
2.775520
  0
VERTEX
  8
0
  6
CONTINUOUS
 10
5.238200
 20
3.519560
  0
VERTEX
  8
0
  6
CONTINUOUS
 10
5.252280
 20
3.534960
  0
VERTEX
  8
0
  6
CONTINUOUS
 10
5.255800
 20
2.791360
  0
VERTEX
  8
0
  6
CONTINUOUS
 10
5.241720
 20
2.775520
  0
SEQEND
  8
0
  0
SOLID
  8
0
 62
    15
 10
5.255800
 20
2.791360
 11
5.252280
 21
3.534960
 12
5.265920
 22
2.817320
 13
5.262400
 23
3.561360
  0
POLYLINE
  8
0
  6
CONTINUOUS
 66
     1
 40
0.000000
 41
0.000000
  0
VERTEX
  8
0
  6
CONTINUOUS
 10
5.255800
 20
2.791360
  0
VERTEX
  8
0
  6
CONTINUOUS
 10
5.252280
 20
3.534960
  0
VERTEX
  8
0
  6
CONTINUOUS
 10
5.262400
 20
3.561360
  0
VERTEX
  8
0
  6
CONTINUOUS
 10
5.265920
 20
2.817320
  0
VERTEX
  8
0
  6
CONTINUOUS
 10
5.255800
 20
2.791360
  0
SEQEND
  8
0
  0
SOLID
  8
0
 62
    15
 10
5.265920
 20
2.817320
 11
5.262400
 21
3.561360
 12
5.269000
 22
2.834920
 13
5.265480
 23
3.578960
  0
POLYLINE
  8
0
  6
CONTINUOUS
 66
     1
 40
0.000000
 41
0.000000
  0
VERTEX
  8
0
  6
CONTINUOUS
 10
5.265920
 20
2.817320
  0
VERTEX
  8
0
  6
CONTINUOUS
 10
5.262400
 20
3.561360
  0
VERTEX
  8
0
  6
CONTINUOUS
 10
5.265480
 20
3.578960
  0
VERTEX
  8
0
  6
CONTINUOUS
 10
5.269000
 20
2.834920
  0
VERTEX
  8
0
  6
CONTINUOUS
 10
5.265920
 20
2.817320
  0
SEQEND
  8
0
  0
SOLID
  8
0
 62
    15
 10
5.269000
 20
2.834920
 11
5.265480
 21
3.578960
 12
5.270760
 22
2.856040
 13
5.267240
 23
3.600080
  0
POLYLINE
  8
0
  6
CONTINUOUS
 66
     1
 40
0.000000
 41
0.000000
  0
VERTEX
  8
0
  6
CONTINUOUS
 10
5.269000
 20
2.834920
  0
VERTEX
  8
0
  6
CONTINUOUS
 10
5.265480
 20
3.578960
  0
VERTEX
  8
0
  6
CONTINUOUS
 10
5.267240
 20
3.600080
  0
VERTEX
  8
0
  6
CONTINUOUS
 10
5.270760
 20
2.856040
  0
VERTEX
  8
0
  6
CONTINUOUS
 10
5.269000
 20
2.834920
  0
SEQEND
  8
0
  0
SOLID
  8
0
 62
    15
 10
5.270760
 20
2.856040
 11
5.267240
 21
3.600080
 12
6.018760
 22
2.856040
 13
6.015240
 23
3.600080
  0
POLYLINE
  8
0
  6
CONTINUOUS
 66
     1
 40
0.000000
 41
0.000000
  0
VERTEX
  8
0
  6
CONTINUOUS
 10
5.270760
 20
2.856040
  0
VERTEX
  8
0
  6
CONTINUOUS
 10
5.267240
 20
3.600080
  0
VERTEX
  8
0
  6
CONTINUOUS
 10
6.015240
 20
3.600080
  0
VERTEX
  8
0
  6
CONTINUOUS
 10
6.018760
 20
2.856040
  0
VERTEX
  8
0
  6
CONTINUOUS
 10
5.270760
 20
2.856040
  0
SEQEND
  8
0
  0
SOLID
  8
0
 62
    15
 10
6.018760
 20
2.856040
 11
6.015240
 21
3.600080
 12
6.018760
 22
2.858240
 13
6.015240
 23
3.601840
  0
POLYLINE
  8
0
  6
CONTINUOUS
 66
     1
 40
0.000000
 41
0.000000
  0
VERTEX
  8
0
  6
CONTINUOUS
 10
6.018760
 20
2.856040
  0
VERTEX
  8
0
  6
CONTINUOUS
 10
6.015240
 20
3.600080
  0
VERTEX
  8
0
  6
CONTINUOUS
 10
6.015240
 20
3.601840
  0
VERTEX
  8
0
  6
CONTINUOUS
 10
6.018760
 20
2.858240
  0
VERTEX
  8
0
  6
CONTINUOUS
 10
6.018760
 20
2.856040
  0
SEQEND
  8
0
  0
SOLID
  8
0
 62
    15
 10
6.018760
 20
2.858240
 11
6.015240
 21
3.601840
 12
6.025800
 22
2.858240
 13
6.022280
 23
3.601840
  0
POLYLINE
  8
0
  6
CONTINUOUS
 66
     1
 40
0.000000
 41
0.000000
  0
VERTEX
  8
0
  6
CONTINUOUS
 10
6.018760
 20
2.858240
  0
VERTEX
  8
0
  6
CONTINUOUS
 10
6.015240
 20
3.601840
  0
VERTEX
  8
0
  6
CONTINUOUS
 10
6.022280
 20
3.601840
  0
VERTEX
  8
0
  6
CONTINUOUS
 10
6.025800
 20
2.858240
  0
VERTEX
  8
0
  6
CONTINUOUS
 10
6.018760
 20
2.858240
  0
SEQEND
  8
0
  0
POLYLINE
  8
0
  6
CONTINUOUS
 66
     1
 40
0.000000
 41
0.000000
  0
VERTEX
  8
0
  6
CONTINUOUS
 10
6.025800
 20
2.858240
  0
VERTEX
  8
0
  6
CONTINUOUS
 10
6.025800
 20
2.110680
  0
VERTEX
  8
0
  6
CONTINUOUS
 10
2.508000
 20
2.110680
  0
VERTEX
  8
0
  6
CONTINUOUS
 10
2.508000
 20
2.856040
  0
VERTEX
  8
0
  6
CONTINUOUS
 10
3.230920
 20
2.856040
  0
VERTEX
  8
0
  6
CONTINUOUS
 10
3.232680
 20
2.834920
  0
VERTEX
  8
0
  6
CONTINUOUS
 10
3.235760
 20
2.817320
  0
VERTEX
  8
0
  6
CONTINUOUS
 10
3.245880
 20
2.790480
  0
VERTEX
  8
0
  6
CONTINUOUS
 10
3.259960
 20
2.774200
  0
VERTEX
  8
0
  6
CONTINUOUS
 10
3.276240
 20
2.767160
  0
VERTEX
  8
0
  6
CONTINUOUS
 10
3.292520
 20
2.766720
  0
VERTEX
  8
0
  6
CONTINUOUS
 10
3.307920
 20
2.772440
  0
VERTEX
  8
0
  6
CONTINUOUS
 10
3.320680
 20
2.781680
  0
VERTEX
  8
0
  6
CONTINUOUS
 10
3.329040
 20
2.793560
  0
VERTEX
  8
0
  6
CONTINUOUS
 10
3.334760
 20
2.806320
  0
VERTEX
  8
0
  6
CONTINUOUS
 10
3.343560
 20
2.816440
  0
VERTEX
  8
0
  6
CONTINUOUS
 10
3.355440
 20
2.822160
  0
VERTEX
  8
0
  6
CONTINUOUS
 10
3.369080
 20
2.822600
  0
VERTEX
  8
0
  6
CONTINUOUS
 10
3.384040
 20
2.816880
  0
VERTEX
  8
0
  6
CONTINUOUS
 10
3.399880
 20
2.804120
  0
VERTEX
  8
0
  6
CONTINUOUS
 10
3.415720
 20
2.782560
  0
VERTEX
  8
0
  6
CONTINUOUS
 10
3.431120
 20
2.751760
  0
VERTEX
  8
0
  6
CONTINUOUS
 10
3.460600
 20
2.709960
  0
VERTEX
  8
0
  6
CONTINUOUS
 10
3.497560
 20
2.671680
  0
VERTEX
  8
0
  6
CONTINUOUS
 10
3.541120
 20
2.640880
  0
VERTEX
  8
0
  6
CONTINUOUS
 10
3.589960
 20
2.621080
  0
VERTEX
  8
0
  6
CONTINUOUS
 10
3.615920
 20
2.615800
  0
VERTEX
  8
0
  6
CONTINUOUS
 10
3.642320
 20
2.614920
  0
VERTEX
  8
0
  6
CONTINUOUS
 10
3.669600
 20
2.618440
  0
VERTEX
  8
0
  6
CONTINUOUS
 10
3.696880
 20
2.626800
  0
VERTEX
  8
0
  6
CONTINUOUS
 10
3.725040
 20
2.640440
  0
VERTEX
  8
0
  6
CONTINUOUS
 10
3.752760
 20
2.659360
  0
VERTEX
  8
0
  6
CONTINUOUS
 10
3.780480
 20
2.684880
  0
VERTEX
  8
0
  6
CONTINUOUS
 10
3.808200
 20
2.716560
  0
VERTEX
  8
0
  6
CONTINUOUS
 10
3.818760
 20
2.718320
  0
VERTEX
  8
0
  6
CONTINUOUS
 10
3.828880
 20
2.699840
  0
VERTEX
  8
0
  6
CONTINUOUS
 10
3.840320
 20
2.688400
  0
VERTEX
  8
0
  6
CONTINUOUS
 10
3.852200
 20
2.683560
  0
VERTEX
  8
0
  6
CONTINUOUS
 10
3.864520
 20
2.684440
  0
VERTEX
  8
0
  6
CONTINUOUS
 10
3.878160
 20
2.690160
  0
VERTEX
  8
0
  6
CONTINUOUS
 10
3.892680
 20
2.699400
  0
VERTEX
  8
0
  6
CONTINUOUS
 10
3.927000
 20
2.728880
  0
VERTEX
  8
0
  6
CONTINUOUS
 10
3.979800
 20
2.762760
  0
VERTEX
  8
0
  6
CONTINUOUS
 10
4.032600
 20
2.787400
  0
VERTEX
  8
0
  6
CONTINUOUS
 10
4.083200
 20
2.804120
  0
VERTEX
  8
0
  6
CONTINUOUS
 10
4.130280
 20
2.814240
  0
VERTEX
  8
0
  6
CONTINUOUS
 10
4.172080
 20
2.819960
  0
VERTEX
  8
0
  6
CONTINUOUS
 10
4.253920
 20
2.824800
  0
VERTEX
  8
0
  6
CONTINUOUS
 10
4.329600
 20
2.820840
  0
VERTEX
  8
0
  6
CONTINUOUS
 10
4.371400
 20
2.815560
  0
VERTEX
  8
0
  6
CONTINUOUS
 10
4.418480
 20
2.805440
  0
VERTEX
  8
0
  6
CONTINUOUS
 10
4.469080
 20
2.789160
  0
VERTEX
  8
0
  6
CONTINUOUS
 10
4.521880
 20
2.764960
  0
VERTEX
  8
0
  6
CONTINUOUS
 10
4.574680
 20
2.731080
  0
VERTEX
  8
0
  6
CONTINUOUS
 10
4.576880
 20
2.731080
  0
VERTEX
  8
0
  6
CONTINUOUS
 10
4.609000
 20
2.703360
  0
VERTEX
  8
0
  6
CONTINUOUS
 10
4.623520
 20
2.693680
  0
VERTEX
  8
0
  6
CONTINUOUS
 10
4.637160
 20
2.687520
  0
VERTEX
  8
0
  6
CONTINUOUS
 10
4.649920
 20
2.686200
  0
VERTEX
  8
0
  6
CONTINUOUS
 10
4.661360
 20
2.691040
  0
VERTEX
  8
0
  6
CONTINUOUS
 10
4.672800
 20
2.702040
  0
VERTEX
  8
0
  6
CONTINUOUS
 10
4.683360
 20
2.720520
  0
VERTEX
  8
0
  6
CONTINUOUS
 10
4.693480
 20
2.718320
  0
VERTEX
  8
0
  6
CONTINUOUS
 10
4.721200
 20
2.686640
  0
VERTEX
  8
0
  6
CONTINUOUS
 10
4.748920
 20
2.661560
  0
VERTEX
  8
0
  6
CONTINUOUS
 10
4.776640
 20
2.642640
  0
VERTEX
  8
0
  6
CONTINUOUS
 10
4.804360
 20
2.629000
  0
VERTEX
  8
0
  6
CONTINUOUS
 10
4.831640
 20
2.621080
  0
VERTEX
  8
0
  6
CONTINUOUS
 10
4.858920
 20
2.618000
  0
VERTEX
  8
0
  6
CONTINUOUS
 10
4.885320
 20
2.618880
  0
VERTEX
  8
0
  6
CONTINUOUS
 10
4.910840
 20
2.624160
  0
VERTEX
  8
0
  6
CONTINUOUS
 10
4.959680
 20
2.644400
  0
VERTEX
  8
0
  6
CONTINUOUS
 10
5.003240
 20
2.675640
  0
VERTEX
  8
0
  6
CONTINUOUS
 10
5.040640
 20
2.713920
  0
VERTEX
  8
0
  6
CONTINUOUS
 10
5.070560
 20
2.756160
  0
VERTEX
  8
0
  6
CONTINUOUS
 10
5.085960
 20
2.786080
  0
VERTEX
  8
0
  6
CONTINUOUS
 10
5.101800
 20
2.807200
  0
VERTEX
  8
0
  6
CONTINUOUS
 10
5.117640
 20
2.819960
  0
VERTEX
  8
0
  6
CONTINUOUS
 10
5.132600
 20
2.825240
  0
VERTEX
  8
0
  6
CONTINUOUS
 10
5.146240
 20
2.824800
  0
VERTEX
  8
0
  6
CONTINUOUS
 10
5.158120
 20
2.819520
  0
VERTEX
  8
0
  6
CONTINUOUS
 10
5.166920
 20
2.809840
  0
VERTEX
  8
0
  6
CONTINUOUS
 10
5.172640
 20
2.797520
  0
VERTEX
  8
0
  6
CONTINUOUS
 10
5.181000
 20
2.785640
  0
VERTEX
  8
0
  6
CONTINUOUS
 10
5.193760
 20
2.775520
  0
VERTEX
  8
0
  6
CONTINUOUS
 10
5.209160
 20
2.769800
  0
VERTEX
  8
0
  6
CONTINUOUS
 10
5.225440
 20
2.768920
  0
VERTEX
  8
0
  6
CONTINUOUS
 10
5.241720
 20
2.775520
  0
VERTEX
  8
0
  6
CONTINUOUS
 10
5.255800
 20
2.791360
  0
VERTEX
  8
0
  6
CONTINUOUS
 10
5.265920
 20
2.817320
  0
VERTEX
  8
0
  6
CONTINUOUS
 10
5.269000
 20
2.834920
  0
VERTEX
  8
0
  6
CONTINUOUS
 10
5.270760
 20
2.856040
  0
VERTEX
  8
0
  6
CONTINUOUS
 10
6.018760
 20
2.856040
  0
VERTEX
  8
0
  6
CONTINUOUS
 10
6.018760
 20
2.858240
  0
VERTEX
  8
0
  6
CONTINUOUS
 10
6.025800
 20
2.858240
  0
SEQEND
  8
0
  0
TEXT
  8
0
 10
3.969680
 20
1.874840
 40
0.138179
  1
BA  117
 41
1.000000
  7
SN0
 71
     0
 72
     5
 11
4.559761
 21
1.874840
  0
TEXT
  8
0
 10
3.813480
 20
1.683440
 40
0.138179
  1
3/4" x 3-1/2"
 41
1.000000
  7
SN0
 71
     0
 72
     5
 11
4.713604
 21
1.683440
  0
POLYLINE
  8
0
  6
CONTINUOUS
 66
     1
 40
0.014080
 41
0.014080
  0
VERTEX
  8
0
  6
CONTINUOUS
 10
5.972560
 20
4.596240
  0
VERTEX
  8
0
  6
CONTINUOUS
 10
5.972560
 20
4.594480
  0
VERTEX
  8
0
  6
CONTINUOUS
 10
5.224560
 20
4.594480
  0
VERTEX
  8
0
  6
CONTINUOUS
 10
5.221480
 20
4.564120
  0
VERTEX
  8
0
  6
CONTINUOUS
 10
5.212680
 20
4.535080
  0
VERTEX
  8
0
  6
CONTINUOUS
 10
5.203000
 20
4.520560
  0
VERTEX
  8
0
  6
CONTINUOUS
 10
5.195960
 20
4.513960
  0
VERTEX
  8
0
  6
CONTINUOUS
 10
5.188040
 20
4.509560
  0
VERTEX
  8
0
  6
CONTINUOUS
 10
5.179680
 20
4.507360
  0
VERTEX
  8
0
  6
CONTINUOUS
 10
5.171320
 20
4.506920
  0
VERTEX
  8
0
  6
CONTINUOUS
 10
5.162960
 20
4.507800
  0
VERTEX
  8
0
  6
CONTINUOUS
 10
5.147560
 20
4.513960
  0
VERTEX
  8
0
  6
CONTINUOUS
 10
5.135240
 20
4.524080
  0
VERTEX
  8
0
  6
CONTINUOUS
 10
5.126880
 20
4.535960
  0
VERTEX
  8
0
  6
CONTINUOUS
 10
5.121160
 20
4.548280
  0
VERTEX
  8
0
  6
CONTINUOUS
 10
5.111920
 20
4.557520
  0
VERTEX
  8
0
  6
CONTINUOUS
 10
5.100480
 20
4.563240
  0
VERTEX
  8
0
  6
CONTINUOUS
 10
5.086840
 20
4.563680
  0
VERTEX
  8
0
  6
CONTINUOUS
 10
5.079360
 20
4.561920
  0
VERTEX
  8
0
  6
CONTINUOUS
 10
5.063960
 20
4.552680
  0
VERTEX
  8
0
  6
CONTINUOUS
 10
5.048120
 20
4.535960
  0
VERTEX
  8
0
  6
CONTINUOUS
 10
5.032280
 20
4.510440
  0
VERTEX
  8
0
  6
CONTINUOUS
 10
5.024800
 20
4.494160
  0
VERTEX
  8
0
  6
CONTINUOUS
 10
4.994880
 20
4.451920
  0
VERTEX
  8
0
  6
CONTINUOUS
 10
4.976840
 20
4.432120
  0
VERTEX
  8
0
  6
CONTINUOUS
 10
4.946920
 20
4.405280
  0
VERTEX
  8
0
  6
CONTINUOUS
 10
4.913480
 20
4.382840
  0
VERTEX
  8
0
  6
CONTINUOUS
 10
4.889720
 20
4.370960
  0
VERTEX
  8
0
  6
CONTINUOUS
 10
4.865080
 20
4.362160
  0
VERTEX
  8
0
  6
CONTINUOUS
 10
4.839120
 20
4.357320
  0
VERTEX
  8
0
  6
CONTINUOUS
 10
4.812720
 20
4.356000
  0
VERTEX
  8
0
  6
CONTINUOUS
 10
4.785880
 20
4.359520
  0
VERTEX
  8
0
  6
CONTINUOUS
 10
4.758160
 20
4.367440
  0
VERTEX
  8
0
  6
CONTINUOUS
 10
4.730880
 20
4.380640
  0
VERTEX
  8
0
  6
CONTINUOUS
 10
4.702720
 20
4.400000
  0
VERTEX
  8
0
  6
CONTINUOUS
 10
4.675000
 20
4.425080
  0
VERTEX
  8
0
  6
CONTINUOUS
 10
4.647720
 20
4.456760
  0
VERTEX
  8
0
  6
CONTINUOUS
 10
4.637160
 20
4.458960
  0
VERTEX
  8
0
  6
CONTINUOUS
 10
4.626600
 20
4.440480
  0
VERTEX
  8
0
  6
CONTINUOUS
 10
4.621320
 20
4.433880
  0
VERTEX
  8
0
  6
CONTINUOUS
 10
4.609880
 20
4.426400
  0
VERTEX
  8
0
  6
CONTINUOUS
 10
4.603720
 20
4.424640
  0
VERTEX
  8
0
  6
CONTINUOUS
 10
4.597560
 20
4.424640
  0
VERTEX
  8
0
  6
CONTINUOUS
 10
4.584800
 20
4.428600
  0
VERTEX
  8
0
  6
CONTINUOUS
 10
4.563240
 20
4.441800
  0
VERTEX
  8
0
  6
CONTINUOUS
 10
4.531120
 20
4.469520
  0
VERTEX
  8
0
  6
CONTINUOUS
 10
4.528920
 20
4.469520
  0
VERTEX
  8
0
  6
CONTINUOUS
 10
4.502520
 20
4.487560
  0
VERTEX
  8
0
  6
CONTINUOUS
 10
4.476120
 20
4.502960
  0
VERTEX
  8
0
  6
CONTINUOUS
 10
4.423320
 20
4.527160
  0
VERTEX
  8
0
  6
CONTINUOUS
 10
4.397360
 20
4.536400
  0
VERTEX
  8
0
  6
CONTINUOUS
 10
4.348520
 20
4.549160
  0
VERTEX
  8
0
  6
CONTINUOUS
 10
4.303640
 20
4.556640
  0
VERTEX
  8
0
  6
CONTINUOUS
 10
4.249080
 20
4.561480
  0
VERTEX
  8
0
  6
CONTINUOUS
 10
4.201560
 20
4.563240
  0
VERTEX
  8
0
  6
CONTINUOUS
 10
4.125880
 20
4.558400
  0
VERTEX
  8
0
  6
CONTINUOUS
 10
4.084080
 20
4.552680
  0
VERTEX
  8
0
  6
CONTINUOUS
 10
4.037000
 20
4.542120
  0
VERTEX
  8
0
  6
CONTINUOUS
 10
4.011920
 20
4.535080
  0
VERTEX
  8
0
  6
CONTINUOUS
 10
3.986400
 20
4.525840
  0
VERTEX
  8
0
  6
CONTINUOUS
 10
3.933600
 20
4.501200
  0
VERTEX
  8
0
  6
CONTINUOUS
 10
3.894000
 20
4.476560
  0
VERTEX
  8
0
  6
CONTINUOUS
 10
3.878600
 20
4.465120
  0
VERTEX
  8
0
  6
CONTINUOUS
 10
3.839440
 20
4.432560
  0
VERTEX
  8
0
  6
CONTINUOUS
 10
3.818760
 20
4.422440
  0
VERTEX
  8
0
  6
CONTINUOUS
 10
3.806000
 20
4.422000
  0
VERTEX
  8
0
  6
CONTINUOUS
 10
3.794120
 20
4.426840
  0
VERTEX
  8
0
  6
CONTINUOUS
 10
3.783120
 20
4.438280
  0
VERTEX
  8
0
  6
CONTINUOUS
 10
3.772560
 20
4.456760
  0
VERTEX
  8
0
  6
CONTINUOUS
 10
3.762000
 20
4.455000
  0
VERTEX
  8
0
  6
CONTINUOUS
 10
3.734280
 20
4.423320
  0
VERTEX
  8
0
  6
CONTINUOUS
 10
3.706560
 20
4.397800
  0
VERTEX
  8
0
  6
CONTINUOUS
 10
3.678840
 20
4.378880
  0
VERTEX
  8
0
  6
CONTINUOUS
 10
3.651120
 20
4.365240
  0
VERTEX
  8
0
  6
CONTINUOUS
 10
3.623400
 20
4.356880
  0
VERTEX
  8
0
  6
CONTINUOUS
 10
3.596120
 20
4.353360
  0
VERTEX
  8
0
  6
CONTINUOUS
 10
3.569720
 20
4.354240
  0
VERTEX
  8
0
  6
CONTINUOUS
 10
3.543760
 20
4.359080
  0
VERTEX
  8
0
  6
CONTINUOUS
 10
3.506800
 20
4.373160
  0
VERTEX
  8
0
  6
CONTINUOUS
 10
3.472480
 20
4.393400
  0
VERTEX
  8
0
  6
CONTINUOUS
 10
3.451360
 20
4.410120
  0
VERTEX
  8
0
  6
CONTINUOUS
 10
3.432000
 20
4.428160
  0
VERTEX
  8
0
  6
CONTINUOUS
 10
3.414400
 20
4.447960
  0
VERTEX
  8
0
  6
CONTINUOUS
 10
3.384920
 20
4.490200
  0
VERTEX
  8
0
  6
CONTINUOUS
 10
3.369520
 20
4.521000
  0
VERTEX
  8
0
  6
CONTINUOUS
 10
3.353680
 20
4.542560
  0
VERTEX
  8
0
  6
CONTINUOUS
 10
3.337840
 20
4.555320
  0
VERTEX
  8
0
  6
CONTINUOUS
 10
3.330360
 20
4.559280
  0
VERTEX
  8
0
  6
CONTINUOUS
 10
3.315840
 20
4.561480
  0
VERTEX
  8
0
  6
CONTINUOUS
 10
3.303080
 20
4.558400
  0
VERTEX
  8
0
  6
CONTINUOUS
 10
3.292960
 20
4.550040
  0
VERTEX
  8
0
  6
CONTINUOUS
 10
3.285480
 20
4.538600
  0
VERTEX
  8
0
  6
CONTINUOUS
 10
3.279320
 20
4.525840
  0
VERTEX
  8
0
  6
CONTINUOUS
 10
3.268760
 20
4.514840
  0
VERTEX
  8
0
  6
CONTINUOUS
 10
3.254680
 20
4.507360
  0
VERTEX
  8
0
  6
CONTINUOUS
 10
3.238400
 20
4.504280
  0
VERTEX
  8
0
  6
CONTINUOUS
 10
3.230040
 20
4.505160
  0
VERTEX
  8
0
  6
CONTINUOUS
 10
3.221680
 20
4.507800
  0
VERTEX
  8
0
  6
CONTINUOUS
 10
3.213760
 20
4.512640
  0
VERTEX
  8
0
  6
CONTINUOUS
 10
3.200120
 20
4.528920
  0
VERTEX
  8
0
  6
CONTINUOUS
 10
3.192200
 20
4.547840
  0
VERTEX
  8
0
  6
CONTINUOUS
 10
3.186920
 20
4.573360
  0
VERTEX
  8
0
  6
CONTINUOUS
 10
3.185160
 20
4.594480
  0
VERTEX
  8
0
  6
CONTINUOUS
 10
2.462240
 20
4.594480
  0
VERTEX
  8
0
  6
CONTINUOUS
 10
2.462240
 20
3.849120
  0
VERTEX
  8
0
  6
CONTINUOUS
 10
5.980040
 20
3.849120
  0
VERTEX
  8
0
  6
CONTINUOUS
 10
5.980040
 20
4.596240
  0
VERTEX
  8
0
  6
CONTINUOUS
 10
5.972560
 20
4.596240
  0
SEQEND
  8
0
  0
ENDSEC
  0
EOF
