  0
SECTION
  2
HEADER
  9
$ACADVER
  1
AC1006
  9
$EXTMIN
 10
4.383720
 20
0.405240
  9
$EXTMAX
 10
7.457120
 20
2.798840
  9
$LTSCALE
 40
0.044000
  9
$PDMODE
 70
    35
  9
$PDSIZE
 40
0.035200
  0
ENDSEC
  0
SECTION
  2
TABLES
  0
TABLE
  2
LTYPE
 70
     9
  0
LTYPE
  2
CONTINUOUS
 70
    64
  3
Solid line
 72
    65
 73
     0
 40
0.000000
  0
LTYPE
  2
DASHED
 70
    64
  3
__ __ __ __ __ __ __ __ __ __ __ __ __ __ __
 72
    65
 73
     2
 40
0.000330
 49
0.000220
 49
-0.000110
  0
LTYPE
  2
HIDDEN
 70
    64
  3
 _ _ _ _ _ _ _ _ _ _ _ _ _ _ _ _ _ _ _ _ _ _
 72
    65
 73
     2
 40
0.000165
 49
0.000110
 49
-0.000055
  0
LTYPE
  2
CENTER
 70
    64
  3
____ _ ____ _ ____ _ ____ _ ____ _ ____ _ ____
 72
    65
 73
     4
 40
0.000880
 49
0.000550
 49
-0.000110
 49
0.000110
 49
-0.000110
  0
LTYPE
  2
PHANTOM
 70
    64
  3
_____ _ _ _____ _ _ _____ _ _ _____ _ _ ____
 72
    65
 73
     6
 40
0.001100
 49
0.000550
 49
-0.000110
 49
0.000110
 49
-0.000110
 49
0.000110
 49
-0.000110
  0
LTYPE
  2
DOT
 70
    64
  3
...............................................
 72
    65
 73
     2
 40
0.000110
 49
0.000000
 49
-0.000110
  0
LTYPE
  2
DASHDOT
 70
    64
  3
__ . __ . __ . __ . __ . __ . __ . __ . __ . __
 72
    65
 73
     4
 40
0.000440
 49
0.000220
 49
-0.000110
 49
0.000000
 49
-0.000110
  0
LTYPE
  2
BORDER
 70
    64
  3
__ __ . __ __ . __ __ . __ __ . __ __ . __ __
 72
    65
 73
     6
 40
0.000770
 49
0.000220
 49
-0.000110
 49
0.000220
 49
-0.000110
 49
0.000000
 49
-0.000110
  0
LTYPE
  2
DIVIDE
 70
    64
  3
__ . . __ . . __ . . __ . . __ . . __ . . __
 72
    65
 73
     6
 40
0.000550
 49
0.000220
 49
-0.000110
 49
0.000000
 49
-0.000110
 49
0.000000
 49
-0.000110
  0
LTYPE
  2
DOTDOT
 70
    64
  3
 . .  . .  . .  . .  . .  . . 
 72
    65
 73
     5
 40
0.000242
 49
-0.000110
 49
0.000000
 49
-0.000110
 49
0.000000
 49
-0.000110
  0
ENDTAB
  0
TABLE
  2
STYLE
 70
     2
  0
STYLE
 70
     0
  2
SN0
 40
0.000000
 41
0.000440
 50
0.000000
 71
     0
 42
0.000000
  3
ROMAND
  0
STYLE
 70
    68
  2
SV0
 40
0.000000
 41
0.000440
 50
0.000000
 71
     0
 42
0.000000
  3
ROMAND
  0
ENDTAB
  0
TABLE
  2
LAYER
 70
     3
  0
LAYER
  2
FOREGROUND
 70
    64
 62
     7
  6
CONTINUOUS
  0
LAYER
  2
BACKGROUND
 70
    65
 62
    -7
  6
CONTINUOUS
  0
LAYER
  2
0
 70
    64
 62
     7
  6
CONTINUOUS
  0
ENDTAB
  0
ENDSEC
  0
SECTION
  2
ENTITIES
  0
POLYLINE
  8
FOREGROUND
  6
CONTINUOUS
 66
     1
 40
0.000000
 41
0.000000
  0
VERTEX
  8
FOREGROUND
  6
CONTINUOUS
 10
0.000000
 20
3.204080
  0
VERTEX
  8
FOREGROUND
  6
CONTINUOUS
 10
8.499920
 20
3.204080
  0
VERTEX
  8
FOREGROUND
  6
CONTINUOUS
 10
8.499920
 20
-7.795920
  0
VERTEX
  8
FOREGROUND
  6
CONTINUOUS
 10
0.000000
 20
-7.795920
  0
VERTEX
  8
FOREGROUND
  6
CONTINUOUS
 10
0.000000
 20
3.204080
  0
SEQEND
  8
0
  0
POLYLINE
  8
FOREGROUND
  6
CONTINUOUS
 66
     1
 40
0.000000
 41
0.000000
  0
VERTEX
  8
FOREGROUND
  6
CONTINUOUS
 10
0.000000
 20
3.204080
  0
VERTEX
  8
FOREGROUND
  6
CONTINUOUS
 10
8.499920
 20
3.204080
  0
VERTEX
  8
FOREGROUND
  6
CONTINUOUS
 10
8.499920
 20
-7.795920
  0
VERTEX
  8
FOREGROUND
  6
CONTINUOUS
 10
0.000000
 20
-7.795920
  0
VERTEX
  8
FOREGROUND
  6
CONTINUOUS
 10
0.000000
 20
3.204080
  0
SEQEND
  8
0
  0
TEXT
  8
0
 10
4.827240
 20
0.640640
 40
0.138052
  1
BA  116
 41
1.000000
  7
SN0
 71
     0
 72
     5
 11
5.417333
 21
0.640640
  0
TEXT
  8
0
 10
4.671480
 20
0.448800
 40
0.138052
  1
3/4" x 1-1/4"
 41
1.000000
  7
SN0
 71
     0
 72
     5
 11
5.572140
 21
0.448800
  0
SOLID
  8
0
 62
    15
 10
5.083320
 20
2.259400
 11
5.735400
 21
1.883640
 12
5.038440
 22
2.219800
 13
5.690520
 23
1.844040
  0
POLYLINE
  8
0
  6
CONTINUOUS
 66
     1
 40
0.000000
 41
0.000000
  0
VERTEX
  8
0
  6
CONTINUOUS
 10
5.083320
 20
2.259400
  0
VERTEX
  8
0
  6
CONTINUOUS
 10
5.735400
 20
1.883640
  0
VERTEX
  8
0
  6
CONTINUOUS
 10
5.690520
 20
1.844040
  0
VERTEX
  8
0
  6
CONTINUOUS
 10
5.038440
 20
2.219800
  0
VERTEX
  8
0
  6
CONTINUOUS
 10
5.083320
 20
2.259400
  0
SEQEND
  8
0
  0
SOLID
  8
0
 62
    15
 10
4.642000
 20
1.435280
 11
5.293640
 21
1.059520
 12
4.611640
 22
1.422960
 13
5.263720
 23
1.047640
  0
POLYLINE
  8
0
  6
CONTINUOUS
 66
     1
 40
0.000000
 41
0.000000
  0
VERTEX
  8
0
  6
CONTINUOUS
 10
4.642000
 20
1.435280
  0
VERTEX
  8
0
  6
CONTINUOUS
 10
5.293640
 20
1.059520
  0
VERTEX
  8
0
  6
CONTINUOUS
 10
5.263720
 20
1.047640
  0
VERTEX
  8
0
  6
CONTINUOUS
 10
4.611640
 20
1.422960
  0
VERTEX
  8
0
  6
CONTINUOUS
 10
4.642000
 20
1.435280
  0
SEQEND
  8
0
  0
SOLID
  8
0
 62
    15
 10
4.611640
 20
1.422960
 11
5.263720
 21
1.047640
 12
4.585240
 22
1.408440
 13
5.237320
 23
1.032680
  0
POLYLINE
  8
0
  6
CONTINUOUS
 66
     1
 40
0.000000
 41
0.000000
  0
VERTEX
  8
0
  6
CONTINUOUS
 10
4.611640
 20
1.422960
  0
VERTEX
  8
0
  6
CONTINUOUS
 10
5.263720
 20
1.047640
  0
VERTEX
  8
0
  6
CONTINUOUS
 10
5.237320
 20
1.032680
  0
VERTEX
  8
0
  6
CONTINUOUS
 10
4.585240
 20
1.408440
  0
VERTEX
  8
0
  6
CONTINUOUS
 10
4.611640
 20
1.422960
  0
SEQEND
  8
0
  0
SOLID
  8
0
 62
    15
 10
4.585240
 20
1.408440
 11
5.237320
 21
1.032680
 12
4.562800
 22
1.391720
 13
5.214880
 23
1.015960
  0
POLYLINE
  8
0
  6
CONTINUOUS
 66
     1
 40
0.000000
 41
0.000000
  0
VERTEX
  8
0
  6
CONTINUOUS
 10
4.585240
 20
1.408440
  0
VERTEX
  8
0
  6
CONTINUOUS
 10
5.237320
 20
1.032680
  0
VERTEX
  8
0
  6
CONTINUOUS
 10
5.214880
 20
1.015960
  0
VERTEX
  8
0
  6
CONTINUOUS
 10
4.562800
 20
1.391720
  0
VERTEX
  8
0
  6
CONTINUOUS
 10
4.585240
 20
1.408440
  0
SEQEND
  8
0
  0
SOLID
  8
0
 62
    15
 10
4.562800
 20
1.391720
 11
5.214880
 21
1.015960
 12
4.544320
 22
1.371920
 13
5.195960
 23
0.996160
  0
POLYLINE
  8
0
  6
CONTINUOUS
 66
     1
 40
0.000000
 41
0.000000
  0
VERTEX
  8
0
  6
CONTINUOUS
 10
4.562800
 20
1.391720
  0
VERTEX
  8
0
  6
CONTINUOUS
 10
5.214880
 20
1.015960
  0
VERTEX
  8
0
  6
CONTINUOUS
 10
5.195960
 20
0.996160
  0
VERTEX
  8
0
  6
CONTINUOUS
 10
4.544320
 20
1.371920
  0
VERTEX
  8
0
  6
CONTINUOUS
 10
4.562800
 20
1.391720
  0
SEQEND
  8
0
  0
SOLID
  8
0
 62
    15
 10
4.544320
 20
1.371920
 11
5.195960
 21
0.996160
 12
4.529800
 22
1.349920
 13
5.181880
 23
0.974160
  0
POLYLINE
  8
0
  6
CONTINUOUS
 66
     1
 40
0.000000
 41
0.000000
  0
VERTEX
  8
0
  6
CONTINUOUS
 10
4.544320
 20
1.371920
  0
VERTEX
  8
0
  6
CONTINUOUS
 10
5.195960
 20
0.996160
  0
VERTEX
  8
0
  6
CONTINUOUS
 10
5.181880
 20
0.974160
  0
VERTEX
  8
0
  6
CONTINUOUS
 10
4.529800
 20
1.349920
  0
VERTEX
  8
0
  6
CONTINUOUS
 10
4.544320
 20
1.371920
  0
SEQEND
  8
0
  0
SOLID
  8
0
 62
     7
 10
4.529800
 20
1.349920
 11
5.181880
 21
0.974160
 12
4.519680
 22
1.325280
 13
5.171320
 23
0.949960
  0
POLYLINE
  8
0
  6
CONTINUOUS
 66
     1
 40
0.000000
 41
0.000000
  0
VERTEX
  8
0
  6
CONTINUOUS
 10
4.529800
 20
1.349920
  0
VERTEX
  8
0
  6
CONTINUOUS
 10
5.181880
 20
0.974160
  0
VERTEX
  8
0
  6
CONTINUOUS
 10
5.171320
 20
0.949960
  0
VERTEX
  8
0
  6
CONTINUOUS
 10
4.519680
 20
1.325280
  0
VERTEX
  8
0
  6
CONTINUOUS
 10
4.529800
 20
1.349920
  0
SEQEND
  8
0
  0
SOLID
  8
0
 62
     7
 10
4.519680
 20
1.325280
 11
5.171320
 21
0.949960
 12
4.513960
 22
1.298440
 13
5.165600
 23
0.922680
  0
POLYLINE
  8
0
  6
CONTINUOUS
 66
     1
 40
0.000000
 41
0.000000
  0
VERTEX
  8
0
  6
CONTINUOUS
 10
4.519680
 20
1.325280
  0
VERTEX
  8
0
  6
CONTINUOUS
 10
5.171320
 20
0.949960
  0
VERTEX
  8
0
  6
CONTINUOUS
 10
5.165600
 20
0.922680
  0
VERTEX
  8
0
  6
CONTINUOUS
 10
4.513960
 20
1.298440
  0
VERTEX
  8
0
  6
CONTINUOUS
 10
4.519680
 20
1.325280
  0
SEQEND
  8
0
  0
SOLID
  8
0
 62
     7
 10
4.513960
 20
1.298440
 11
5.165600
 21
0.922680
 12
4.512640
 22
1.268520
 13
5.164280
 23
0.893200
  0
POLYLINE
  8
0
  6
CONTINUOUS
 66
     1
 40
0.000000
 41
0.000000
  0
VERTEX
  8
0
  6
CONTINUOUS
 10
4.513960
 20
1.298440
  0
VERTEX
  8
0
  6
CONTINUOUS
 10
5.165600
 20
0.922680
  0
VERTEX
  8
0
  6
CONTINUOUS
 10
5.164280
 20
0.893200
  0
VERTEX
  8
0
  6
CONTINUOUS
 10
4.512640
 20
1.268520
  0
VERTEX
  8
0
  6
CONTINUOUS
 10
4.513960
 20
1.298440
  0
SEQEND
  8
0
  0
SOLID
  8
0
 62
     7
 10
4.512640
 20
1.268520
 11
5.164280
 21
0.893200
 12
4.512640
 22
1.267200
 13
5.164280
 23
0.891880
  0
POLYLINE
  8
0
  6
CONTINUOUS
 66
     1
 40
0.000000
 41
0.000000
  0
VERTEX
  8
0
  6
CONTINUOUS
 10
4.512640
 20
1.268520
  0
VERTEX
  8
0
  6
CONTINUOUS
 10
5.164280
 20
0.893200
  0
VERTEX
  8
0
  6
CONTINUOUS
 10
5.164280
 20
0.891880
  0
VERTEX
  8
0
  6
CONTINUOUS
 10
4.512640
 20
1.267200
  0
VERTEX
  8
0
  6
CONTINUOUS
 10
4.512640
 20
1.268520
  0
SEQEND
  8
0
  0
SOLID
  8
0
 62
    15
 10
4.512640
 20
1.267200
 11
5.164280
 21
0.891880
 12
4.384600
 22
1.267200
 13
5.036240
 23
0.891880
  0
POLYLINE
  8
0
  6
CONTINUOUS
 66
     1
 40
0.000000
 41
0.000000
  0
VERTEX
  8
0
  6
CONTINUOUS
 10
4.512640
 20
1.267200
  0
VERTEX
  8
0
  6
CONTINUOUS
 10
5.164280
 20
0.891880
  0
VERTEX
  8
0
  6
CONTINUOUS
 10
5.036240
 20
0.891880
  0
VERTEX
  8
0
  6
CONTINUOUS
 10
4.384600
 20
1.267200
  0
VERTEX
  8
0
  6
CONTINUOUS
 10
4.512640
 20
1.267200
  0
SEQEND
  8
0
  0
SOLID
  8
0
 62
     7
 10
5.210040
 20
2.531320
 11
5.861680
 21
2.155560
 12
5.210040
 22
2.319240
 13
5.861680
 23
1.943920
  0
POLYLINE
  8
0
  6
CONTINUOUS
 66
     1
 40
0.000000
 41
0.000000
  0
VERTEX
  8
0
  6
CONTINUOUS
 10
5.210040
 20
2.531320
  0
VERTEX
  8
0
  6
CONTINUOUS
 10
5.861680
 20
2.155560
  0
VERTEX
  8
0
  6
CONTINUOUS
 10
5.861680
 20
1.943920
  0
VERTEX
  8
0
  6
CONTINUOUS
 10
5.210040
 20
2.319240
  0
VERTEX
  8
0
  6
CONTINUOUS
 10
5.210040
 20
2.531320
  0
SEQEND
  8
0
  0
SOLID
  8
0
 62
    15
 10
5.210040
 20
2.319240
 11
5.861680
 21
1.943920
 12
5.173080
 22
2.306920
 13
5.825160
 23
1.931600
  0
POLYLINE
  8
0
  6
CONTINUOUS
 66
     1
 40
0.000000
 41
0.000000
  0
VERTEX
  8
0
  6
CONTINUOUS
 10
5.210040
 20
2.319240
  0
VERTEX
  8
0
  6
CONTINUOUS
 10
5.861680
 20
1.943920
  0
VERTEX
  8
0
  6
CONTINUOUS
 10
5.825160
 20
1.931600
  0
VERTEX
  8
0
  6
CONTINUOUS
 10
5.173080
 20
2.306920
  0
VERTEX
  8
0
  6
CONTINUOUS
 10
5.210040
 20
2.319240
  0
SEQEND
  8
0
  0
SOLID
  8
0
 62
    15
 10
5.173080
 20
2.306920
 11
5.825160
 21
1.931600
 12
5.140080
 22
2.292840
 13
5.791720
 23
1.917080
  0
POLYLINE
  8
0
  6
CONTINUOUS
 66
     1
 40
0.000000
 41
0.000000
  0
VERTEX
  8
0
  6
CONTINUOUS
 10
5.173080
 20
2.306920
  0
VERTEX
  8
0
  6
CONTINUOUS
 10
5.825160
 20
1.931600
  0
VERTEX
  8
0
  6
CONTINUOUS
 10
5.791720
 20
1.917080
  0
VERTEX
  8
0
  6
CONTINUOUS
 10
5.140080
 20
2.292840
  0
VERTEX
  8
0
  6
CONTINUOUS
 10
5.173080
 20
2.306920
  0
SEQEND
  8
0
  0
SOLID
  8
0
 62
    15
 10
5.140080
 20
2.292840
 11
5.791720
 21
1.917080
 12
5.083320
 22
2.259400
 13
5.735400
 23
1.883640
  0
POLYLINE
  8
0
  6
CONTINUOUS
 66
     1
 40
0.000000
 41
0.000000
  0
VERTEX
  8
0
  6
CONTINUOUS
 10
5.140080
 20
2.292840
  0
VERTEX
  8
0
  6
CONTINUOUS
 10
5.791720
 20
1.917080
  0
VERTEX
  8
0
  6
CONTINUOUS
 10
5.735400
 20
1.883640
  0
VERTEX
  8
0
  6
CONTINUOUS
 10
5.083320
 20
2.259400
  0
VERTEX
  8
0
  6
CONTINUOUS
 10
5.140080
 20
2.292840
  0
SEQEND
  8
0
  0
SOLID
  8
0
 62
     7
 10
4.642000
 20
1.558040
 11
5.293640
 21
1.182280
 12
4.642000
 22
1.435280
 13
5.293640
 23
1.059520
  0
POLYLINE
  8
0
  6
CONTINUOUS
 66
     1
 40
0.000000
 41
0.000000
  0
VERTEX
  8
0
  6
CONTINUOUS
 10
4.642000
 20
1.558040
  0
VERTEX
  8
0
  6
CONTINUOUS
 10
5.293640
 20
1.182280
  0
VERTEX
  8
0
  6
CONTINUOUS
 10
5.293640
 20
1.059520
  0
VERTEX
  8
0
  6
CONTINUOUS
 10
4.642000
 20
1.435280
  0
VERTEX
  8
0
  6
CONTINUOUS
 10
4.642000
 20
1.558040
  0
SEQEND
  8
0
  0
SOLID
  8
0
 62
     7
 10
5.038440
 20
2.219800
 11
5.690520
 21
1.844040
 12
5.003240
 22
2.174920
 13
5.655320
 23
1.799160
  0
POLYLINE
  8
0
  6
CONTINUOUS
 66
     1
 40
0.000000
 41
0.000000
  0
VERTEX
  8
0
  6
CONTINUOUS
 10
5.038440
 20
2.219800
  0
VERTEX
  8
0
  6
CONTINUOUS
 10
5.690520
 20
1.844040
  0
VERTEX
  8
0
  6
CONTINUOUS
 10
5.655320
 20
1.799160
  0
VERTEX
  8
0
  6
CONTINUOUS
 10
5.003240
 20
2.174920
  0
VERTEX
  8
0
  6
CONTINUOUS
 10
5.038440
 20
2.219800
  0
SEQEND
  8
0
  0
SOLID
  8
0
 62
     7
 10
5.003240
 20
2.174920
 11
5.655320
 21
1.799160
 12
4.975960
 22
2.125640
 13
5.628040
 23
1.750320
  0
POLYLINE
  8
0
  6
CONTINUOUS
 66
     1
 40
0.000000
 41
0.000000
  0
VERTEX
  8
0
  6
CONTINUOUS
 10
5.003240
 20
2.174920
  0
VERTEX
  8
0
  6
CONTINUOUS
 10
5.655320
 20
1.799160
  0
VERTEX
  8
0
  6
CONTINUOUS
 10
5.628040
 20
1.750320
  0
VERTEX
  8
0
  6
CONTINUOUS
 10
4.975960
 20
2.125640
  0
VERTEX
  8
0
  6
CONTINUOUS
 10
5.003240
 20
2.174920
  0
SEQEND
  8
0
  0
SOLID
  8
0
 62
     7
 10
4.975960
 20
2.125640
 11
5.628040
 21
1.750320
 12
4.954400
 22
2.073280
 13
5.606040
 23
1.697960
  0
POLYLINE
  8
0
  6
CONTINUOUS
 66
     1
 40
0.000000
 41
0.000000
  0
VERTEX
  8
0
  6
CONTINUOUS
 10
4.975960
 20
2.125640
  0
VERTEX
  8
0
  6
CONTINUOUS
 10
5.628040
 20
1.750320
  0
VERTEX
  8
0
  6
CONTINUOUS
 10
5.606040
 20
1.697960
  0
VERTEX
  8
0
  6
CONTINUOUS
 10
4.954400
 20
2.073280
  0
VERTEX
  8
0
  6
CONTINUOUS
 10
4.975960
 20
2.125640
  0
SEQEND
  8
0
  0
SOLID
  8
0
 62
     7
 10
4.954400
 20
2.073280
 11
5.606040
 21
1.697960
 12
4.921400
 22
1.961960
 13
5.573040
 23
1.586200
  0
POLYLINE
  8
0
  6
CONTINUOUS
 66
     1
 40
0.000000
 41
0.000000
  0
VERTEX
  8
0
  6
CONTINUOUS
 10
4.954400
 20
2.073280
  0
VERTEX
  8
0
  6
CONTINUOUS
 10
5.606040
 20
1.697960
  0
VERTEX
  8
0
  6
CONTINUOUS
 10
5.573040
 20
1.586200
  0
VERTEX
  8
0
  6
CONTINUOUS
 10
4.921400
 20
1.961960
  0
VERTEX
  8
0
  6
CONTINUOUS
 10
4.954400
 20
2.073280
  0
SEQEND
  8
0
  0
SOLID
  8
0
 62
     7
 10
4.921400
 20
1.961960
 11
5.573040
 21
1.586200
 12
4.913480
 22
1.933360
 13
5.565560
 23
1.557600
  0
POLYLINE
  8
0
  6
CONTINUOUS
 66
     1
 40
0.000000
 41
0.000000
  0
VERTEX
  8
0
  6
CONTINUOUS
 10
4.921400
 20
1.961960
  0
VERTEX
  8
0
  6
CONTINUOUS
 10
5.573040
 20
1.586200
  0
VERTEX
  8
0
  6
CONTINUOUS
 10
5.565560
 20
1.557600
  0
VERTEX
  8
0
  6
CONTINUOUS
 10
4.913480
 20
1.933360
  0
VERTEX
  8
0
  6
CONTINUOUS
 10
4.921400
 20
1.961960
  0
SEQEND
  8
0
  0
SOLID
  8
0
 62
     7
 10
4.913480
 20
1.933360
 11
5.565560
 21
1.557600
 12
4.906000
 22
1.904760
 13
5.557640
 23
1.529000
  0
POLYLINE
  8
0
  6
CONTINUOUS
 66
     1
 40
0.000000
 41
0.000000
  0
VERTEX
  8
0
  6
CONTINUOUS
 10
4.913480
 20
1.933360
  0
VERTEX
  8
0
  6
CONTINUOUS
 10
5.565560
 20
1.557600
  0
VERTEX
  8
0
  6
CONTINUOUS
 10
5.557640
 20
1.529000
  0
VERTEX
  8
0
  6
CONTINUOUS
 10
4.906000
 20
1.904760
  0
VERTEX
  8
0
  6
CONTINUOUS
 10
4.913480
 20
1.933360
  0
SEQEND
  8
0
  0
SOLID
  8
0
 62
     7
 10
4.906000
 20
1.904760
 11
5.557640
 21
1.529000
 12
4.888840
 22
1.847560
 13
5.540920
 23
1.471800
  0
POLYLINE
  8
0
  6
CONTINUOUS
 66
     1
 40
0.000000
 41
0.000000
  0
VERTEX
  8
0
  6
CONTINUOUS
 10
4.906000
 20
1.904760
  0
VERTEX
  8
0
  6
CONTINUOUS
 10
5.557640
 20
1.529000
  0
VERTEX
  8
0
  6
CONTINUOUS
 10
5.540920
 20
1.471800
  0
VERTEX
  8
0
  6
CONTINUOUS
 10
4.888840
 20
1.847560
  0
VERTEX
  8
0
  6
CONTINUOUS
 10
4.906000
 20
1.904760
  0
SEQEND
  8
0
  0
SOLID
  8
0
 62
     7
 10
4.888840
 20
1.847560
 11
5.540920
 21
1.471800
 12
4.868160
 22
1.791680
 13
5.520240
 23
1.415920
  0
POLYLINE
  8
0
  6
CONTINUOUS
 66
     1
 40
0.000000
 41
0.000000
  0
VERTEX
  8
0
  6
CONTINUOUS
 10
4.888840
 20
1.847560
  0
VERTEX
  8
0
  6
CONTINUOUS
 10
5.540920
 20
1.471800
  0
VERTEX
  8
0
  6
CONTINUOUS
 10
5.520240
 20
1.415920
  0
VERTEX
  8
0
  6
CONTINUOUS
 10
4.868160
 20
1.791680
  0
VERTEX
  8
0
  6
CONTINUOUS
 10
4.888840
 20
1.847560
  0
SEQEND
  8
0
  0
SOLID
  8
0
 62
     7
 10
4.868160
 20
1.791680
 11
5.520240
 21
1.415920
 12
4.841760
 22
1.737560
 13
5.493840
 23
1.361800
  0
POLYLINE
  8
0
  6
CONTINUOUS
 66
     1
 40
0.000000
 41
0.000000
  0
VERTEX
  8
0
  6
CONTINUOUS
 10
4.868160
 20
1.791680
  0
VERTEX
  8
0
  6
CONTINUOUS
 10
5.520240
 20
1.415920
  0
VERTEX
  8
0
  6
CONTINUOUS
 10
5.493840
 20
1.361800
  0
VERTEX
  8
0
  6
CONTINUOUS
 10
4.841760
 20
1.737560
  0
VERTEX
  8
0
  6
CONTINUOUS
 10
4.868160
 20
1.791680
  0
SEQEND
  8
0
  0
SOLID
  8
0
 62
     7
 10
4.841760
 20
1.737560
 11
5.493840
 21
1.361800
 12
4.808320
 22
1.686520
 13
5.460400
 23
1.310760
  0
POLYLINE
  8
0
  6
CONTINUOUS
 66
     1
 40
0.000000
 41
0.000000
  0
VERTEX
  8
0
  6
CONTINUOUS
 10
4.841760
 20
1.737560
  0
VERTEX
  8
0
  6
CONTINUOUS
 10
5.493840
 20
1.361800
  0
VERTEX
  8
0
  6
CONTINUOUS
 10
5.460400
 20
1.310760
  0
VERTEX
  8
0
  6
CONTINUOUS
 10
4.808320
 20
1.686520
  0
VERTEX
  8
0
  6
CONTINUOUS
 10
4.841760
 20
1.737560
  0
SEQEND
  8
0
  0
SOLID
  8
0
 62
    15
 10
4.808320
 20
1.686520
 11
5.460400
 21
1.310760
 12
4.765640
 22
1.639000
 13
5.417720
 23
1.263240
  0
POLYLINE
  8
0
  6
CONTINUOUS
 66
     1
 40
0.000000
 41
0.000000
  0
VERTEX
  8
0
  6
CONTINUOUS
 10
4.808320
 20
1.686520
  0
VERTEX
  8
0
  6
CONTINUOUS
 10
5.460400
 20
1.310760
  0
VERTEX
  8
0
  6
CONTINUOUS
 10
5.417720
 20
1.263240
  0
VERTEX
  8
0
  6
CONTINUOUS
 10
4.765640
 20
1.639000
  0
VERTEX
  8
0
  6
CONTINUOUS
 10
4.808320
 20
1.686520
  0
SEQEND
  8
0
  0
SOLID
  8
0
 62
    15
 10
4.765640
 20
1.639000
 11
5.417720
 21
1.263240
 12
4.711520
 22
1.596320
 13
5.363600
 23
1.221000
  0
POLYLINE
  8
0
  6
CONTINUOUS
 66
     1
 40
0.000000
 41
0.000000
  0
VERTEX
  8
0
  6
CONTINUOUS
 10
4.765640
 20
1.639000
  0
VERTEX
  8
0
  6
CONTINUOUS
 10
5.417720
 20
1.263240
  0
VERTEX
  8
0
  6
CONTINUOUS
 10
5.363600
 20
1.221000
  0
VERTEX
  8
0
  6
CONTINUOUS
 10
4.711520
 20
1.596320
  0
VERTEX
  8
0
  6
CONTINUOUS
 10
4.765640
 20
1.639000
  0
SEQEND
  8
0
  0
SOLID
  8
0
 62
    15
 10
4.711520
 20
1.596320
 11
5.363600
 21
1.221000
 12
4.679840
 22
1.576960
 13
5.331920
 23
1.201640
  0
POLYLINE
  8
0
  6
CONTINUOUS
 66
     1
 40
0.000000
 41
0.000000
  0
VERTEX
  8
0
  6
CONTINUOUS
 10
4.711520
 20
1.596320
  0
VERTEX
  8
0
  6
CONTINUOUS
 10
5.363600
 20
1.221000
  0
VERTEX
  8
0
  6
CONTINUOUS
 10
5.331920
 20
1.201640
  0
VERTEX
  8
0
  6
CONTINUOUS
 10
4.679840
 20
1.576960
  0
VERTEX
  8
0
  6
CONTINUOUS
 10
4.711520
 20
1.596320
  0
SEQEND
  8
0
  0
SOLID
  8
0
 62
    15
 10
4.679840
 20
1.576960
 11
5.331920
 21
1.201640
 12
4.644640
 22
1.559360
 13
5.296280
 23
1.183600
  0
POLYLINE
  8
0
  6
CONTINUOUS
 66
     1
 40
0.000000
 41
0.000000
  0
VERTEX
  8
0
  6
CONTINUOUS
 10
4.679840
 20
1.576960
  0
VERTEX
  8
0
  6
CONTINUOUS
 10
5.331920
 20
1.201640
  0
VERTEX
  8
0
  6
CONTINUOUS
 10
5.296280
 20
1.183600
  0
VERTEX
  8
0
  6
CONTINUOUS
 10
4.644640
 20
1.559360
  0
VERTEX
  8
0
  6
CONTINUOUS
 10
4.679840
 20
1.576960
  0
SEQEND
  8
0
  0
SOLID
  8
0
 62
    15
 10
4.644640
 20
1.559360
 11
5.296280
 21
1.183600
 12
4.642000
 22
1.558040
 13
5.293640
 23
1.182280
  0
POLYLINE
  8
0
  6
CONTINUOUS
 66
     1
 40
0.000000
 41
0.000000
  0
VERTEX
  8
0
  6
CONTINUOUS
 10
4.644640
 20
1.559360
  0
VERTEX
  8
0
  6
CONTINUOUS
 10
5.296280
 20
1.183600
  0
VERTEX
  8
0
  6
CONTINUOUS
 10
5.293640
 20
1.182280
  0
VERTEX
  8
0
  6
CONTINUOUS
 10
4.642000
 20
1.558040
  0
VERTEX
  8
0
  6
CONTINUOUS
 10
4.644640
 20
1.559360
  0
SEQEND
  8
0
  0
POLYLINE
  8
0
  6
CONTINUOUS
 66
     1
 40
0.000000
 41
0.000000
  0
VERTEX
  8
0
  6
CONTINUOUS
 10
4.642000
 20
1.558040
  0
VERTEX
  8
0
  6
CONTINUOUS
 10
4.642000
 20
1.435280
  0
VERTEX
  8
0
  6
CONTINUOUS
 10
4.611640
 20
1.422960
  0
VERTEX
  8
0
  6
CONTINUOUS
 10
4.585240
 20
1.408440
  0
VERTEX
  8
0
  6
CONTINUOUS
 10
4.562800
 20
1.391720
  0
VERTEX
  8
0
  6
CONTINUOUS
 10
4.544320
 20
1.371920
  0
VERTEX
  8
0
  6
CONTINUOUS
 10
4.529800
 20
1.349920
  0
VERTEX
  8
0
  6
CONTINUOUS
 10
4.519680
 20
1.325280
  0
VERTEX
  8
0
  6
CONTINUOUS
 10
4.513960
 20
1.298440
  0
VERTEX
  8
0
  6
CONTINUOUS
 10
4.512640
 20
1.268520
  0
VERTEX
  8
0
  6
CONTINUOUS
 10
4.512640
 20
1.267200
  0
VERTEX
  8
0
  6
CONTINUOUS
 10
4.384600
 20
1.267200
  0
VERTEX
  8
0
  6
CONTINUOUS
 10
4.384600
 20
2.531320
  0
VERTEX
  8
0
  6
CONTINUOUS
 10
5.210040
 20
2.531320
  0
VERTEX
  8
0
  6
CONTINUOUS
 10
5.210040
 20
2.319240
  0
VERTEX
  8
0
  6
CONTINUOUS
 10
5.173080
 20
2.306920
  0
VERTEX
  8
0
  6
CONTINUOUS
 10
5.140080
 20
2.292840
  0
VERTEX
  8
0
  6
CONTINUOUS
 10
5.083320
 20
2.259400
  0
VERTEX
  8
0
  6
CONTINUOUS
 10
5.038440
 20
2.219800
  0
VERTEX
  8
0
  6
CONTINUOUS
 10
5.003240
 20
2.174920
  0
VERTEX
  8
0
  6
CONTINUOUS
 10
4.975960
 20
2.125640
  0
VERTEX
  8
0
  6
CONTINUOUS
 10
4.954400
 20
2.073280
  0
VERTEX
  8
0
  6
CONTINUOUS
 10
4.921400
 20
1.961960
  0
VERTEX
  8
0
  6
CONTINUOUS
 10
4.913480
 20
1.933360
  0
VERTEX
  8
0
  6
CONTINUOUS
 10
4.906000
 20
1.904760
  0
VERTEX
  8
0
  6
CONTINUOUS
 10
4.888840
 20
1.847560
  0
VERTEX
  8
0
  6
CONTINUOUS
 10
4.868160
 20
1.791680
  0
VERTEX
  8
0
  6
CONTINUOUS
 10
4.841760
 20
1.737560
  0
VERTEX
  8
0
  6
CONTINUOUS
 10
4.808320
 20
1.686520
  0
VERTEX
  8
0
  6
CONTINUOUS
 10
4.765640
 20
1.639000
  0
VERTEX
  8
0
  6
CONTINUOUS
 10
4.711520
 20
1.596320
  0
VERTEX
  8
0
  6
CONTINUOUS
 10
4.679840
 20
1.576960
  0
VERTEX
  8
0
  6
CONTINUOUS
 10
4.644640
 20
1.559360
  0
VERTEX
  8
0
  6
CONTINUOUS
 10
4.642000
 20
1.558040
  0
SEQEND
  8
0
  0
POLYLINE
  8
0
  6
CONTINUOUS
 66
     1
 40
0.013200
 41
0.013200
  0
VERTEX
  8
0
  6
CONTINUOUS
 10
7.166280
 20
2.230360
  0
VERTEX
  8
0
  6
CONTINUOUS
 10
7.289040
 20
2.230360
  0
VERTEX
  8
0
  6
CONTINUOUS
 10
7.301360
 20
2.200000
  0
VERTEX
  8
0
  6
CONTINUOUS
 10
7.315880
 20
2.173600
  0
VERTEX
  8
0
  6
CONTINUOUS
 10
7.333040
 20
2.151160
  0
VERTEX
  8
0
  6
CONTINUOUS
 10
7.352400
 20
2.132680
  0
VERTEX
  8
0
  6
CONTINUOUS
 10
7.374400
 20
2.118160
  0
VERTEX
  8
0
  6
CONTINUOUS
 10
7.399040
 20
2.108040
  0
VERTEX
  8
0
  6
CONTINUOUS
 10
7.425880
 20
2.102320
  0
VERTEX
  8
0
  6
CONTINUOUS
 10
7.455800
 20
2.101000
  0
VERTEX
  8
0
  6
CONTINUOUS
 10
7.457120
 20
2.101000
  0
VERTEX
  8
0
  6
CONTINUOUS
 10
7.457120
 20
1.972960
  0
VERTEX
  8
0
  6
CONTINUOUS
 10
6.193000
 20
1.972960
  0
VERTEX
  8
0
  6
CONTINUOUS
 10
6.193000
 20
2.798400
  0
VERTEX
  8
0
  6
CONTINUOUS
 10
6.405080
 20
2.798400
  0
VERTEX
  8
0
  6
CONTINUOUS
 10
6.417400
 20
2.761880
  0
VERTEX
  8
0
  6
CONTINUOUS
 10
6.431480
 20
2.728440
  0
VERTEX
  8
0
  6
CONTINUOUS
 10
6.456120
 20
2.684880
  0
VERTEX
  8
0
  6
CONTINUOUS
 10
6.484280
 20
2.648360
  0
VERTEX
  8
0
  6
CONTINUOUS
 10
6.515520
 20
2.617560
  0
VERTEX
  8
0
  6
CONTINUOUS
 10
6.549400
 20
2.592040
  0
VERTEX
  8
0
  6
CONTINUOUS
 10
6.598680
 20
2.564320
  0
VERTEX
  8
0
  6
CONTINUOUS
 10
6.651040
 20
2.542760
  0
VERTEX
  8
0
  6
CONTINUOUS
 10
6.706040
 20
2.525160
  0
VERTEX
  8
0
  6
CONTINUOUS
 10
6.848600
 20
2.486000
  0
VERTEX
  8
0
  6
CONTINUOUS
 10
6.904920
 20
2.467520
  0
VERTEX
  8
0
  6
CONTINUOUS
 10
6.960360
 20
2.444200
  0
VERTEX
  8
0
  6
CONTINUOUS
 10
6.986760
 20
2.430560
  0
VERTEX
  8
0
  6
CONTINUOUS
 10
7.012720
 20
2.414720
  0
VERTEX
  8
0
  6
CONTINUOUS
 10
7.050120
 20
2.387000
  0
VERTEX
  8
0
  6
CONTINUOUS
 10
7.085320
 20
2.354000
  0
VERTEX
  8
0
  6
CONTINUOUS
 10
7.117880
 20
2.314840
  0
VERTEX
  8
0
  6
CONTINUOUS
 10
7.147360
 20
2.268200
  0
VERTEX
  8
0
  6
CONTINUOUS
 10
7.166280
 20
2.230360
  0
SEQEND
  8
0
  0
TEXT
  8
0
 10
6.520360
 20
1.746800
 40
0.138052
  1
BA  116
 41
1.000000
  7
SN0
 71
     0
 72
     5
 11
7.110453
 21
1.746800
  0
TEXT
  8
0
 10
6.364160
 20
1.555400
 40
0.138052
  1
3/4" x 1-1/4"
 41
1.000000
  7
SN0
 71
     0
 72
     5
 11
7.264820
 21
1.555400
  0
ENDSEC
  0
EOF
