  0
SECTION
  2
HEADER
  9
$ACADVER
  1
AC1006
  9
$EXTMIN
 10
3.035120
 20
4.451040
  9
$EXTMAX
 10
5.464800
 20
6.548520
  9
$LTSCALE
 40
0.044000
  9
$PDMODE
 70
    35
  9
$PDSIZE
 40
0.035200
  0
ENDSEC
  0
SECTION
  2
TABLES
  0
TABLE
  2
LTYPE
 70
     9
  0
LTYPE
  2
CONTINUOUS
 70
    64
  3
Solid line
 72
    65
 73
     0
 40
0.000000
  0
LTYPE
  2
DASHED
 70
    64
  3
__ __ __ __ __ __ __ __ __ __ __ __ __ __ __
 72
    65
 73
     2
 40
0.000330
 49
0.000220
 49
-0.000110
  0
LTYPE
  2
HIDDEN
 70
    64
  3
 _ _ _ _ _ _ _ _ _ _ _ _ _ _ _ _ _ _ _ _ _ _
 72
    65
 73
     2
 40
0.000165
 49
0.000110
 49
-0.000055
  0
LTYPE
  2
CENTER
 70
    64
  3
____ _ ____ _ ____ _ ____ _ ____ _ ____ _ ____
 72
    65
 73
     4
 40
0.000880
 49
0.000550
 49
-0.000110
 49
0.000110
 49
-0.000110
  0
LTYPE
  2
PHANTOM
 70
    64
  3
_____ _ _ _____ _ _ _____ _ _ _____ _ _ ____
 72
    65
 73
     6
 40
0.001100
 49
0.000550
 49
-0.000110
 49
0.000110
 49
-0.000110
 49
0.000110
 49
-0.000110
  0
LTYPE
  2
DOT
 70
    64
  3
...............................................
 72
    65
 73
     2
 40
0.000110
 49
0.000000
 49
-0.000110
  0
LTYPE
  2
DASHDOT
 70
    64
  3
__ . __ . __ . __ . __ . __ . __ . __ . __ . __
 72
    65
 73
     4
 40
0.000440
 49
0.000220
 49
-0.000110
 49
0.000000
 49
-0.000110
  0
LTYPE
  2
BORDER
 70
    64
  3
__ __ . __ __ . __ __ . __ __ . __ __ . __ __
 72
    65
 73
     6
 40
0.000770
 49
0.000220
 49
-0.000110
 49
0.000220
 49
-0.000110
 49
0.000000
 49
-0.000110
  0
LTYPE
  2
DIVIDE
 70
    64
  3
__ . . __ . . __ . . __ . . __ . . __ . . __
 72
    65
 73
     6
 40
0.000550
 49
0.000220
 49
-0.000110
 49
0.000000
 49
-0.000110
 49
0.000000
 49
-0.000110
  0
LTYPE
  2
DOTDOT
 70
    64
  3
 . .  . .  . .  . .  . .  . . 
 72
    65
 73
     5
 40
0.000242
 49
-0.000110
 49
0.000000
 49
-0.000110
 49
0.000000
 49
-0.000110
  0
ENDTAB
  0
TABLE
  2
STYLE
 70
     2
  0
STYLE
 70
     0
  2
SN0
 40
0.000000
 41
0.000440
 50
0.000000
 71
     0
 42
0.000000
  3
ROMAND
  0
STYLE
 70
    68
  2
SV0
 40
0.000000
 41
0.000440
 50
0.000000
 71
     0
 42
0.000000
  3
ROMAND
  0
ENDTAB
  0
TABLE
  2
LAYER
 70
     3
  0
LAYER
  2
FOREGROUND
 70
    64
 62
     7
  6
CONTINUOUS
  0
LAYER
  2
BACKGROUND
 70
    65
 62
    -7
  6
CONTINUOUS
  0
LAYER
  2
0
 70
    64
 62
     7
  6
CONTINUOUS
  0
ENDTAB
  0
ENDSEC
  0
SECTION
  2
ENTITIES
  0
POLYLINE
  8
FOREGROUND
  6
CONTINUOUS
 66
     1
 40
0.000000
 41
0.000000
  0
VERTEX
  8
FOREGROUND
  6
CONTINUOUS
 10
0.000000
 20
10.999560
  0
VERTEX
  8
FOREGROUND
  6
CONTINUOUS
 10
8.499920
 20
10.999560
  0
VERTEX
  8
FOREGROUND
  6
CONTINUOUS
 10
8.499920
 20
-0.000440
  0
VERTEX
  8
FOREGROUND
  6
CONTINUOUS
 10
0.000000
 20
-0.000440
  0
VERTEX
  8
FOREGROUND
  6
CONTINUOUS
 10
0.000000
 20
10.999560
  0
SEQEND
  8
0
  0
POLYLINE
  8
FOREGROUND
  6
CONTINUOUS
 66
     1
 40
0.000000
 41
0.000000
  0
VERTEX
  8
FOREGROUND
  6
CONTINUOUS
 10
0.000000
 20
10.999560
  0
VERTEX
  8
FOREGROUND
  6
CONTINUOUS
 10
8.499920
 20
10.999560
  0
VERTEX
  8
FOREGROUND
  6
CONTINUOUS
 10
8.499920
 20
-0.000440
  0
VERTEX
  8
FOREGROUND
  6
CONTINUOUS
 10
0.000000
 20
-0.000440
  0
VERTEX
  8
FOREGROUND
  6
CONTINUOUS
 10
0.000000
 20
10.999560
  0
SEQEND
  8
0
  0
SOLID
  8
0
 62
     7
 10
4.598880
 20
5.333680
 11
5.244800
 21
5.705040
 12
4.637160
 22
5.305080
 13
5.283080
 23
5.676440
  0
POLYLINE
  8
0
  6
CONTINUOUS
 66
     1
 40
0.000000
 41
0.000000
  0
VERTEX
  8
0
  6
CONTINUOUS
 10
4.598880
 20
5.333680
  0
VERTEX
  8
0
  6
CONTINUOUS
 10
5.244800
 20
5.705040
  0
VERTEX
  8
0
  6
CONTINUOUS
 10
5.283080
 20
5.676440
  0
VERTEX
  8
0
  6
CONTINUOUS
 10
4.637160
 20
5.305080
  0
VERTEX
  8
0
  6
CONTINUOUS
 10
4.598880
 20
5.333680
  0
SEQEND
  8
0
  0
SOLID
  8
0
 62
    15
 10
4.127200
 20
5.380320
 11
4.773120
 21
5.751240
 12
4.172960
 22
5.397040
 13
4.818880
 23
5.768400
  0
POLYLINE
  8
0
  6
CONTINUOUS
 66
     1
 40
0.000000
 41
0.000000
  0
VERTEX
  8
0
  6
CONTINUOUS
 10
4.127200
 20
5.380320
  0
VERTEX
  8
0
  6
CONTINUOUS
 10
4.773120
 20
5.751240
  0
VERTEX
  8
0
  6
CONTINUOUS
 10
4.818880
 20
5.768400
  0
VERTEX
  8
0
  6
CONTINUOUS
 10
4.172960
 20
5.397040
  0
VERTEX
  8
0
  6
CONTINUOUS
 10
4.127200
 20
5.380320
  0
SEQEND
  8
0
  0
SOLID
  8
0
 62
    15
 10
4.172960
 20
5.397040
 11
4.818880
 21
5.768400
 12
4.220920
 22
5.409360
 13
4.866840
 23
5.780720
  0
POLYLINE
  8
0
  6
CONTINUOUS
 66
     1
 40
0.000000
 41
0.000000
  0
VERTEX
  8
0
  6
CONTINUOUS
 10
4.172960
 20
5.397040
  0
VERTEX
  8
0
  6
CONTINUOUS
 10
4.818880
 20
5.768400
  0
VERTEX
  8
0
  6
CONTINUOUS
 10
4.866840
 20
5.780720
  0
VERTEX
  8
0
  6
CONTINUOUS
 10
4.220920
 20
5.409360
  0
VERTEX
  8
0
  6
CONTINUOUS
 10
4.172960
 20
5.397040
  0
SEQEND
  8
0
  0
SOLID
  8
0
 62
    15
 10
4.220920
 20
5.409360
 11
4.866840
 21
5.780720
 12
4.270640
 22
5.416840
 13
4.916120
 23
5.788200
  0
POLYLINE
  8
0
  6
CONTINUOUS
 66
     1
 40
0.000000
 41
0.000000
  0
VERTEX
  8
0
  6
CONTINUOUS
 10
4.220920
 20
5.409360
  0
VERTEX
  8
0
  6
CONTINUOUS
 10
4.866840
 20
5.780720
  0
VERTEX
  8
0
  6
CONTINUOUS
 10
4.916120
 20
5.788200
  0
VERTEX
  8
0
  6
CONTINUOUS
 10
4.270640
 20
5.416840
  0
VERTEX
  8
0
  6
CONTINUOUS
 10
4.220920
 20
5.409360
  0
SEQEND
  8
0
  0
SOLID
  8
0
 62
    15
 10
4.270640
 20
5.416840
 11
4.916120
 21
5.788200
 12
4.321240
 22
5.419480
 13
4.967160
 23
5.790840
  0
POLYLINE
  8
0
  6
CONTINUOUS
 66
     1
 40
0.000000
 41
0.000000
  0
VERTEX
  8
0
  6
CONTINUOUS
 10
4.270640
 20
5.416840
  0
VERTEX
  8
0
  6
CONTINUOUS
 10
4.916120
 20
5.788200
  0
VERTEX
  8
0
  6
CONTINUOUS
 10
4.967160
 20
5.790840
  0
VERTEX
  8
0
  6
CONTINUOUS
 10
4.321240
 20
5.419480
  0
VERTEX
  8
0
  6
CONTINUOUS
 10
4.270640
 20
5.416840
  0
SEQEND
  8
0
  0
SOLID
  8
0
 62
    15
 10
4.321240
 20
5.419480
 11
4.967160
 21
5.790840
 12
4.372280
 22
5.416840
 13
5.017760
 23
5.788200
  0
POLYLINE
  8
0
  6
CONTINUOUS
 66
     1
 40
0.000000
 41
0.000000
  0
VERTEX
  8
0
  6
CONTINUOUS
 10
4.321240
 20
5.419480
  0
VERTEX
  8
0
  6
CONTINUOUS
 10
4.967160
 20
5.790840
  0
VERTEX
  8
0
  6
CONTINUOUS
 10
5.017760
 20
5.788200
  0
VERTEX
  8
0
  6
CONTINUOUS
 10
4.372280
 20
5.416840
  0
VERTEX
  8
0
  6
CONTINUOUS
 10
4.321240
 20
5.419480
  0
SEQEND
  8
0
  0
SOLID
  8
0
 62
    15
 10
4.372280
 20
5.416840
 11
5.017760
 21
5.788200
 12
4.421560
 22
5.409360
 13
5.067480
 23
5.780720
  0
POLYLINE
  8
0
  6
CONTINUOUS
 66
     1
 40
0.000000
 41
0.000000
  0
VERTEX
  8
0
  6
CONTINUOUS
 10
4.372280
 20
5.416840
  0
VERTEX
  8
0
  6
CONTINUOUS
 10
5.017760
 20
5.788200
  0
VERTEX
  8
0
  6
CONTINUOUS
 10
5.067480
 20
5.780720
  0
VERTEX
  8
0
  6
CONTINUOUS
 10
4.421560
 20
5.409360
  0
VERTEX
  8
0
  6
CONTINUOUS
 10
4.372280
 20
5.416840
  0
SEQEND
  8
0
  0
SOLID
  8
0
 62
    15
 10
4.421560
 20
5.409360
 11
5.067480
 21
5.780720
 12
4.469080
 22
5.397040
 13
5.115000
 23
5.768400
  0
POLYLINE
  8
0
  6
CONTINUOUS
 66
     1
 40
0.000000
 41
0.000000
  0
VERTEX
  8
0
  6
CONTINUOUS
 10
4.421560
 20
5.409360
  0
VERTEX
  8
0
  6
CONTINUOUS
 10
5.067480
 20
5.780720
  0
VERTEX
  8
0
  6
CONTINUOUS
 10
5.115000
 20
5.768400
  0
VERTEX
  8
0
  6
CONTINUOUS
 10
4.469080
 20
5.397040
  0
VERTEX
  8
0
  6
CONTINUOUS
 10
4.421560
 20
5.409360
  0
SEQEND
  8
0
  0
SOLID
  8
0
 62
    15
 10
4.469080
 20
5.397040
 11
5.115000
 21
5.768400
 12
4.514840
 22
5.380320
 13
5.160320
 23
5.751240
  0
POLYLINE
  8
0
  6
CONTINUOUS
 66
     1
 40
0.000000
 41
0.000000
  0
VERTEX
  8
0
  6
CONTINUOUS
 10
4.469080
 20
5.397040
  0
VERTEX
  8
0
  6
CONTINUOUS
 10
5.115000
 20
5.768400
  0
VERTEX
  8
0
  6
CONTINUOUS
 10
5.160320
 20
5.751240
  0
VERTEX
  8
0
  6
CONTINUOUS
 10
4.514840
 20
5.380320
  0
VERTEX
  8
0
  6
CONTINUOUS
 10
4.469080
 20
5.397040
  0
SEQEND
  8
0
  0
SOLID
  8
0
 62
     7
 10
4.514840
 20
5.380320
 11
5.160320
 21
5.751240
 12
4.557960
 22
5.358760
 13
5.203880
 23
5.730120
  0
POLYLINE
  8
0
  6
CONTINUOUS
 66
     1
 40
0.000000
 41
0.000000
  0
VERTEX
  8
0
  6
CONTINUOUS
 10
4.514840
 20
5.380320
  0
VERTEX
  8
0
  6
CONTINUOUS
 10
5.160320
 20
5.751240
  0
VERTEX
  8
0
  6
CONTINUOUS
 10
5.203880
 20
5.730120
  0
VERTEX
  8
0
  6
CONTINUOUS
 10
4.557960
 20
5.358760
  0
VERTEX
  8
0
  6
CONTINUOUS
 10
4.514840
 20
5.380320
  0
SEQEND
  8
0
  0
SOLID
  8
0
 62
     7
 10
4.557960
 20
5.358760
 11
5.203880
 21
5.730120
 12
4.598880
 22
5.333680
 13
5.244800
 23
5.705040
  0
POLYLINE
  8
0
  6
CONTINUOUS
 66
     1
 40
0.000000
 41
0.000000
  0
VERTEX
  8
0
  6
CONTINUOUS
 10
4.557960
 20
5.358760
  0
VERTEX
  8
0
  6
CONTINUOUS
 10
5.203880
 20
5.730120
  0
VERTEX
  8
0
  6
CONTINUOUS
 10
5.244800
 20
5.705040
  0
VERTEX
  8
0
  6
CONTINUOUS
 10
4.598880
 20
5.333680
  0
VERTEX
  8
0
  6
CONTINUOUS
 10
4.557960
 20
5.358760
  0
SEQEND
  8
0
  0
SOLID
  8
0
 62
    15
 10
4.083640
 20
5.358760
 11
4.729560
 21
5.730120
 12
4.127200
 22
5.380320
 13
4.773120
 23
5.751240
  0
POLYLINE
  8
0
  6
CONTINUOUS
 66
     1
 40
0.000000
 41
0.000000
  0
VERTEX
  8
0
  6
CONTINUOUS
 10
4.083640
 20
5.358760
  0
VERTEX
  8
0
  6
CONTINUOUS
 10
4.729560
 20
5.730120
  0
VERTEX
  8
0
  6
CONTINUOUS
 10
4.773120
 20
5.751240
  0
VERTEX
  8
0
  6
CONTINUOUS
 10
4.127200
 20
5.380320
  0
VERTEX
  8
0
  6
CONTINUOUS
 10
4.083640
 20
5.358760
  0
SEQEND
  8
0
  0
SOLID
  8
0
 62
     7
 10
4.637160
 20
5.305080
 11
5.283080
 21
5.676440
 12
4.672360
 22
5.272520
 13
5.318280
 23
5.643880
  0
POLYLINE
  8
0
  6
CONTINUOUS
 66
     1
 40
0.000000
 41
0.000000
  0
VERTEX
  8
0
  6
CONTINUOUS
 10
4.637160
 20
5.305080
  0
VERTEX
  8
0
  6
CONTINUOUS
 10
5.283080
 20
5.676440
  0
VERTEX
  8
0
  6
CONTINUOUS
 10
5.318280
 20
5.643880
  0
VERTEX
  8
0
  6
CONTINUOUS
 10
4.672360
 20
5.272520
  0
VERTEX
  8
0
  6
CONTINUOUS
 10
4.637160
 20
5.305080
  0
SEQEND
  8
0
  0
SOLID
  8
0
 62
     7
 10
4.672360
 20
5.272520
 11
5.318280
 21
5.643880
 12
4.704040
 22
5.236880
 13
5.349960
 23
5.608240
  0
POLYLINE
  8
0
  6
CONTINUOUS
 66
     1
 40
0.000000
 41
0.000000
  0
VERTEX
  8
0
  6
CONTINUOUS
 10
4.672360
 20
5.272520
  0
VERTEX
  8
0
  6
CONTINUOUS
 10
5.318280
 20
5.643880
  0
VERTEX
  8
0
  6
CONTINUOUS
 10
5.349960
 20
5.608240
  0
VERTEX
  8
0
  6
CONTINUOUS
 10
4.704040
 20
5.236880
  0
VERTEX
  8
0
  6
CONTINUOUS
 10
4.672360
 20
5.272520
  0
SEQEND
  8
0
  0
SOLID
  8
0
 62
     7
 10
4.704040
 20
5.236880
 11
5.349960
 21
5.608240
 12
4.732640
 22
5.198600
 13
5.378560
 23
5.569960
  0
POLYLINE
  8
0
  6
CONTINUOUS
 66
     1
 40
0.000000
 41
0.000000
  0
VERTEX
  8
0
  6
CONTINUOUS
 10
4.704040
 20
5.236880
  0
VERTEX
  8
0
  6
CONTINUOUS
 10
5.349960
 20
5.608240
  0
VERTEX
  8
0
  6
CONTINUOUS
 10
5.378560
 20
5.569960
  0
VERTEX
  8
0
  6
CONTINUOUS
 10
4.732640
 20
5.198600
  0
VERTEX
  8
0
  6
CONTINUOUS
 10
4.704040
 20
5.236880
  0
SEQEND
  8
0
  0
SOLID
  8
0
 62
     7
 10
4.732640
 20
5.198600
 11
5.378560
 21
5.569960
 12
4.757720
 22
5.157240
 13
5.403200
 23
5.528600
  0
POLYLINE
  8
0
  6
CONTINUOUS
 66
     1
 40
0.000000
 41
0.000000
  0
VERTEX
  8
0
  6
CONTINUOUS
 10
4.732640
 20
5.198600
  0
VERTEX
  8
0
  6
CONTINUOUS
 10
5.378560
 20
5.569960
  0
VERTEX
  8
0
  6
CONTINUOUS
 10
5.403200
 20
5.528600
  0
VERTEX
  8
0
  6
CONTINUOUS
 10
4.757720
 20
5.157240
  0
VERTEX
  8
0
  6
CONTINUOUS
 10
4.732640
 20
5.198600
  0
SEQEND
  8
0
  0
SOLID
  8
0
 62
     7
 10
4.757720
 20
5.157240
 11
5.403200
 21
5.528600
 12
4.778400
 22
5.113680
 13
5.424320
 23
5.485040
  0
POLYLINE
  8
0
  6
CONTINUOUS
 66
     1
 40
0.000000
 41
0.000000
  0
VERTEX
  8
0
  6
CONTINUOUS
 10
4.757720
 20
5.157240
  0
VERTEX
  8
0
  6
CONTINUOUS
 10
5.403200
 20
5.528600
  0
VERTEX
  8
0
  6
CONTINUOUS
 10
5.424320
 20
5.485040
  0
VERTEX
  8
0
  6
CONTINUOUS
 10
4.778400
 20
5.113680
  0
VERTEX
  8
0
  6
CONTINUOUS
 10
4.757720
 20
5.157240
  0
SEQEND
  8
0
  0
SOLID
  8
0
 62
     7
 10
4.778400
 20
5.113680
 11
5.424320
 21
5.485040
 12
4.795120
 22
5.067920
 13
5.441040
 23
5.439280
  0
POLYLINE
  8
0
  6
CONTINUOUS
 66
     1
 40
0.000000
 41
0.000000
  0
VERTEX
  8
0
  6
CONTINUOUS
 10
4.778400
 20
5.113680
  0
VERTEX
  8
0
  6
CONTINUOUS
 10
5.424320
 20
5.485040
  0
VERTEX
  8
0
  6
CONTINUOUS
 10
5.441040
 20
5.439280
  0
VERTEX
  8
0
  6
CONTINUOUS
 10
4.795120
 20
5.067920
  0
VERTEX
  8
0
  6
CONTINUOUS
 10
4.778400
 20
5.113680
  0
SEQEND
  8
0
  0
SOLID
  8
0
 62
    15
 10
4.795120
 20
5.067920
 11
5.441040
 21
5.439280
 12
4.807440
 22
5.019960
 13
5.452920
 23
5.391320
  0
POLYLINE
  8
0
  6
CONTINUOUS
 66
     1
 40
0.000000
 41
0.000000
  0
VERTEX
  8
0
  6
CONTINUOUS
 10
4.795120
 20
5.067920
  0
VERTEX
  8
0
  6
CONTINUOUS
 10
5.441040
 20
5.439280
  0
VERTEX
  8
0
  6
CONTINUOUS
 10
5.452920
 20
5.391320
  0
VERTEX
  8
0
  6
CONTINUOUS
 10
4.807440
 20
5.019960
  0
VERTEX
  8
0
  6
CONTINUOUS
 10
4.795120
 20
5.067920
  0
SEQEND
  8
0
  0
SOLID
  8
0
 62
    15
 10
4.807440
 20
5.019960
 11
5.452920
 21
5.391320
 12
4.814920
 22
4.970680
 13
5.460400
 23
5.341600
  0
POLYLINE
  8
0
  6
CONTINUOUS
 66
     1
 40
0.000000
 41
0.000000
  0
VERTEX
  8
0
  6
CONTINUOUS
 10
4.807440
 20
5.019960
  0
VERTEX
  8
0
  6
CONTINUOUS
 10
5.452920
 20
5.391320
  0
VERTEX
  8
0
  6
CONTINUOUS
 10
5.460400
 20
5.341600
  0
VERTEX
  8
0
  6
CONTINUOUS
 10
4.814920
 20
4.970680
  0
VERTEX
  8
0
  6
CONTINUOUS
 10
4.807440
 20
5.019960
  0
SEQEND
  8
0
  0
SOLID
  8
0
 62
    15
 10
4.814920
 20
4.970680
 11
5.460400
 21
5.341600
 12
4.817120
 22
4.919640
 13
5.463040
 23
5.291000
  0
POLYLINE
  8
0
  6
CONTINUOUS
 66
     1
 40
0.000000
 41
0.000000
  0
VERTEX
  8
0
  6
CONTINUOUS
 10
4.814920
 20
4.970680
  0
VERTEX
  8
0
  6
CONTINUOUS
 10
5.460400
 20
5.341600
  0
VERTEX
  8
0
  6
CONTINUOUS
 10
5.463040
 20
5.291000
  0
VERTEX
  8
0
  6
CONTINUOUS
 10
4.817120
 20
4.919640
  0
VERTEX
  8
0
  6
CONTINUOUS
 10
4.814920
 20
4.970680
  0
SEQEND
  8
0
  0
SOLID
  8
0
 62
     7
 10
4.817120
 20
4.919640
 11
5.463040
 21
5.291000
 12
4.818440
 22
4.918320
 13
5.464360
 23
5.289680
  0
POLYLINE
  8
0
  6
CONTINUOUS
 66
     1
 40
0.000000
 41
0.000000
  0
VERTEX
  8
0
  6
CONTINUOUS
 10
4.817120
 20
4.919640
  0
VERTEX
  8
0
  6
CONTINUOUS
 10
5.463040
 20
5.291000
  0
VERTEX
  8
0
  6
CONTINUOUS
 10
5.464360
 20
5.289680
  0
VERTEX
  8
0
  6
CONTINUOUS
 10
4.818440
 20
4.918320
  0
VERTEX
  8
0
  6
CONTINUOUS
 10
4.817120
 20
4.919640
  0
SEQEND
  8
0
  0
POLYLINE
  8
0
  6
CONTINUOUS
 66
     1
 40
0.000000
 41
0.000000
  0
VERTEX
  8
0
  6
CONTINUOUS
 10
3.821400
 20
4.919640
  0
VERTEX
  8
0
  6
CONTINUOUS
 10
3.824040
 20
4.970680
  0
VERTEX
  8
0
  6
CONTINUOUS
 10
3.831520
 20
5.019960
  0
VERTEX
  8
0
  6
CONTINUOUS
 10
3.843840
 20
5.067920
  0
VERTEX
  8
0
  6
CONTINUOUS
 10
3.861000
 20
5.113680
  0
VERTEX
  8
0
  6
CONTINUOUS
 10
3.882120
 20
5.157240
  0
VERTEX
  8
0
  6
CONTINUOUS
 10
3.907200
 20
5.198600
  0
VERTEX
  8
0
  6
CONTINUOUS
 10
3.935800
 20
5.236880
  0
VERTEX
  8
0
  6
CONTINUOUS
 10
3.968360
 20
5.272520
  0
VERTEX
  8
0
  6
CONTINUOUS
 10
4.004000
 20
5.305080
  0
VERTEX
  8
0
  6
CONTINUOUS
 10
4.042280
 20
5.333680
  0
VERTEX
  8
0
  6
CONTINUOUS
 10
4.083640
 20
5.358760
  0
VERTEX
  8
0
  6
CONTINUOUS
 10
4.127200
 20
5.380320
  0
VERTEX
  8
0
  6
CONTINUOUS
 10
4.172960
 20
5.397040
  0
VERTEX
  8
0
  6
CONTINUOUS
 10
4.220920
 20
5.409360
  0
VERTEX
  8
0
  6
CONTINUOUS
 10
4.270640
 20
5.416840
  0
VERTEX
  8
0
  6
CONTINUOUS
 10
4.321240
 20
5.419480
  0
VERTEX
  8
0
  6
CONTINUOUS
 10
4.372280
 20
5.416840
  0
VERTEX
  8
0
  6
CONTINUOUS
 10
4.421560
 20
5.409360
  0
VERTEX
  8
0
  6
CONTINUOUS
 10
4.469080
 20
5.397040
  0
VERTEX
  8
0
  6
CONTINUOUS
 10
4.514840
 20
5.380320
  0
VERTEX
  8
0
  6
CONTINUOUS
 10
4.557960
 20
5.358760
  0
VERTEX
  8
0
  6
CONTINUOUS
 10
4.598880
 20
5.333680
  0
VERTEX
  8
0
  6
CONTINUOUS
 10
4.637160
 20
5.305080
  0
VERTEX
  8
0
  6
CONTINUOUS
 10
4.672360
 20
5.272520
  0
VERTEX
  8
0
  6
CONTINUOUS
 10
4.704040
 20
5.236880
  0
VERTEX
  8
0
  6
CONTINUOUS
 10
4.732640
 20
5.198600
  0
VERTEX
  8
0
  6
CONTINUOUS
 10
4.757720
 20
5.157240
  0
VERTEX
  8
0
  6
CONTINUOUS
 10
4.778400
 20
5.113680
  0
VERTEX
  8
0
  6
CONTINUOUS
 10
4.795120
 20
5.067920
  0
VERTEX
  8
0
  6
CONTINUOUS
 10
4.807440
 20
5.019960
  0
VERTEX
  8
0
  6
CONTINUOUS
 10
4.814920
 20
4.970680
  0
VERTEX
  8
0
  6
CONTINUOUS
 10
4.817120
 20
4.919640
  0
VERTEX
  8
0
  6
CONTINUOUS
 10
4.818440
 20
4.918320
  0
VERTEX
  8
0
  6
CONTINUOUS
 10
3.821400
 20
4.918320
  0
VERTEX
  8
0
  6
CONTINUOUS
 10
3.821400
 20
4.919640
  0
SEQEND
  8
0
  0
TEXT
  8
0
 10
4.106520
 20
4.686440
 40
0.138092
  1
BA  115 & 319
 41
1.000000
  7
SN0
 71
     0
 72
     5
 11
5.175822
 21
4.686440
  0
TEXT
  8
0
 10
4.566320
 20
4.495040
 40
0.138092
  1
1"
 41
1.000000
  7
SN0
 71
     0
 72
     5
 11
4.717568
 21
4.495040
  0
POLYLINE
  8
0
  6
CONTINUOUS
 66
     1
 40
0.014080
 41
0.014080
  0
VERTEX
  8
0
  6
CONTINUOUS
 10
3.124440
 20
6.039880
  0
VERTEX
  8
0
  6
CONTINUOUS
 10
4.121480
 20
6.039880
  0
VERTEX
  8
0
  6
CONTINUOUS
 10
4.120160
 20
6.041200
  0
VERTEX
  8
0
  6
CONTINUOUS
 10
4.119720
 20
6.066720
  0
VERTEX
  8
0
  6
CONTINUOUS
 10
4.114440
 20
6.116880
  0
VERTEX
  8
0
  6
CONTINUOUS
 10
4.104760
 20
6.165720
  0
VERTEX
  8
0
  6
CONTINUOUS
 10
4.090240
 20
6.212360
  0
VERTEX
  8
0
  6
CONTINUOUS
 10
4.071320
 20
6.257240
  0
VERTEX
  8
0
  6
CONTINUOUS
 10
4.048440
 20
6.299920
  0
VERTEX
  8
0
  6
CONTINUOUS
 10
4.022040
 20
6.339520
  0
VERTEX
  8
0
  6
CONTINUOUS
 10
3.991680
 20
6.376480
  0
VERTEX
  8
0
  6
CONTINUOUS
 10
3.957800
 20
6.410800
  0
VERTEX
  8
0
  6
CONTINUOUS
 10
3.921280
 20
6.441160
  0
VERTEX
  8
0
  6
CONTINUOUS
 10
3.881680
 20
6.468440
  0
VERTEX
  8
0
  6
CONTINUOUS
 10
3.839440
 20
6.491320
  0
VERTEX
  8
0
  6
CONTINUOUS
 10
3.795000
 20
6.510680
  0
VERTEX
  8
0
  6
CONTINUOUS
 10
3.748360
 20
6.525200
  0
VERTEX
  8
0
  6
CONTINUOUS
 10
3.699960
 20
6.535320
  0
VERTEX
  8
0
  6
CONTINUOUS
 10
3.649800
 20
6.540600
  0
VERTEX
  8
0
  6
CONTINUOUS
 10
3.598760
 20
6.540600
  0
VERTEX
  8
0
  6
CONTINUOUS
 10
3.548600
 20
6.535320
  0
VERTEX
  8
0
  6
CONTINUOUS
 10
3.499760
 20
6.525200
  0
VERTEX
  8
0
  6
CONTINUOUS
 10
3.453120
 20
6.510680
  0
VERTEX
  8
0
  6
CONTINUOUS
 10
3.408240
 20
6.491320
  0
VERTEX
  8
0
  6
CONTINUOUS
 10
3.365560
 20
6.468440
  0
VERTEX
  8
0
  6
CONTINUOUS
 10
3.325960
 20
6.441160
  0
VERTEX
  8
0
  6
CONTINUOUS
 10
3.289000
 20
6.410800
  0
VERTEX
  8
0
  6
CONTINUOUS
 10
3.254680
 20
6.376480
  0
VERTEX
  8
0
  6
CONTINUOUS
 10
3.224320
 20
6.339520
  0
VERTEX
  8
0
  6
CONTINUOUS
 10
3.197040
 20
6.299920
  0
VERTEX
  8
0
  6
CONTINUOUS
 10
3.174160
 20
6.257240
  0
VERTEX
  8
0
  6
CONTINUOUS
 10
3.154800
 20
6.212360
  0
VERTEX
  8
0
  6
CONTINUOUS
 10
3.140280
 20
6.165720
  0
VERTEX
  8
0
  6
CONTINUOUS
 10
3.130160
 20
6.116880
  0
VERTEX
  8
0
  6
CONTINUOUS
 10
3.124880
 20
6.066720
  0
VERTEX
  8
0
  6
CONTINUOUS
 10
3.124440
 20
6.039880
  0
SEQEND
  8
0
  0
TEXT
  8
0
 10
3.100680
 20
5.836160
 40
0.138092
  1
BA  115 & 319
 41
1.000000
  7
SN0
 71
     0
 72
     5
 11
4.169982
 21
5.836160
  0
TEXT
  8
0
 10
3.560480
 20
5.644320
 40
0.138092
  1
1"
 41
1.000000
  7
SN0
 71
     0
 72
     5
 11
3.711728
 21
5.644320
  0
ENDSEC
  0
EOF
