  0
SECTION
  2
HEADER
  9
$ACADVER
  1
AC1006
  9
$EXTMIN
 10
2.849880
 20
3.956920
  9
$EXTMAX
 10
6.827040
 20
7.034280
  9
$LTSCALE
 40
0.044000
  9
$PDMODE
 70
    35
  9
$PDSIZE
 40
0.035200
  0
ENDSEC
  0
SECTION
  2
TABLES
  0
TABLE
  2
LTYPE
 70
     9
  0
LTYPE
  2
CONTINUOUS
 70
    64
  3
Solid line
 72
    65
 73
     0
 40
0.000000
  0
LTYPE
  2
DASHED
 70
    64
  3
__ __ __ __ __ __ __ __ __ __ __ __ __ __ __
 72
    65
 73
     2
 40
0.000330
 49
0.000220
 49
-0.000110
  0
LTYPE
  2
HIDDEN
 70
    64
  3
 _ _ _ _ _ _ _ _ _ _ _ _ _ _ _ _ _ _ _ _ _ _
 72
    65
 73
     2
 40
0.000165
 49
0.000110
 49
-0.000055
  0
LTYPE
  2
CENTER
 70
    64
  3
____ _ ____ _ ____ _ ____ _ ____ _ ____ _ ____
 72
    65
 73
     4
 40
0.000880
 49
0.000550
 49
-0.000110
 49
0.000110
 49
-0.000110
  0
LTYPE
  2
PHANTOM
 70
    64
  3
_____ _ _ _____ _ _ _____ _ _ _____ _ _ ____
 72
    65
 73
     6
 40
0.001100
 49
0.000550
 49
-0.000110
 49
0.000110
 49
-0.000110
 49
0.000110
 49
-0.000110
  0
LTYPE
  2
DOT
 70
    64
  3
...............................................
 72
    65
 73
     2
 40
0.000110
 49
0.000000
 49
-0.000110
  0
LTYPE
  2
DASHDOT
 70
    64
  3
__ . __ . __ . __ . __ . __ . __ . __ . __ . __
 72
    65
 73
     4
 40
0.000440
 49
0.000220
 49
-0.000110
 49
0.000000
 49
-0.000110
  0
LTYPE
  2
BORDER
 70
    64
  3
__ __ . __ __ . __ __ . __ __ . __ __ . __ __
 72
    65
 73
     6
 40
0.000770
 49
0.000220
 49
-0.000110
 49
0.000220
 49
-0.000110
 49
0.000000
 49
-0.000110
  0
LTYPE
  2
DIVIDE
 70
    64
  3
__ . . __ . . __ . . __ . . __ . . __ . . __
 72
    65
 73
     6
 40
0.000550
 49
0.000220
 49
-0.000110
 49
0.000000
 49
-0.000110
 49
0.000000
 49
-0.000110
  0
LTYPE
  2
DOTDOT
 70
    64
  3
 . .  . .  . .  . .  . .  . . 
 72
    65
 73
     5
 40
0.000242
 49
-0.000110
 49
0.000000
 49
-0.000110
 49
0.000000
 49
-0.000110
  0
ENDTAB
  0
TABLE
  2
STYLE
 70
     2
  0
STYLE
 70
     0
  2
SN0
 40
0.000000
 41
0.000440
 50
0.000000
 71
     0
 42
0.000000
  3
ROMAND
  0
STYLE
 70
    68
  2
SV0
 40
0.000000
 41
0.000440
 50
0.000000
 71
     0
 42
0.000000
  3
ROMAND
  0
ENDTAB
  0
TABLE
  2
LAYER
 70
     3
  0
LAYER
  2
FOREGROUND
 70
    64
 62
     7
  6
CONTINUOUS
  0
LAYER
  2
BACKGROUND
 70
    65
 62
    -7
  6
CONTINUOUS
  0
LAYER
  2
0
 70
    64
 62
     7
  6
CONTINUOUS
  0
ENDTAB
  0
ENDSEC
  0
SECTION
  2
ENTITIES
  0
POLYLINE
  8
FOREGROUND
  6
CONTINUOUS
 66
     1
 40
0.000000
 41
0.000000
  0
VERTEX
  8
FOREGROUND
  6
CONTINUOUS
 10
0.000000
 20
10.991200
  0
VERTEX
  8
FOREGROUND
  6
CONTINUOUS
 10
8.499920
 20
10.991200
  0
VERTEX
  8
FOREGROUND
  6
CONTINUOUS
 10
8.499920
 20
-0.008800
  0
VERTEX
  8
FOREGROUND
  6
CONTINUOUS
 10
0.000000
 20
-0.008800
  0
VERTEX
  8
FOREGROUND
  6
CONTINUOUS
 10
0.000000
 20
10.991200
  0
SEQEND
  8
0
  0
POLYLINE
  8
FOREGROUND
  6
CONTINUOUS
 66
     1
 40
0.000000
 41
0.000000
  0
VERTEX
  8
FOREGROUND
  6
CONTINUOUS
 10
0.000000
 20
10.991200
  0
VERTEX
  8
FOREGROUND
  6
CONTINUOUS
 10
8.499920
 20
10.991200
  0
VERTEX
  8
FOREGROUND
  6
CONTINUOUS
 10
8.499920
 20
-0.008800
  0
VERTEX
  8
FOREGROUND
  6
CONTINUOUS
 10
0.000000
 20
-0.008800
  0
VERTEX
  8
FOREGROUND
  6
CONTINUOUS
 10
0.000000
 20
10.991200
  0
SEQEND
  8
0
  0
SOLID
  8
0
 62
    15
 10
3.106840
 20
5.748160
 11
3.745280
 21
6.121280
 12
3.078680
 22
5.723960
 13
3.717560
 23
6.097080
  0
POLYLINE
  8
0
  6
CONTINUOUS
 66
     1
 40
0.000000
 41
0.000000
  0
VERTEX
  8
0
  6
CONTINUOUS
 10
3.106840
 20
5.748160
  0
VERTEX
  8
0
  6
CONTINUOUS
 10
3.745280
 20
6.121280
  0
VERTEX
  8
0
  6
CONTINUOUS
 10
3.717560
 20
6.097080
  0
VERTEX
  8
0
  6
CONTINUOUS
 10
3.078680
 20
5.723960
  0
VERTEX
  8
0
  6
CONTINUOUS
 10
3.106840
 20
5.748160
  0
SEQEND
  8
0
  0
SOLID
  8
0
 62
    15
 10
2.900480
 20
6.656320
 11
3.539360
 21
7.029880
 12
2.935240
 22
6.646640
 13
3.573680
 23
7.019760
  0
POLYLINE
  8
0
  6
CONTINUOUS
 66
     1
 40
0.000000
 41
0.000000
  0
VERTEX
  8
0
  6
CONTINUOUS
 10
2.900480
 20
6.656320
  0
VERTEX
  8
0
  6
CONTINUOUS
 10
3.539360
 20
7.029880
  0
VERTEX
  8
0
  6
CONTINUOUS
 10
3.573680
 20
7.019760
  0
VERTEX
  8
0
  6
CONTINUOUS
 10
2.935240
 20
6.646640
  0
VERTEX
  8
0
  6
CONTINUOUS
 10
2.900480
 20
6.656320
  0
SEQEND
  8
0
  0
SOLID
  8
0
 62
    15
 10
2.935240
 20
6.646640
 11
3.573680
 21
7.019760
 12
2.961640
 22
6.631680
 13
3.600520
 23
7.004800
  0
POLYLINE
  8
0
  6
CONTINUOUS
 66
     1
 40
0.000000
 41
0.000000
  0
VERTEX
  8
0
  6
CONTINUOUS
 10
2.935240
 20
6.646640
  0
VERTEX
  8
0
  6
CONTINUOUS
 10
3.573680
 20
7.019760
  0
VERTEX
  8
0
  6
CONTINUOUS
 10
3.600520
 20
7.004800
  0
VERTEX
  8
0
  6
CONTINUOUS
 10
2.961640
 20
6.631680
  0
VERTEX
  8
0
  6
CONTINUOUS
 10
2.935240
 20
6.646640
  0
SEQEND
  8
0
  0
SOLID
  8
0
 62
    15
 10
2.961640
 20
6.631680
 11
3.600520
 21
7.004800
 12
2.981000
 22
6.612320
 13
3.619880
 23
6.985880
  0
POLYLINE
  8
0
  6
CONTINUOUS
 66
     1
 40
0.000000
 41
0.000000
  0
VERTEX
  8
0
  6
CONTINUOUS
 10
2.961640
 20
6.631680
  0
VERTEX
  8
0
  6
CONTINUOUS
 10
3.600520
 20
7.004800
  0
VERTEX
  8
0
  6
CONTINUOUS
 10
3.619880
 20
6.985880
  0
VERTEX
  8
0
  6
CONTINUOUS
 10
2.981000
 20
6.612320
  0
VERTEX
  8
0
  6
CONTINUOUS
 10
2.961640
 20
6.631680
  0
SEQEND
  8
0
  0
SOLID
  8
0
 62
    15
 10
2.981000
 20
6.612320
 11
3.619880
 21
6.985880
 12
2.995080
 22
6.589880
 13
3.633960
 23
6.963000
  0
POLYLINE
  8
0
  6
CONTINUOUS
 66
     1
 40
0.000000
 41
0.000000
  0
VERTEX
  8
0
  6
CONTINUOUS
 10
2.981000
 20
6.612320
  0
VERTEX
  8
0
  6
CONTINUOUS
 10
3.619880
 20
6.985880
  0
VERTEX
  8
0
  6
CONTINUOUS
 10
3.633960
 20
6.963000
  0
VERTEX
  8
0
  6
CONTINUOUS
 10
2.995080
 20
6.589880
  0
VERTEX
  8
0
  6
CONTINUOUS
 10
2.981000
 20
6.612320
  0
SEQEND
  8
0
  0
SOLID
  8
0
 62
    15
 10
2.995080
 20
6.589880
 11
3.633960
 21
6.963000
 12
3.004760
 22
6.564800
 13
3.643640
 23
6.937920
  0
POLYLINE
  8
0
  6
CONTINUOUS
 66
     1
 40
0.000000
 41
0.000000
  0
VERTEX
  8
0
  6
CONTINUOUS
 10
2.995080
 20
6.589880
  0
VERTEX
  8
0
  6
CONTINUOUS
 10
3.633960
 20
6.963000
  0
VERTEX
  8
0
  6
CONTINUOUS
 10
3.643640
 20
6.937920
  0
VERTEX
  8
0
  6
CONTINUOUS
 10
3.004760
 20
6.564800
  0
VERTEX
  8
0
  6
CONTINUOUS
 10
2.995080
 20
6.589880
  0
SEQEND
  8
0
  0
SOLID
  8
0
 62
    15
 10
3.004760
 20
6.564800
 11
3.643640
 21
6.937920
 12
3.012240
 22
6.537960
 13
3.651120
 23
6.911080
  0
POLYLINE
  8
0
  6
CONTINUOUS
 66
     1
 40
0.000000
 41
0.000000
  0
VERTEX
  8
0
  6
CONTINUOUS
 10
3.004760
 20
6.564800
  0
VERTEX
  8
0
  6
CONTINUOUS
 10
3.643640
 20
6.937920
  0
VERTEX
  8
0
  6
CONTINUOUS
 10
3.651120
 20
6.911080
  0
VERTEX
  8
0
  6
CONTINUOUS
 10
3.012240
 20
6.537960
  0
VERTEX
  8
0
  6
CONTINUOUS
 10
3.004760
 20
6.564800
  0
SEQEND
  8
0
  0
SOLID
  8
0
 62
    15
 10
3.012240
 20
6.537960
 11
3.651120
 21
6.911080
 12
3.014880
 22
6.523880
 13
3.653760
 23
6.897000
  0
POLYLINE
  8
0
  6
CONTINUOUS
 66
     1
 40
0.000000
 41
0.000000
  0
VERTEX
  8
0
  6
CONTINUOUS
 10
3.012240
 20
6.537960
  0
VERTEX
  8
0
  6
CONTINUOUS
 10
3.651120
 20
6.911080
  0
VERTEX
  8
0
  6
CONTINUOUS
 10
3.653760
 20
6.897000
  0
VERTEX
  8
0
  6
CONTINUOUS
 10
3.014880
 20
6.523880
  0
VERTEX
  8
0
  6
CONTINUOUS
 10
3.012240
 20
6.537960
  0
SEQEND
  8
0
  0
SOLID
  8
0
 62
    15
 10
3.014880
 20
6.523880
 11
3.653760
 21
6.897000
 12
3.017960
 22
6.509800
 13
3.656840
 23
6.882920
  0
POLYLINE
  8
0
  6
CONTINUOUS
 66
     1
 40
0.000000
 41
0.000000
  0
VERTEX
  8
0
  6
CONTINUOUS
 10
3.014880
 20
6.523880
  0
VERTEX
  8
0
  6
CONTINUOUS
 10
3.653760
 20
6.897000
  0
VERTEX
  8
0
  6
CONTINUOUS
 10
3.656840
 20
6.882920
  0
VERTEX
  8
0
  6
CONTINUOUS
 10
3.017960
 20
6.509800
  0
VERTEX
  8
0
  6
CONTINUOUS
 10
3.014880
 20
6.523880
  0
SEQEND
  8
0
  0
SOLID
  8
0
 62
    15
 10
3.017960
 20
6.509800
 11
3.656840
 21
6.882920
 12
3.031160
 22
6.453480
 13
3.670040
 23
6.826600
  0
POLYLINE
  8
0
  6
CONTINUOUS
 66
     1
 40
0.000000
 41
0.000000
  0
VERTEX
  8
0
  6
CONTINUOUS
 10
3.017960
 20
6.509800
  0
VERTEX
  8
0
  6
CONTINUOUS
 10
3.656840
 20
6.882920
  0
VERTEX
  8
0
  6
CONTINUOUS
 10
3.670040
 20
6.826600
  0
VERTEX
  8
0
  6
CONTINUOUS
 10
3.031160
 20
6.453480
  0
VERTEX
  8
0
  6
CONTINUOUS
 10
3.017960
 20
6.509800
  0
SEQEND
  8
0
  0
SOLID
  8
0
 62
    15
 10
3.031160
 20
6.453480
 11
3.670040
 21
6.826600
 12
3.041280
 22
6.426640
 13
3.680160
 23
6.799760
  0
POLYLINE
  8
0
  6
CONTINUOUS
 66
     1
 40
0.000000
 41
0.000000
  0
VERTEX
  8
0
  6
CONTINUOUS
 10
3.031160
 20
6.453480
  0
VERTEX
  8
0
  6
CONTINUOUS
 10
3.670040
 20
6.826600
  0
VERTEX
  8
0
  6
CONTINUOUS
 10
3.680160
 20
6.799760
  0
VERTEX
  8
0
  6
CONTINUOUS
 10
3.041280
 20
6.426640
  0
VERTEX
  8
0
  6
CONTINUOUS
 10
3.031160
 20
6.453480
  0
SEQEND
  8
0
  0
SOLID
  8
0
 62
    15
 10
3.041280
 20
6.426640
 11
3.680160
 21
6.799760
 12
3.055800
 22
6.402440
 13
3.694680
 23
6.775560
  0
POLYLINE
  8
0
  6
CONTINUOUS
 66
     1
 40
0.000000
 41
0.000000
  0
VERTEX
  8
0
  6
CONTINUOUS
 10
3.041280
 20
6.426640
  0
VERTEX
  8
0
  6
CONTINUOUS
 10
3.680160
 20
6.799760
  0
VERTEX
  8
0
  6
CONTINUOUS
 10
3.694680
 20
6.775560
  0
VERTEX
  8
0
  6
CONTINUOUS
 10
3.055800
 20
6.402440
  0
VERTEX
  8
0
  6
CONTINUOUS
 10
3.041280
 20
6.426640
  0
SEQEND
  8
0
  0
SOLID
  8
0
 62
    15
 10
3.055800
 20
6.402440
 11
3.694680
 21
6.775560
 12
3.076040
 22
6.380440
 13
3.714480
 23
6.754000
  0
POLYLINE
  8
0
  6
CONTINUOUS
 66
     1
 40
0.000000
 41
0.000000
  0
VERTEX
  8
0
  6
CONTINUOUS
 10
3.055800
 20
6.402440
  0
VERTEX
  8
0
  6
CONTINUOUS
 10
3.694680
 20
6.775560
  0
VERTEX
  8
0
  6
CONTINUOUS
 10
3.714480
 20
6.754000
  0
VERTEX
  8
0
  6
CONTINUOUS
 10
3.076040
 20
6.380440
  0
VERTEX
  8
0
  6
CONTINUOUS
 10
3.055800
 20
6.402440
  0
SEQEND
  8
0
  0
SOLID
  8
0
 62
    15
 10
3.076040
 20
6.380440
 11
3.714480
 21
6.754000
 12
3.102880
 22
6.362400
 13
3.741760
 23
6.735960
  0
POLYLINE
  8
0
  6
CONTINUOUS
 66
     1
 40
0.000000
 41
0.000000
  0
VERTEX
  8
0
  6
CONTINUOUS
 10
3.076040
 20
6.380440
  0
VERTEX
  8
0
  6
CONTINUOUS
 10
3.714480
 20
6.754000
  0
VERTEX
  8
0
  6
CONTINUOUS
 10
3.741760
 20
6.735960
  0
VERTEX
  8
0
  6
CONTINUOUS
 10
3.102880
 20
6.362400
  0
VERTEX
  8
0
  6
CONTINUOUS
 10
3.076040
 20
6.380440
  0
SEQEND
  8
0
  0
SOLID
  8
0
 62
    15
 10
3.102880
 20
6.362400
 11
3.741760
 21
6.735960
 12
3.138520
 22
6.349200
 13
3.777400
 23
6.722320
  0
POLYLINE
  8
0
  6
CONTINUOUS
 66
     1
 40
0.000000
 41
0.000000
  0
VERTEX
  8
0
  6
CONTINUOUS
 10
3.102880
 20
6.362400
  0
VERTEX
  8
0
  6
CONTINUOUS
 10
3.741760
 20
6.735960
  0
VERTEX
  8
0
  6
CONTINUOUS
 10
3.777400
 20
6.722320
  0
VERTEX
  8
0
  6
CONTINUOUS
 10
3.138520
 20
6.349200
  0
VERTEX
  8
0
  6
CONTINUOUS
 10
3.102880
 20
6.362400
  0
SEQEND
  8
0
  0
SOLID
  8
0
 62
    15
 10
3.138520
 20
6.349200
 11
3.777400
 21
6.722320
 12
3.183840
 22
6.340840
 13
3.822720
 23
6.713960
  0
POLYLINE
  8
0
  6
CONTINUOUS
 66
     1
 40
0.000000
 41
0.000000
  0
VERTEX
  8
0
  6
CONTINUOUS
 10
3.138520
 20
6.349200
  0
VERTEX
  8
0
  6
CONTINUOUS
 10
3.777400
 20
6.722320
  0
VERTEX
  8
0
  6
CONTINUOUS
 10
3.822720
 20
6.713960
  0
VERTEX
  8
0
  6
CONTINUOUS
 10
3.183840
 20
6.340840
  0
VERTEX
  8
0
  6
CONTINUOUS
 10
3.138520
 20
6.349200
  0
SEQEND
  8
0
  0
SOLID
  8
0
 62
    15
 10
3.183840
 20
6.340840
 11
3.822720
 21
6.713960
 12
3.183840
 22
6.226000
 13
3.822720
 23
6.599120
  0
POLYLINE
  8
0
  6
CONTINUOUS
 66
     1
 40
0.000000
 41
0.000000
  0
VERTEX
  8
0
  6
CONTINUOUS
 10
3.183840
 20
6.340840
  0
VERTEX
  8
0
  6
CONTINUOUS
 10
3.822720
 20
6.713960
  0
VERTEX
  8
0
  6
CONTINUOUS
 10
3.822720
 20
6.599120
  0
VERTEX
  8
0
  6
CONTINUOUS
 10
3.183840
 20
6.226000
  0
VERTEX
  8
0
  6
CONTINUOUS
 10
3.183840
 20
6.340840
  0
SEQEND
  8
0
  0
SOLID
  8
0
 62
    15
 10
3.183840
 20
6.226000
 11
3.822720
 21
6.599120
 12
3.185160
 22
6.226000
 13
3.824040
 23
6.599120
  0
POLYLINE
  8
0
  6
CONTINUOUS
 66
     1
 40
0.000000
 41
0.000000
  0
VERTEX
  8
0
  6
CONTINUOUS
 10
3.183840
 20
6.226000
  0
VERTEX
  8
0
  6
CONTINUOUS
 10
3.822720
 20
6.599120
  0
VERTEX
  8
0
  6
CONTINUOUS
 10
3.824040
 20
6.599120
  0
VERTEX
  8
0
  6
CONTINUOUS
 10
3.185160
 20
6.226000
  0
VERTEX
  8
0
  6
CONTINUOUS
 10
3.183840
 20
6.226000
  0
SEQEND
  8
0
  0
SOLID
  8
0
 62
    15
 10
3.185160
 20
6.226000
 11
3.824040
 21
6.599120
 12
3.218160
 22
6.220720
 13
3.857040
 23
6.593840
  0
POLYLINE
  8
0
  6
CONTINUOUS
 66
     1
 40
0.000000
 41
0.000000
  0
VERTEX
  8
0
  6
CONTINUOUS
 10
3.185160
 20
6.226000
  0
VERTEX
  8
0
  6
CONTINUOUS
 10
3.824040
 20
6.599120
  0
VERTEX
  8
0
  6
CONTINUOUS
 10
3.857040
 20
6.593840
  0
VERTEX
  8
0
  6
CONTINUOUS
 10
3.218160
 20
6.220720
  0
VERTEX
  8
0
  6
CONTINUOUS
 10
3.185160
 20
6.226000
  0
SEQEND
  8
0
  0
SOLID
  8
0
 62
    15
 10
3.218160
 20
6.220720
 11
3.857040
 21
6.593840
 12
3.248960
 22
6.209280
 13
3.887840
 23
6.582400
  0
POLYLINE
  8
0
  6
CONTINUOUS
 66
     1
 40
0.000000
 41
0.000000
  0
VERTEX
  8
0
  6
CONTINUOUS
 10
3.218160
 20
6.220720
  0
VERTEX
  8
0
  6
CONTINUOUS
 10
3.857040
 20
6.593840
  0
VERTEX
  8
0
  6
CONTINUOUS
 10
3.887840
 20
6.582400
  0
VERTEX
  8
0
  6
CONTINUOUS
 10
3.248960
 20
6.209280
  0
VERTEX
  8
0
  6
CONTINUOUS
 10
3.218160
 20
6.220720
  0
SEQEND
  8
0
  0
SOLID
  8
0
 62
    15
 10
3.248960
 20
6.209280
 11
3.887840
 21
6.582400
 12
3.277120
 22
6.192560
 13
3.916000
 23
6.565680
  0
POLYLINE
  8
0
  6
CONTINUOUS
 66
     1
 40
0.000000
 41
0.000000
  0
VERTEX
  8
0
  6
CONTINUOUS
 10
3.248960
 20
6.209280
  0
VERTEX
  8
0
  6
CONTINUOUS
 10
3.887840
 20
6.582400
  0
VERTEX
  8
0
  6
CONTINUOUS
 10
3.916000
 20
6.565680
  0
VERTEX
  8
0
  6
CONTINUOUS
 10
3.277120
 20
6.192560
  0
VERTEX
  8
0
  6
CONTINUOUS
 10
3.248960
 20
6.209280
  0
SEQEND
  8
0
  0
SOLID
  8
0
 62
    15
 10
3.277120
 20
6.192560
 11
3.916000
 21
6.565680
 12
3.301320
 22
6.171000
 13
3.940200
 23
6.544120
  0
POLYLINE
  8
0
  6
CONTINUOUS
 66
     1
 40
0.000000
 41
0.000000
  0
VERTEX
  8
0
  6
CONTINUOUS
 10
3.277120
 20
6.192560
  0
VERTEX
  8
0
  6
CONTINUOUS
 10
3.916000
 20
6.565680
  0
VERTEX
  8
0
  6
CONTINUOUS
 10
3.940200
 20
6.544120
  0
VERTEX
  8
0
  6
CONTINUOUS
 10
3.301320
 20
6.171000
  0
VERTEX
  8
0
  6
CONTINUOUS
 10
3.277120
 20
6.192560
  0
SEQEND
  8
0
  0
SOLID
  8
0
 62
    15
 10
3.301320
 20
6.171000
 11
3.940200
 21
6.544120
 12
3.321120
 22
6.145480
 13
3.960000
 23
6.518600
  0
POLYLINE
  8
0
  6
CONTINUOUS
 66
     1
 40
0.000000
 41
0.000000
  0
VERTEX
  8
0
  6
CONTINUOUS
 10
3.301320
 20
6.171000
  0
VERTEX
  8
0
  6
CONTINUOUS
 10
3.940200
 20
6.544120
  0
VERTEX
  8
0
  6
CONTINUOUS
 10
3.960000
 20
6.518600
  0
VERTEX
  8
0
  6
CONTINUOUS
 10
3.321120
 20
6.145480
  0
VERTEX
  8
0
  6
CONTINUOUS
 10
3.301320
 20
6.171000
  0
SEQEND
  8
0
  0
SOLID
  8
0
 62
    15
 10
3.321120
 20
6.145480
 11
3.960000
 21
6.518600
 12
3.336520
 22
6.116880
 13
3.974960
 23
6.490000
  0
POLYLINE
  8
0
  6
CONTINUOUS
 66
     1
 40
0.000000
 41
0.000000
  0
VERTEX
  8
0
  6
CONTINUOUS
 10
3.321120
 20
6.145480
  0
VERTEX
  8
0
  6
CONTINUOUS
 10
3.960000
 20
6.518600
  0
VERTEX
  8
0
  6
CONTINUOUS
 10
3.974960
 20
6.490000
  0
VERTEX
  8
0
  6
CONTINUOUS
 10
3.336520
 20
6.116880
  0
VERTEX
  8
0
  6
CONTINUOUS
 10
3.321120
 20
6.145480
  0
SEQEND
  8
0
  0
SOLID
  8
0
 62
    15
 10
3.336520
 20
6.116880
 11
3.974960
 21
6.490000
 12
3.345760
 22
6.085200
 13
3.984640
 23
6.458320
  0
POLYLINE
  8
0
  6
CONTINUOUS
 66
     1
 40
0.000000
 41
0.000000
  0
VERTEX
  8
0
  6
CONTINUOUS
 10
3.336520
 20
6.116880
  0
VERTEX
  8
0
  6
CONTINUOUS
 10
3.974960
 20
6.490000
  0
VERTEX
  8
0
  6
CONTINUOUS
 10
3.984640
 20
6.458320
  0
VERTEX
  8
0
  6
CONTINUOUS
 10
3.345760
 20
6.085200
  0
VERTEX
  8
0
  6
CONTINUOUS
 10
3.336520
 20
6.116880
  0
SEQEND
  8
0
  0
SOLID
  8
0
 62
    15
 10
3.345760
 20
6.085200
 11
3.984640
 21
6.458320
 12
3.349280
 22
6.051320
 13
3.988160
 23
6.424440
  0
POLYLINE
  8
0
  6
CONTINUOUS
 66
     1
 40
0.000000
 41
0.000000
  0
VERTEX
  8
0
  6
CONTINUOUS
 10
3.345760
 20
6.085200
  0
VERTEX
  8
0
  6
CONTINUOUS
 10
3.984640
 20
6.458320
  0
VERTEX
  8
0
  6
CONTINUOUS
 10
3.988160
 20
6.424440
  0
VERTEX
  8
0
  6
CONTINUOUS
 10
3.349280
 20
6.051320
  0
VERTEX
  8
0
  6
CONTINUOUS
 10
3.345760
 20
6.085200
  0
SEQEND
  8
0
  0
SOLID
  8
0
 62
    15
 10
3.349280
 20
6.051320
 11
3.988160
 21
6.424440
 12
3.346200
 22
6.017880
 13
3.984640
 23
6.391000
  0
POLYLINE
  8
0
  6
CONTINUOUS
 66
     1
 40
0.000000
 41
0.000000
  0
VERTEX
  8
0
  6
CONTINUOUS
 10
3.349280
 20
6.051320
  0
VERTEX
  8
0
  6
CONTINUOUS
 10
3.988160
 20
6.424440
  0
VERTEX
  8
0
  6
CONTINUOUS
 10
3.984640
 20
6.391000
  0
VERTEX
  8
0
  6
CONTINUOUS
 10
3.346200
 20
6.017880
  0
VERTEX
  8
0
  6
CONTINUOUS
 10
3.349280
 20
6.051320
  0
SEQEND
  8
0
  0
SOLID
  8
0
 62
    15
 10
3.346200
 20
6.017880
 11
3.984640
 21
6.391000
 12
3.336960
 22
5.986640
 13
3.975400
 23
6.359760
  0
POLYLINE
  8
0
  6
CONTINUOUS
 66
     1
 40
0.000000
 41
0.000000
  0
VERTEX
  8
0
  6
CONTINUOUS
 10
3.346200
 20
6.017880
  0
VERTEX
  8
0
  6
CONTINUOUS
 10
3.984640
 20
6.391000
  0
VERTEX
  8
0
  6
CONTINUOUS
 10
3.975400
 20
6.359760
  0
VERTEX
  8
0
  6
CONTINUOUS
 10
3.336960
 20
5.986640
  0
VERTEX
  8
0
  6
CONTINUOUS
 10
3.346200
 20
6.017880
  0
SEQEND
  8
0
  0
SOLID
  8
0
 62
    15
 10
3.336960
 20
5.986640
 11
3.975400
 21
6.359760
 12
3.322000
 22
5.957600
 13
3.960880
 23
6.330720
  0
POLYLINE
  8
0
  6
CONTINUOUS
 66
     1
 40
0.000000
 41
0.000000
  0
VERTEX
  8
0
  6
CONTINUOUS
 10
3.336960
 20
5.986640
  0
VERTEX
  8
0
  6
CONTINUOUS
 10
3.975400
 20
6.359760
  0
VERTEX
  8
0
  6
CONTINUOUS
 10
3.960880
 20
6.330720
  0
VERTEX
  8
0
  6
CONTINUOUS
 10
3.322000
 20
5.957600
  0
VERTEX
  8
0
  6
CONTINUOUS
 10
3.336960
 20
5.986640
  0
SEQEND
  8
0
  0
SOLID
  8
0
 62
    15
 10
3.078680
 20
5.723960
 11
3.717560
 21
6.097080
 12
3.058000
 22
5.696680
 13
3.696880
 23
6.069800
  0
POLYLINE
  8
0
  6
CONTINUOUS
 66
     1
 40
0.000000
 41
0.000000
  0
VERTEX
  8
0
  6
CONTINUOUS
 10
3.078680
 20
5.723960
  0
VERTEX
  8
0
  6
CONTINUOUS
 10
3.717560
 20
6.097080
  0
VERTEX
  8
0
  6
CONTINUOUS
 10
3.696880
 20
6.069800
  0
VERTEX
  8
0
  6
CONTINUOUS
 10
3.058000
 20
5.696680
  0
VERTEX
  8
0
  6
CONTINUOUS
 10
3.078680
 20
5.723960
  0
SEQEND
  8
0
  0
SOLID
  8
0
 62
    15
 10
3.186480
 20
5.876640
 11
3.825360
 21
6.249760
 12
3.186480
 22
5.786000
 13
3.825360
 23
6.159120
  0
POLYLINE
  8
0
  6
CONTINUOUS
 66
     1
 40
0.000000
 41
0.000000
  0
VERTEX
  8
0
  6
CONTINUOUS
 10
3.186480
 20
5.876640
  0
VERTEX
  8
0
  6
CONTINUOUS
 10
3.825360
 20
6.249760
  0
VERTEX
  8
0
  6
CONTINUOUS
 10
3.825360
 20
6.159120
  0
VERTEX
  8
0
  6
CONTINUOUS
 10
3.186480
 20
5.786000
  0
VERTEX
  8
0
  6
CONTINUOUS
 10
3.186480
 20
5.876640
  0
SEQEND
  8
0
  0
SOLID
  8
0
 62
    15
 10
3.278880
 20
5.910520
 11
3.917760
 21
6.283640
 12
3.252040
 22
5.893360
 13
3.890920
 23
6.266480
  0
POLYLINE
  8
0
  6
CONTINUOUS
 66
     1
 40
0.000000
 41
0.000000
  0
VERTEX
  8
0
  6
CONTINUOUS
 10
3.278880
 20
5.910520
  0
VERTEX
  8
0
  6
CONTINUOUS
 10
3.917760
 20
6.283640
  0
VERTEX
  8
0
  6
CONTINUOUS
 10
3.890920
 20
6.266480
  0
VERTEX
  8
0
  6
CONTINUOUS
 10
3.252040
 20
5.893360
  0
VERTEX
  8
0
  6
CONTINUOUS
 10
3.278880
 20
5.910520
  0
SEQEND
  8
0
  0
SOLID
  8
0
 62
    15
 10
2.856040
 20
6.660720
 11
3.494920
 21
7.033840
 12
2.900480
 22
6.656320
 13
3.539360
 23
7.029880
  0
POLYLINE
  8
0
  6
CONTINUOUS
 66
     1
 40
0.000000
 41
0.000000
  0
VERTEX
  8
0
  6
CONTINUOUS
 10
2.856040
 20
6.660720
  0
VERTEX
  8
0
  6
CONTINUOUS
 10
3.494920
 20
7.033840
  0
VERTEX
  8
0
  6
CONTINUOUS
 10
3.539360
 20
7.029880
  0
VERTEX
  8
0
  6
CONTINUOUS
 10
2.900480
 20
6.656320
  0
VERTEX
  8
0
  6
CONTINUOUS
 10
2.856040
 20
6.660720
  0
SEQEND
  8
0
  0
SOLID
  8
0
 62
    15
 10
3.186480
 20
5.786000
 11
3.825360
 21
6.159120
 12
3.185160
 22
5.784680
 13
3.824040
 23
6.157800
  0
POLYLINE
  8
0
  6
CONTINUOUS
 66
     1
 40
0.000000
 41
0.000000
  0
VERTEX
  8
0
  6
CONTINUOUS
 10
3.186480
 20
5.786000
  0
VERTEX
  8
0
  6
CONTINUOUS
 10
3.825360
 20
6.159120
  0
VERTEX
  8
0
  6
CONTINUOUS
 10
3.824040
 20
6.157800
  0
VERTEX
  8
0
  6
CONTINUOUS
 10
3.185160
 20
5.784680
  0
VERTEX
  8
0
  6
CONTINUOUS
 10
3.186480
 20
5.786000
  0
SEQEND
  8
0
  0
SOLID
  8
0
 62
    15
 10
3.322000
 20
5.957600
 11
3.960880
 21
6.330720
 12
3.302640
 22
5.932080
 13
3.941520
 23
6.305200
  0
POLYLINE
  8
0
  6
CONTINUOUS
 66
     1
 40
0.000000
 41
0.000000
  0
VERTEX
  8
0
  6
CONTINUOUS
 10
3.322000
 20
5.957600
  0
VERTEX
  8
0
  6
CONTINUOUS
 10
3.960880
 20
6.330720
  0
VERTEX
  8
0
  6
CONTINUOUS
 10
3.941520
 20
6.305200
  0
VERTEX
  8
0
  6
CONTINUOUS
 10
3.302640
 20
5.932080
  0
VERTEX
  8
0
  6
CONTINUOUS
 10
3.322000
 20
5.957600
  0
SEQEND
  8
0
  0
SOLID
  8
0
 62
    15
 10
3.302640
 20
5.932080
 11
3.941520
 21
6.305200
 12
3.278880
 22
5.910520
 13
3.917760
 23
6.283640
  0
POLYLINE
  8
0
  6
CONTINUOUS
 66
     1
 40
0.000000
 41
0.000000
  0
VERTEX
  8
0
  6
CONTINUOUS
 10
3.302640
 20
5.932080
  0
VERTEX
  8
0
  6
CONTINUOUS
 10
3.941520
 20
6.305200
  0
VERTEX
  8
0
  6
CONTINUOUS
 10
3.917760
 20
6.283640
  0
VERTEX
  8
0
  6
CONTINUOUS
 10
3.278880
 20
5.910520
  0
VERTEX
  8
0
  6
CONTINUOUS
 10
3.302640
 20
5.932080
  0
SEQEND
  8
0
  0
SOLID
  8
0
 62
    15
 10
3.058000
 20
5.696680
 11
3.696880
 21
6.069800
 12
3.044800
 22
5.666760
 13
3.683680
 23
6.039880
  0
POLYLINE
  8
0
  6
CONTINUOUS
 66
     1
 40
0.000000
 41
0.000000
  0
VERTEX
  8
0
  6
CONTINUOUS
 10
3.058000
 20
5.696680
  0
VERTEX
  8
0
  6
CONTINUOUS
 10
3.696880
 20
6.069800
  0
VERTEX
  8
0
  6
CONTINUOUS
 10
3.683680
 20
6.039880
  0
VERTEX
  8
0
  6
CONTINUOUS
 10
3.044800
 20
5.666760
  0
VERTEX
  8
0
  6
CONTINUOUS
 10
3.058000
 20
5.696680
  0
SEQEND
  8
0
  0
SOLID
  8
0
 62
    15
 10
3.044800
 20
5.666760
 11
3.683680
 21
6.039880
 12
3.038640
 22
5.635520
 13
3.677520
 23
6.008640
  0
POLYLINE
  8
0
  6
CONTINUOUS
 66
     1
 40
0.000000
 41
0.000000
  0
VERTEX
  8
0
  6
CONTINUOUS
 10
3.044800
 20
5.666760
  0
VERTEX
  8
0
  6
CONTINUOUS
 10
3.683680
 20
6.039880
  0
VERTEX
  8
0
  6
CONTINUOUS
 10
3.677520
 20
6.008640
  0
VERTEX
  8
0
  6
CONTINUOUS
 10
3.038640
 20
5.635520
  0
VERTEX
  8
0
  6
CONTINUOUS
 10
3.044800
 20
5.666760
  0
SEQEND
  8
0
  0
SOLID
  8
0
 62
    15
 10
3.038640
 20
5.635520
 11
3.677520
 21
6.008640
 12
3.039520
 22
5.602960
 13
3.678400
 23
5.976080
  0
POLYLINE
  8
0
  6
CONTINUOUS
 66
     1
 40
0.000000
 41
0.000000
  0
VERTEX
  8
0
  6
CONTINUOUS
 10
3.038640
 20
5.635520
  0
VERTEX
  8
0
  6
CONTINUOUS
 10
3.677520
 20
6.008640
  0
VERTEX
  8
0
  6
CONTINUOUS
 10
3.678400
 20
5.976080
  0
VERTEX
  8
0
  6
CONTINUOUS
 10
3.039520
 20
5.602960
  0
VERTEX
  8
0
  6
CONTINUOUS
 10
3.038640
 20
5.635520
  0
SEQEND
  8
0
  0
SOLID
  8
0
 62
    15
 10
3.039520
 20
5.602960
 11
3.678400
 21
5.976080
 12
3.047000
 22
5.569960
 13
3.685880
 23
5.943520
  0
POLYLINE
  8
0
  6
CONTINUOUS
 66
     1
 40
0.000000
 41
0.000000
  0
VERTEX
  8
0
  6
CONTINUOUS
 10
3.039520
 20
5.602960
  0
VERTEX
  8
0
  6
CONTINUOUS
 10
3.678400
 20
5.976080
  0
VERTEX
  8
0
  6
CONTINUOUS
 10
3.685880
 20
5.943520
  0
VERTEX
  8
0
  6
CONTINUOUS
 10
3.047000
 20
5.569960
  0
VERTEX
  8
0
  6
CONTINUOUS
 10
3.039520
 20
5.602960
  0
SEQEND
  8
0
  0
SOLID
  8
0
 62
    15
 10
3.047000
 20
5.569960
 11
3.685880
 21
5.943520
 12
3.061080
 22
5.537840
 13
3.699960
 23
5.910960
  0
POLYLINE
  8
0
  6
CONTINUOUS
 66
     1
 40
0.000000
 41
0.000000
  0
VERTEX
  8
0
  6
CONTINUOUS
 10
3.047000
 20
5.569960
  0
VERTEX
  8
0
  6
CONTINUOUS
 10
3.685880
 20
5.943520
  0
VERTEX
  8
0
  6
CONTINUOUS
 10
3.699960
 20
5.910960
  0
VERTEX
  8
0
  6
CONTINUOUS
 10
3.061080
 20
5.537840
  0
VERTEX
  8
0
  6
CONTINUOUS
 10
3.047000
 20
5.569960
  0
SEQEND
  8
0
  0
SOLID
  8
0
 62
    15
 10
3.061080
 20
5.537840
 11
3.699960
 21
5.910960
 12
3.081760
 22
5.506600
 13
3.720640
 23
5.879720
  0
POLYLINE
  8
0
  6
CONTINUOUS
 66
     1
 40
0.000000
 41
0.000000
  0
VERTEX
  8
0
  6
CONTINUOUS
 10
3.061080
 20
5.537840
  0
VERTEX
  8
0
  6
CONTINUOUS
 10
3.699960
 20
5.910960
  0
VERTEX
  8
0
  6
CONTINUOUS
 10
3.720640
 20
5.879720
  0
VERTEX
  8
0
  6
CONTINUOUS
 10
3.081760
 20
5.506600
  0
VERTEX
  8
0
  6
CONTINUOUS
 10
3.061080
 20
5.537840
  0
SEQEND
  8
0
  0
SOLID
  8
0
 62
    15
 10
3.081760
 20
5.506600
 11
3.720640
 21
5.879720
 12
3.108600
 22
5.477120
 13
3.747480
 23
5.850240
  0
POLYLINE
  8
0
  6
CONTINUOUS
 66
     1
 40
0.000000
 41
0.000000
  0
VERTEX
  8
0
  6
CONTINUOUS
 10
3.081760
 20
5.506600
  0
VERTEX
  8
0
  6
CONTINUOUS
 10
3.720640
 20
5.879720
  0
VERTEX
  8
0
  6
CONTINUOUS
 10
3.747480
 20
5.850240
  0
VERTEX
  8
0
  6
CONTINUOUS
 10
3.108600
 20
5.477120
  0
VERTEX
  8
0
  6
CONTINUOUS
 10
3.081760
 20
5.506600
  0
SEQEND
  8
0
  0
SOLID
  8
0
 62
    15
 10
3.108600
 20
5.477120
 11
3.747480
 21
5.850240
 12
3.142040
 22
5.449840
 13
3.780920
 23
5.822960
  0
POLYLINE
  8
0
  6
CONTINUOUS
 66
     1
 40
0.000000
 41
0.000000
  0
VERTEX
  8
0
  6
CONTINUOUS
 10
3.108600
 20
5.477120
  0
VERTEX
  8
0
  6
CONTINUOUS
 10
3.747480
 20
5.850240
  0
VERTEX
  8
0
  6
CONTINUOUS
 10
3.780920
 20
5.822960
  0
VERTEX
  8
0
  6
CONTINUOUS
 10
3.142040
 20
5.449840
  0
VERTEX
  8
0
  6
CONTINUOUS
 10
3.108600
 20
5.477120
  0
SEQEND
  8
0
  0
SOLID
  8
0
 62
    15
 10
3.142040
 20
5.449840
 11
3.780920
 21
5.822960
 12
3.181640
 22
5.426080
 13
3.820080
 23
5.799200
  0
POLYLINE
  8
0
  6
CONTINUOUS
 66
     1
 40
0.000000
 41
0.000000
  0
VERTEX
  8
0
  6
CONTINUOUS
 10
3.142040
 20
5.449840
  0
VERTEX
  8
0
  6
CONTINUOUS
 10
3.780920
 20
5.822960
  0
VERTEX
  8
0
  6
CONTINUOUS
 10
3.820080
 20
5.799200
  0
VERTEX
  8
0
  6
CONTINUOUS
 10
3.181640
 20
5.426080
  0
VERTEX
  8
0
  6
CONTINUOUS
 10
3.142040
 20
5.449840
  0
SEQEND
  8
0
  0
SOLID
  8
0
 62
    15
 10
3.181640
 20
5.426080
 11
3.820080
 21
5.799200
 12
3.226960
 22
5.406280
 13
3.865400
 23
5.779400
  0
POLYLINE
  8
0
  6
CONTINUOUS
 66
     1
 40
0.000000
 41
0.000000
  0
VERTEX
  8
0
  6
CONTINUOUS
 10
3.181640
 20
5.426080
  0
VERTEX
  8
0
  6
CONTINUOUS
 10
3.820080
 20
5.799200
  0
VERTEX
  8
0
  6
CONTINUOUS
 10
3.865400
 20
5.779400
  0
VERTEX
  8
0
  6
CONTINUOUS
 10
3.226960
 20
5.406280
  0
VERTEX
  8
0
  6
CONTINUOUS
 10
3.181640
 20
5.426080
  0
SEQEND
  8
0
  0
SOLID
  8
0
 62
    15
 10
3.226960
 20
5.406280
 11
3.865400
 21
5.779400
 12
3.278000
 22
5.390880
 13
3.916440
 23
5.764000
  0
POLYLINE
  8
0
  6
CONTINUOUS
 66
     1
 40
0.000000
 41
0.000000
  0
VERTEX
  8
0
  6
CONTINUOUS
 10
3.226960
 20
5.406280
  0
VERTEX
  8
0
  6
CONTINUOUS
 10
3.865400
 20
5.779400
  0
VERTEX
  8
0
  6
CONTINUOUS
 10
3.916440
 20
5.764000
  0
VERTEX
  8
0
  6
CONTINUOUS
 10
3.278000
 20
5.390880
  0
VERTEX
  8
0
  6
CONTINUOUS
 10
3.226960
 20
5.406280
  0
SEQEND
  8
0
  0
SOLID
  8
0
 62
    15
 10
3.278000
 20
5.390880
 11
3.916440
 21
5.764000
 12
3.334760
 22
5.380760
 13
3.973200
 23
5.753880
  0
POLYLINE
  8
0
  6
CONTINUOUS
 66
     1
 40
0.000000
 41
0.000000
  0
VERTEX
  8
0
  6
CONTINUOUS
 10
3.278000
 20
5.390880
  0
VERTEX
  8
0
  6
CONTINUOUS
 10
3.916440
 20
5.764000
  0
VERTEX
  8
0
  6
CONTINUOUS
 10
3.973200
 20
5.753880
  0
VERTEX
  8
0
  6
CONTINUOUS
 10
3.334760
 20
5.380760
  0
VERTEX
  8
0
  6
CONTINUOUS
 10
3.278000
 20
5.390880
  0
SEQEND
  8
0
  0
SOLID
  8
0
 62
    15
 10
3.334760
 20
5.380760
 11
3.973200
 21
5.753880
 12
3.334760
 22
5.203440
 13
3.973200
 23
5.576560
  0
POLYLINE
  8
0
  6
CONTINUOUS
 66
     1
 40
0.000000
 41
0.000000
  0
VERTEX
  8
0
  6
CONTINUOUS
 10
3.334760
 20
5.380760
  0
VERTEX
  8
0
  6
CONTINUOUS
 10
3.973200
 20
5.753880
  0
VERTEX
  8
0
  6
CONTINUOUS
 10
3.973200
 20
5.576560
  0
VERTEX
  8
0
  6
CONTINUOUS
 10
3.334760
 20
5.203440
  0
VERTEX
  8
0
  6
CONTINUOUS
 10
3.334760
 20
5.380760
  0
SEQEND
  8
0
  0
SOLID
  8
0
 62
    15
 10
3.334760
 20
5.203440
 11
3.973200
 21
5.576560
 12
3.407800
 22
5.195960
 13
4.046680
 23
5.569080
  0
POLYLINE
  8
0
  6
CONTINUOUS
 66
     1
 40
0.000000
 41
0.000000
  0
VERTEX
  8
0
  6
CONTINUOUS
 10
3.334760
 20
5.203440
  0
VERTEX
  8
0
  6
CONTINUOUS
 10
3.973200
 20
5.576560
  0
VERTEX
  8
0
  6
CONTINUOUS
 10
4.046680
 20
5.569080
  0
VERTEX
  8
0
  6
CONTINUOUS
 10
3.407800
 20
5.195960
  0
VERTEX
  8
0
  6
CONTINUOUS
 10
3.334760
 20
5.203440
  0
SEQEND
  8
0
  0
SOLID
  8
0
 62
    15
 10
3.407800
 20
5.195960
 11
4.046680
 21
5.569080
 12
3.476000
 22
5.174400
 13
4.114880
 23
5.547520
  0
POLYLINE
  8
0
  6
CONTINUOUS
 66
     1
 40
0.000000
 41
0.000000
  0
VERTEX
  8
0
  6
CONTINUOUS
 10
3.407800
 20
5.195960
  0
VERTEX
  8
0
  6
CONTINUOUS
 10
4.046680
 20
5.569080
  0
VERTEX
  8
0
  6
CONTINUOUS
 10
4.114880
 20
5.547520
  0
VERTEX
  8
0
  6
CONTINUOUS
 10
3.476000
 20
5.174400
  0
VERTEX
  8
0
  6
CONTINUOUS
 10
3.407800
 20
5.195960
  0
SEQEND
  8
0
  0
SOLID
  8
0
 62
    15
 10
3.476000
 20
5.174400
 11
4.114880
 21
5.547520
 12
3.538040
 22
5.140520
 13
4.176920
 23
5.513640
  0
POLYLINE
  8
0
  6
CONTINUOUS
 66
     1
 40
0.000000
 41
0.000000
  0
VERTEX
  8
0
  6
CONTINUOUS
 10
3.476000
 20
5.174400
  0
VERTEX
  8
0
  6
CONTINUOUS
 10
4.114880
 20
5.547520
  0
VERTEX
  8
0
  6
CONTINUOUS
 10
4.176920
 20
5.513640
  0
VERTEX
  8
0
  6
CONTINUOUS
 10
3.538040
 20
5.140520
  0
VERTEX
  8
0
  6
CONTINUOUS
 10
3.476000
 20
5.174400
  0
SEQEND
  8
0
  0
SOLID
  8
0
 62
    15
 10
3.538040
 20
5.140520
 11
4.176920
 21
5.513640
 12
3.592160
 22
5.095640
 13
4.231040
 23
5.468760
  0
POLYLINE
  8
0
  6
CONTINUOUS
 66
     1
 40
0.000000
 41
0.000000
  0
VERTEX
  8
0
  6
CONTINUOUS
 10
3.538040
 20
5.140520
  0
VERTEX
  8
0
  6
CONTINUOUS
 10
4.176920
 20
5.513640
  0
VERTEX
  8
0
  6
CONTINUOUS
 10
4.231040
 20
5.468760
  0
VERTEX
  8
0
  6
CONTINUOUS
 10
3.592160
 20
5.095640
  0
VERTEX
  8
0
  6
CONTINUOUS
 10
3.538040
 20
5.140520
  0
SEQEND
  8
0
  0
SOLID
  8
0
 62
    15
 10
3.592160
 20
5.095640
 11
4.231040
 21
5.468760
 12
3.637040
 22
5.041520
 13
4.275920
 23
5.414640
  0
POLYLINE
  8
0
  6
CONTINUOUS
 66
     1
 40
0.000000
 41
0.000000
  0
VERTEX
  8
0
  6
CONTINUOUS
 10
3.592160
 20
5.095640
  0
VERTEX
  8
0
  6
CONTINUOUS
 10
4.231040
 20
5.468760
  0
VERTEX
  8
0
  6
CONTINUOUS
 10
4.275920
 20
5.414640
  0
VERTEX
  8
0
  6
CONTINUOUS
 10
3.637040
 20
5.041520
  0
VERTEX
  8
0
  6
CONTINUOUS
 10
3.592160
 20
5.095640
  0
SEQEND
  8
0
  0
SOLID
  8
0
 62
    15
 10
3.637040
 20
5.041520
 11
4.275920
 21
5.414640
 12
3.670920
 22
4.979480
 13
4.309800
 23
5.352600
  0
POLYLINE
  8
0
  6
CONTINUOUS
 66
     1
 40
0.000000
 41
0.000000
  0
VERTEX
  8
0
  6
CONTINUOUS
 10
3.637040
 20
5.041520
  0
VERTEX
  8
0
  6
CONTINUOUS
 10
4.275920
 20
5.414640
  0
VERTEX
  8
0
  6
CONTINUOUS
 10
4.309800
 20
5.352600
  0
VERTEX
  8
0
  6
CONTINUOUS
 10
3.670920
 20
4.979480
  0
VERTEX
  8
0
  6
CONTINUOUS
 10
3.637040
 20
5.041520
  0
SEQEND
  8
0
  0
SOLID
  8
0
 62
    15
 10
3.670920
 20
4.979480
 11
4.309800
 21
5.352600
 12
3.692480
 22
4.911280
 13
4.331360
 23
5.284400
  0
POLYLINE
  8
0
  6
CONTINUOUS
 66
     1
 40
0.000000
 41
0.000000
  0
VERTEX
  8
0
  6
CONTINUOUS
 10
3.670920
 20
4.979480
  0
VERTEX
  8
0
  6
CONTINUOUS
 10
4.309800
 20
5.352600
  0
VERTEX
  8
0
  6
CONTINUOUS
 10
4.331360
 20
5.284400
  0
VERTEX
  8
0
  6
CONTINUOUS
 10
3.692480
 20
4.911280
  0
VERTEX
  8
0
  6
CONTINUOUS
 10
3.670920
 20
4.979480
  0
SEQEND
  8
0
  0
SOLID
  8
0
 62
    15
 10
3.692480
 20
4.911280
 11
4.331360
 21
5.284400
 12
3.699960
 22
4.837800
 13
4.338840
 23
5.211360
  0
POLYLINE
  8
0
  6
CONTINUOUS
 66
     1
 40
0.000000
 41
0.000000
  0
VERTEX
  8
0
  6
CONTINUOUS
 10
3.692480
 20
4.911280
  0
VERTEX
  8
0
  6
CONTINUOUS
 10
4.331360
 20
5.284400
  0
VERTEX
  8
0
  6
CONTINUOUS
 10
4.338840
 20
5.211360
  0
VERTEX
  8
0
  6
CONTINUOUS
 10
3.699960
 20
4.837800
  0
VERTEX
  8
0
  6
CONTINUOUS
 10
3.692480
 20
4.911280
  0
SEQEND
  8
0
  0
SOLID
  8
0
 62
    15
 10
3.699960
 20
4.837800
 11
4.338840
 21
5.211360
 12
3.692480
 22
4.764760
 13
4.331360
 23
5.137880
  0
POLYLINE
  8
0
  6
CONTINUOUS
 66
     1
 40
0.000000
 41
0.000000
  0
VERTEX
  8
0
  6
CONTINUOUS
 10
3.699960
 20
4.837800
  0
VERTEX
  8
0
  6
CONTINUOUS
 10
4.338840
 20
5.211360
  0
VERTEX
  8
0
  6
CONTINUOUS
 10
4.331360
 20
5.137880
  0
VERTEX
  8
0
  6
CONTINUOUS
 10
3.692480
 20
4.764760
  0
VERTEX
  8
0
  6
CONTINUOUS
 10
3.699960
 20
4.837800
  0
SEQEND
  8
0
  0
SOLID
  8
0
 62
    15
 10
3.692480
 20
4.764760
 11
4.331360
 21
5.137880
 12
3.670920
 22
4.696120
 13
4.309800
 23
5.069240
  0
POLYLINE
  8
0
  6
CONTINUOUS
 66
     1
 40
0.000000
 41
0.000000
  0
VERTEX
  8
0
  6
CONTINUOUS
 10
3.692480
 20
4.764760
  0
VERTEX
  8
0
  6
CONTINUOUS
 10
4.331360
 20
5.137880
  0
VERTEX
  8
0
  6
CONTINUOUS
 10
4.309800
 20
5.069240
  0
VERTEX
  8
0
  6
CONTINUOUS
 10
3.670920
 20
4.696120
  0
VERTEX
  8
0
  6
CONTINUOUS
 10
3.692480
 20
4.764760
  0
SEQEND
  8
0
  0
SOLID
  8
0
 62
    15
 10
3.333440
 20
4.468640
 11
3.971880
 21
4.841760
 12
3.333440
 22
4.419360
 13
3.971880
 23
4.792480
  0
POLYLINE
  8
0
  6
CONTINUOUS
 66
     1
 40
0.000000
 41
0.000000
  0
VERTEX
  8
0
  6
CONTINUOUS
 10
3.333440
 20
4.468640
  0
VERTEX
  8
0
  6
CONTINUOUS
 10
3.971880
 20
4.841760
  0
VERTEX
  8
0
  6
CONTINUOUS
 10
3.971880
 20
4.792480
  0
VERTEX
  8
0
  6
CONTINUOUS
 10
3.333440
 20
4.419360
  0
VERTEX
  8
0
  6
CONTINUOUS
 10
3.333440
 20
4.468640
  0
SEQEND
  8
0
  0
SOLID
  8
0
 62
    15
 10
3.637040
 20
4.633200
 11
4.275920
 21
5.006320
 12
3.592160
 22
4.578200
 13
4.231040
 23
4.951320
  0
POLYLINE
  8
0
  6
CONTINUOUS
 66
     1
 40
0.000000
 41
0.000000
  0
VERTEX
  8
0
  6
CONTINUOUS
 10
3.637040
 20
4.633200
  0
VERTEX
  8
0
  6
CONTINUOUS
 10
4.275920
 20
5.006320
  0
VERTEX
  8
0
  6
CONTINUOUS
 10
4.231040
 20
4.951320
  0
VERTEX
  8
0
  6
CONTINUOUS
 10
3.592160
 20
4.578200
  0
VERTEX
  8
0
  6
CONTINUOUS
 10
3.637040
 20
4.633200
  0
SEQEND
  8
0
  0
SOLID
  8
0
 62
    15
 10
3.333440
 20
4.419360
 11
3.971880
 21
4.792480
 12
3.331680
 22
4.416720
 13
3.970560
 23
4.789840
  0
POLYLINE
  8
0
  6
CONTINUOUS
 66
     1
 40
0.000000
 41
0.000000
  0
VERTEX
  8
0
  6
CONTINUOUS
 10
3.333440
 20
4.419360
  0
VERTEX
  8
0
  6
CONTINUOUS
 10
3.971880
 20
4.792480
  0
VERTEX
  8
0
  6
CONTINUOUS
 10
3.970560
 20
4.789840
  0
VERTEX
  8
0
  6
CONTINUOUS
 10
3.331680
 20
4.416720
  0
VERTEX
  8
0
  6
CONTINUOUS
 10
3.333440
 20
4.419360
  0
SEQEND
  8
0
  0
SOLID
  8
0
 62
    15
 10
3.670920
 20
4.696120
 11
4.309800
 21
5.069240
 12
3.637040
 22
4.633200
 13
4.275920
 23
5.006320
  0
POLYLINE
  8
0
  6
CONTINUOUS
 66
     1
 40
0.000000
 41
0.000000
  0
VERTEX
  8
0
  6
CONTINUOUS
 10
3.670920
 20
4.696120
  0
VERTEX
  8
0
  6
CONTINUOUS
 10
4.309800
 20
5.069240
  0
VERTEX
  8
0
  6
CONTINUOUS
 10
4.275920
 20
5.006320
  0
VERTEX
  8
0
  6
CONTINUOUS
 10
3.637040
 20
4.633200
  0
VERTEX
  8
0
  6
CONTINUOUS
 10
3.670920
 20
4.696120
  0
SEQEND
  8
0
  0
SOLID
  8
0
 62
    15
 10
3.592160
 20
4.578200
 11
4.231040
 21
4.951320
 12
3.538040
 22
4.532880
 13
4.176920
 23
4.906000
  0
POLYLINE
  8
0
  6
CONTINUOUS
 66
     1
 40
0.000000
 41
0.000000
  0
VERTEX
  8
0
  6
CONTINUOUS
 10
3.592160
 20
4.578200
  0
VERTEX
  8
0
  6
CONTINUOUS
 10
4.231040
 20
4.951320
  0
VERTEX
  8
0
  6
CONTINUOUS
 10
4.176920
 20
4.906000
  0
VERTEX
  8
0
  6
CONTINUOUS
 10
3.538040
 20
4.532880
  0
VERTEX
  8
0
  6
CONTINUOUS
 10
3.592160
 20
4.578200
  0
SEQEND
  8
0
  0
SOLID
  8
0
 62
    15
 10
2.850760
 20
6.659400
 11
3.489200
 21
7.032520
 12
2.856040
 22
6.660720
 13
3.494920
 23
7.033840
  0
POLYLINE
  8
0
  6
CONTINUOUS
 66
     1
 40
0.000000
 41
0.000000
  0
VERTEX
  8
0
  6
CONTINUOUS
 10
2.850760
 20
6.659400
  0
VERTEX
  8
0
  6
CONTINUOUS
 10
3.489200
 20
7.032520
  0
VERTEX
  8
0
  6
CONTINUOUS
 10
3.494920
 20
7.033840
  0
VERTEX
  8
0
  6
CONTINUOUS
 10
2.856040
 20
6.660720
  0
VERTEX
  8
0
  6
CONTINUOUS
 10
2.850760
 20
6.659400
  0
SEQEND
  8
0
  0
POLYLINE
  8
0
  6
CONTINUOUS
 66
     1
 40
0.000000
 41
0.000000
  0
VERTEX
  8
0
  6
CONTINUOUS
 10
2.856040
 20
6.660720
  0
VERTEX
  8
0
  6
CONTINUOUS
 10
2.900480
 20
6.656320
  0
VERTEX
  8
0
  6
CONTINUOUS
 10
2.935240
 20
6.646640
  0
VERTEX
  8
0
  6
CONTINUOUS
 10
2.961640
 20
6.631680
  0
VERTEX
  8
0
  6
CONTINUOUS
 10
2.981000
 20
6.612320
  0
VERTEX
  8
0
  6
CONTINUOUS
 10
2.995080
 20
6.589880
  0
VERTEX
  8
0
  6
CONTINUOUS
 10
3.004760
 20
6.564800
  0
VERTEX
  8
0
  6
CONTINUOUS
 10
3.012240
 20
6.537960
  0
VERTEX
  8
0
  6
CONTINUOUS
 10
3.031160
 20
6.453480
  0
VERTEX
  8
0
  6
CONTINUOUS
 10
3.041280
 20
6.426640
  0
VERTEX
  8
0
  6
CONTINUOUS
 10
3.055800
 20
6.402440
  0
VERTEX
  8
0
  6
CONTINUOUS
 10
3.076040
 20
6.380440
  0
VERTEX
  8
0
  6
CONTINUOUS
 10
3.102880
 20
6.362400
  0
VERTEX
  8
0
  6
CONTINUOUS
 10
3.138520
 20
6.349200
  0
VERTEX
  8
0
  6
CONTINUOUS
 10
3.183840
 20
6.340840
  0
VERTEX
  8
0
  6
CONTINUOUS
 10
3.183840
 20
6.226000
  0
VERTEX
  8
0
  6
CONTINUOUS
 10
3.218160
 20
6.220720
  0
VERTEX
  8
0
  6
CONTINUOUS
 10
3.248960
 20
6.209280
  0
VERTEX
  8
0
  6
CONTINUOUS
 10
3.277120
 20
6.192560
  0
VERTEX
  8
0
  6
CONTINUOUS
 10
3.301320
 20
6.171000
  0
VERTEX
  8
0
  6
CONTINUOUS
 10
3.321120
 20
6.145480
  0
VERTEX
  8
0
  6
CONTINUOUS
 10
3.336520
 20
6.116880
  0
VERTEX
  8
0
  6
CONTINUOUS
 10
3.345760
 20
6.085200
  0
VERTEX
  8
0
  6
CONTINUOUS
 10
3.349280
 20
6.051320
  0
VERTEX
  8
0
  6
CONTINUOUS
 10
3.346200
 20
6.017880
  0
VERTEX
  8
0
  6
CONTINUOUS
 10
3.336960
 20
5.986640
  0
VERTEX
  8
0
  6
CONTINUOUS
 10
3.322000
 20
5.957600
  0
VERTEX
  8
0
  6
CONTINUOUS
 10
3.302640
 20
5.932080
  0
VERTEX
  8
0
  6
CONTINUOUS
 10
3.278880
 20
5.910520
  0
VERTEX
  8
0
  6
CONTINUOUS
 10
3.252040
 20
5.893360
  0
VERTEX
  8
0
  6
CONTINUOUS
 10
3.221680
 20
5.881920
  0
VERTEX
  8
0
  6
CONTINUOUS
 10
3.186480
 20
5.876640
  0
VERTEX
  8
0
  6
CONTINUOUS
 10
3.186480
 20
5.786000
  0
VERTEX
  8
0
  6
CONTINUOUS
 10
3.142040
 20
5.768840
  0
VERTEX
  8
0
  6
CONTINUOUS
 10
3.106840
 20
5.748160
  0
VERTEX
  8
0
  6
CONTINUOUS
 10
3.078680
 20
5.723960
  0
VERTEX
  8
0
  6
CONTINUOUS
 10
3.058000
 20
5.696680
  0
VERTEX
  8
0
  6
CONTINUOUS
 10
3.044800
 20
5.666760
  0
VERTEX
  8
0
  6
CONTINUOUS
 10
3.038640
 20
5.635520
  0
VERTEX
  8
0
  6
CONTINUOUS
 10
3.039520
 20
5.602960
  0
VERTEX
  8
0
  6
CONTINUOUS
 10
3.047000
 20
5.569960
  0
VERTEX
  8
0
  6
CONTINUOUS
 10
3.061080
 20
5.537840
  0
VERTEX
  8
0
  6
CONTINUOUS
 10
3.081760
 20
5.506600
  0
VERTEX
  8
0
  6
CONTINUOUS
 10
3.108600
 20
5.477120
  0
VERTEX
  8
0
  6
CONTINUOUS
 10
3.142040
 20
5.449840
  0
VERTEX
  8
0
  6
CONTINUOUS
 10
3.181640
 20
5.426080
  0
VERTEX
  8
0
  6
CONTINUOUS
 10
3.226960
 20
5.406280
  0
VERTEX
  8
0
  6
CONTINUOUS
 10
3.278000
 20
5.390880
  0
VERTEX
  8
0
  6
CONTINUOUS
 10
3.334760
 20
5.380760
  0
VERTEX
  8
0
  6
CONTINUOUS
 10
3.334760
 20
5.203440
  0
VERTEX
  8
0
  6
CONTINUOUS
 10
3.407800
 20
5.195960
  0
VERTEX
  8
0
  6
CONTINUOUS
 10
3.476000
 20
5.174400
  0
VERTEX
  8
0
  6
CONTINUOUS
 10
3.538040
 20
5.140520
  0
VERTEX
  8
0
  6
CONTINUOUS
 10
3.592160
 20
5.095640
  0
VERTEX
  8
0
  6
CONTINUOUS
 10
3.637040
 20
5.041520
  0
VERTEX
  8
0
  6
CONTINUOUS
 10
3.670920
 20
4.979480
  0
VERTEX
  8
0
  6
CONTINUOUS
 10
3.692480
 20
4.911280
  0
VERTEX
  8
0
  6
CONTINUOUS
 10
3.699960
 20
4.837800
  0
VERTEX
  8
0
  6
CONTINUOUS
 10
3.692480
 20
4.764760
  0
VERTEX
  8
0
  6
CONTINUOUS
 10
3.670920
 20
4.696120
  0
VERTEX
  8
0
  6
CONTINUOUS
 10
3.637040
 20
4.633200
  0
VERTEX
  8
0
  6
CONTINUOUS
 10
3.592160
 20
4.578200
  0
VERTEX
  8
0
  6
CONTINUOUS
 10
3.538040
 20
4.532880
  0
VERTEX
  8
0
  6
CONTINUOUS
 10
3.476000
 20
4.498120
  0
VERTEX
  8
0
  6
CONTINUOUS
 10
3.407800
 20
4.476560
  0
VERTEX
  8
0
  6
CONTINUOUS
 10
3.371720
 20
4.470840
  0
VERTEX
  8
0
  6
CONTINUOUS
 10
3.333440
 20
4.468640
  0
VERTEX
  8
0
  6
CONTINUOUS
 10
3.333440
 20
4.419360
  0
VERTEX
  8
0
  6
CONTINUOUS
 10
3.331680
 20
4.416720
  0
VERTEX
  8
0
  6
CONTINUOUS
 10
2.850760
 20
4.416720
  0
VERTEX
  8
0
  6
CONTINUOUS
 10
2.850760
 20
6.659400
  0
VERTEX
  8
0
  6
CONTINUOUS
 10
2.856040
 20
6.660720
  0
SEQEND
  8
0
  0
TEXT
  8
0
 10
3.299120
 20
4.183960
 40
0.138178
  1
BA  114
 41
1.000000
  7
SN0
 71
     0
 72
     5
 11
3.888734
 21
4.183960
  0
TEXT
  8
0
 10
3.142920
 20
3.992120
 40
0.138178
  1
7/8" x 2-1/4"
 41
1.000000
  7
SN0
 71
     0
 72
     5
 11
4.042752
 21
3.992120
  0
POLYLINE
  8
0
  6
CONTINUOUS
 66
     1
 40
0.014080
 41
0.014080
  0
VERTEX
  8
0
  6
CONTINUOUS
 10
6.816920
 20
5.840120
  0
VERTEX
  8
0
  6
CONTINUOUS
 10
4.574240
 20
5.840120
  0
VERTEX
  8
0
  6
CONTINUOUS
 10
4.574240
 20
6.321480
  0
VERTEX
  8
0
  6
CONTINUOUS
 10
4.576880
 20
6.322800
  0
VERTEX
  8
0
  6
CONTINUOUS
 10
4.626160
 20
6.322800
  0
VERTEX
  8
0
  6
CONTINUOUS
 10
4.627920
 20
6.361080
  0
VERTEX
  8
0
  6
CONTINUOUS
 10
4.633640
 20
6.397160
  0
VERTEX
  8
0
  6
CONTINUOUS
 10
4.649040
 20
6.449080
  0
VERTEX
  8
0
  6
CONTINUOUS
 10
4.663120
 20
6.482080
  0
VERTEX
  8
0
  6
CONTINUOUS
 10
4.690400
 20
6.527840
  0
VERTEX
  8
0
  6
CONTINUOUS
 10
4.711960
 20
6.556000
  0
VERTEX
  8
0
  6
CONTINUOUS
 10
4.735720
 20
6.581960
  0
VERTEX
  8
0
  6
CONTINUOUS
 10
4.776200
 20
6.616720
  0
VERTEX
  8
0
  6
CONTINUOUS
 10
4.821080
 20
6.645320
  0
VERTEX
  8
0
  6
CONTINUOUS
 10
4.869920
 20
6.667320
  0
VERTEX
  8
0
  6
CONTINUOUS
 10
4.904240
 20
6.678320
  0
VERTEX
  8
0
  6
CONTINUOUS
 10
4.958360
 20
6.688000
  0
VERTEX
  8
0
  6
CONTINUOUS
 10
4.995320
 20
6.689760
  0
VERTEX
  8
0
  6
CONTINUOUS
 10
5.032280
 20
6.688000
  0
VERTEX
  8
0
  6
CONTINUOUS
 10
5.068360
 20
6.682280
  0
VERTEX
  8
0
  6
CONTINUOUS
 10
5.103560
 20
6.673040
  0
VERTEX
  8
0
  6
CONTINUOUS
 10
5.137000
 20
6.660720
  0
VERTEX
  8
0
  6
CONTINUOUS
 10
5.184080
 20
6.636520
  0
VERTEX
  8
0
  6
CONTINUOUS
 10
5.213560
 20
6.616720
  0
VERTEX
  8
0
  6
CONTINUOUS
 10
5.253160
 20
6.581960
  0
VERTEX
  8
0
  6
CONTINUOUS
 10
5.287920
 20
6.542360
  0
VERTEX
  8
0
  6
CONTINUOUS
 10
5.316520
 20
6.497480
  0
VERTEX
  8
0
  6
CONTINUOUS
 10
5.331920
 20
6.465800
  0
VERTEX
  8
0
  6
CONTINUOUS
 10
5.349520
 20
6.414760
  0
VERTEX
  8
0
  6
CONTINUOUS
 10
5.356560
 20
6.379560
  0
VERTEX
  8
0
  6
CONTINUOUS
 10
5.360520
 20
6.342600
  0
VERTEX
  8
0
  6
CONTINUOUS
 10
5.360960
 20
6.324120
  0
VERTEX
  8
0
  6
CONTINUOUS
 10
5.538280
 20
6.324120
  0
VERTEX
  8
0
  6
CONTINUOUS
 10
5.548400
 20
6.267360
  0
VERTEX
  8
0
  6
CONTINUOUS
 10
5.555440
 20
6.240960
  0
VERTEX
  8
0
  6
CONTINUOUS
 10
5.573040
 20
6.193000
  0
VERTEX
  8
0
  6
CONTINUOUS
 10
5.595040
 20
6.150760
  0
VERTEX
  8
0
  6
CONTINUOUS
 10
5.620560
 20
6.114240
  0
VERTEX
  8
0
  6
CONTINUOUS
 10
5.648720
 20
6.084320
  0
VERTEX
  8
0
  6
CONTINUOUS
 10
5.679520
 20
6.060120
  0
VERTEX
  8
0
  6
CONTINUOUS
 10
5.711200
 20
6.042960
  0
VERTEX
  8
0
  6
CONTINUOUS
 10
5.727480
 20
6.036360
  0
VERTEX
  8
0
  6
CONTINUOUS
 10
5.760480
 20
6.028880
  0
VERTEX
  8
0
  6
CONTINUOUS
 10
5.792600
 20
6.028440
  0
VERTEX
  8
0
  6
CONTINUOUS
 10
5.808880
 20
6.030640
  0
VERTEX
  8
0
  6
CONTINUOUS
 10
5.824280
 20
6.034600
  0
VERTEX
  8
0
  6
CONTINUOUS
 10
5.854200
 20
6.047800
  0
VERTEX
  8
0
  6
CONTINUOUS
 10
5.868280
 20
6.057040
  0
VERTEX
  8
0
  6
CONTINUOUS
 10
5.893800
 20
6.081240
  0
VERTEX
  8
0
  6
CONTINUOUS
 10
5.916680
 20
6.112920
  0
VERTEX
  8
0
  6
CONTINUOUS
 10
5.926360
 20
6.131840
  0
VERTEX
  8
0
  6
CONTINUOUS
 10
5.943520
 20
6.176280
  0
VERTEX
  8
0
  6
CONTINUOUS
 10
6.034160
 20
6.176280
  0
VERTEX
  8
0
  6
CONTINUOUS
 10
6.035920
 20
6.195640
  0
VERTEX
  8
0
  6
CONTINUOUS
 10
6.044280
 20
6.226880
  0
VERTEX
  8
0
  6
CONTINUOUS
 10
6.050880
 20
6.241840
  0
VERTEX
  8
0
  6
CONTINUOUS
 10
6.068040
 20
6.268680
  0
VERTEX
  8
0
  6
CONTINUOUS
 10
6.089600
 20
6.292440
  0
VERTEX
  8
0
  6
CONTINUOUS
 10
6.101920
 20
6.303000
  0
VERTEX
  8
0
  6
CONTINUOUS
 10
6.129200
 20
6.319720
  0
VERTEX
  8
0
  6
CONTINUOUS
 10
6.144160
 20
6.326760
  0
VERTEX
  8
0
  6
CONTINUOUS
 10
6.175400
 20
6.336000
  0
VERTEX
  8
0
  6
CONTINUOUS
 10
6.208840
 20
6.339080
  0
VERTEX
  8
0
  6
CONTINUOUS
 10
6.226000
 20
6.338200
  0
VERTEX
  8
0
  6
CONTINUOUS
 10
6.258560
 20
6.331600
  0
VERTEX
  8
0
  6
CONTINUOUS
 10
6.274400
 20
6.326320
  0
VERTEX
  8
0
  6
CONTINUOUS
 10
6.303000
 20
6.310920
  0
VERTEX
  8
0
  6
CONTINUOUS
 10
6.328520
 20
6.291120
  0
VERTEX
  8
0
  6
CONTINUOUS
 10
6.350080
 20
6.266920
  0
VERTEX
  8
0
  6
CONTINUOUS
 10
6.359320
 20
6.253280
  0
VERTEX
  8
0
  6
CONTINUOUS
 10
6.373400
 20
6.223800
  0
VERTEX
  8
0
  6
CONTINUOUS
 10
6.381760
 20
6.191680
  0
VERTEX
  8
0
  6
CONTINUOUS
 10
6.383520
 20
6.173640
  0
VERTEX
  8
0
  6
CONTINUOUS
 10
6.497920
 20
6.173640
  0
VERTEX
  8
0
  6
CONTINUOUS
 10
6.503640
 20
6.138440
  0
VERTEX
  8
0
  6
CONTINUOUS
 10
6.515960
 20
6.100600
  0
VERTEX
  8
0
  6
CONTINUOUS
 10
6.528280
 20
6.078160
  0
VERTEX
  8
0
  6
CONTINUOUS
 10
6.548520
 20
6.054840
  0
VERTEX
  8
0
  6
CONTINUOUS
 10
6.571840
 20
6.037680
  0
VERTEX
  8
0
  6
CONTINUOUS
 10
6.597360
 20
6.025800
  0
VERTEX
  8
0
  6
CONTINUOUS
 10
6.638720
 20
6.013480
  0
VERTEX
  8
0
  6
CONTINUOUS
 10
6.709120
 20
5.998520
  0
VERTEX
  8
0
  6
CONTINUOUS
 10
6.747400
 20
5.984880
  0
VERTEX
  8
0
  6
CONTINUOUS
 10
6.770280
 20
5.970800
  0
VERTEX
  8
0
  6
CONTINUOUS
 10
6.789200
 20
5.951000
  0
VERTEX
  8
0
  6
CONTINUOUS
 10
6.797120
 20
5.939120
  0
VERTEX
  8
0
  6
CONTINUOUS
 10
6.807240
 20
5.916680
  0
VERTEX
  8
0
  6
CONTINUOUS
 10
6.814280
 20
5.889840
  0
VERTEX
  8
0
  6
CONTINUOUS
 10
6.817800
 20
5.857720
  0
VERTEX
  8
0
  6
CONTINUOUS
 10
6.818240
 20
5.845400
  0
VERTEX
  8
0
  6
CONTINUOUS
 10
6.816920
 20
5.840120
  0
SEQEND
  8
0
  0
TEXT
  8
0
 10
5.529480
 20
5.594160
 40
0.138178
  1
BA  114
 41
1.000000
  7
SN0
 71
     0
 72
     5
 11
6.119094
 21
5.594160
  0
TEXT
  8
0
 10
5.373720
 20
5.402320
 40
0.138178
  1
7/8" x 2-1/4"
 41
1.000000
  7
SN0
 71
     0
 72
     5
 11
6.273552
 21
5.402320
  0
ENDSEC
  0
EOF
