  0
SECTION
  2
HEADER
  9
$ACADVER
  1
AC1006
  9
$EXTMIN
 10
1.799160
 20
1.640320
  9
$EXTMAX
 10
7.742680
 20
7.478240
  9
$LTSCALE
 40
0.044000
  9
$PDMODE
 70
    35
  9
$PDSIZE
 40
0.035200
  0
ENDSEC
  0
SECTION
  2
TABLES
  0
TABLE
  2
LTYPE
 70
     9
  0
LTYPE
  2
CONTINUOUS
 70
    64
  3
Solid line
 72
    65
 73
     0
 40
0.000000
  0
LTYPE
  2
DASHED
 70
    64
  3
__ __ __ __ __ __ __ __ __ __ __ __ __ __ __
 72
    65
 73
     2
 40
0.000330
 49
0.000220
 49
-0.000110
  0
LTYPE
  2
HIDDEN
 70
    64
  3
 _ _ _ _ _ _ _ _ _ _ _ _ _ _ _ _ _ _ _ _ _ _
 72
    65
 73
     2
 40
0.000165
 49
0.000110
 49
-0.000055
  0
LTYPE
  2
CENTER
 70
    64
  3
____ _ ____ _ ____ _ ____ _ ____ _ ____ _ ____
 72
    65
 73
     4
 40
0.000880
 49
0.000550
 49
-0.000110
 49
0.000110
 49
-0.000110
  0
LTYPE
  2
PHANTOM
 70
    64
  3
_____ _ _ _____ _ _ _____ _ _ _____ _ _ ____
 72
    65
 73
     6
 40
0.001100
 49
0.000550
 49
-0.000110
 49
0.000110
 49
-0.000110
 49
0.000110
 49
-0.000110
  0
LTYPE
  2
DOT
 70
    64
  3
...............................................
 72
    65
 73
     2
 40
0.000110
 49
0.000000
 49
-0.000110
  0
LTYPE
  2
DASHDOT
 70
    64
  3
__ . __ . __ . __ . __ . __ . __ . __ . __ . __
 72
    65
 73
     4
 40
0.000440
 49
0.000220
 49
-0.000110
 49
0.000000
 49
-0.000110
  0
LTYPE
  2
BORDER
 70
    64
  3
__ __ . __ __ . __ __ . __ __ . __ __ . __ __
 72
    65
 73
     6
 40
0.000770
 49
0.000220
 49
-0.000110
 49
0.000220
 49
-0.000110
 49
0.000000
 49
-0.000110
  0
LTYPE
  2
DIVIDE
 70
    64
  3
__ . . __ . . __ . . __ . . __ . . __ . . __
 72
    65
 73
     6
 40
0.000550
 49
0.000220
 49
-0.000110
 49
0.000000
 49
-0.000110
 49
0.000000
 49
-0.000110
  0
LTYPE
  2
DOTDOT
 70
    64
  3
 . .  . .  . .  . .  . .  . . 
 72
    65
 73
     5
 40
0.000242
 49
-0.000110
 49
0.000000
 49
-0.000110
 49
0.000000
 49
-0.000110
  0
ENDTAB
  0
TABLE
  2
STYLE
 70
     4
  0
STYLE
 70
     0
  2
SN0
 40
0.000000
 41
0.000440
 50
0.000000
 71
     0
 42
0.000000
  3
ROMAND
  0
STYLE
 70
    68
  2
SV0
 40
0.000000
 41
0.000440
 50
0.000000
 71
     0
 42
0.000000
  3
ROMAND
  0
STYLE
 70
     0
  2
SN1
 40
0.000000
 41
0.000440
 50
0.000000
 71
     0
 42
0.000000
  3
ROMAND
  0
STYLE
 70
    68
  2
SV1
 40
0.000000
 41
0.000440
 50
0.000000
 71
     0
 42
0.000000
  3
ROMAND
  0
ENDTAB
  0
TABLE
  2
LAYER
 70
     3
  0
LAYER
  2
FOREGROUND
 70
    64
 62
     7
  6
CONTINUOUS
  0
LAYER
  2
BACKGROUND
 70
    65
 62
    -7
  6
CONTINUOUS
  0
LAYER
  2
0
 70
    64
 62
     7
  6
CONTINUOUS
  0
ENDTAB
  0
ENDSEC
  0
SECTION
  2
ENTITIES
  0
POLYLINE
  8
FOREGROUND
  6
CONTINUOUS
 66
     1
 40
0.000000
 41
0.000000
  0
VERTEX
  8
FOREGROUND
  6
CONTINUOUS
 10
0.000000
 20
9.118560
  0
VERTEX
  8
FOREGROUND
  6
CONTINUOUS
 10
8.499920
 20
9.118560
  0
VERTEX
  8
FOREGROUND
  6
CONTINUOUS
 10
8.499920
 20
-1.881440
  0
VERTEX
  8
FOREGROUND
  6
CONTINUOUS
 10
0.000000
 20
-1.881440
  0
VERTEX
  8
FOREGROUND
  6
CONTINUOUS
 10
0.000000
 20
9.118560
  0
SEQEND
  8
0
  0
POLYLINE
  8
FOREGROUND
  6
CONTINUOUS
 66
     1
 40
0.000000
 41
0.000000
  0
VERTEX
  8
FOREGROUND
  6
CONTINUOUS
 10
0.000000
 20
9.118560
  0
VERTEX
  8
FOREGROUND
  6
CONTINUOUS
 10
8.499920
 20
9.118560
  0
VERTEX
  8
FOREGROUND
  6
CONTINUOUS
 10
8.499920
 20
-1.881440
  0
VERTEX
  8
FOREGROUND
  6
CONTINUOUS
 10
0.000000
 20
-1.881440
  0
VERTEX
  8
FOREGROUND
  6
CONTINUOUS
 10
0.000000
 20
9.118560
  0
SEQEND
  8
0
  0
TEXT
  8
0
 10
3.319360
 20
5.529040
 40
0.138118
  1
113 Glue Joint
 41
1.000000
  7
SN0
 71
     0
 72
     5
 11
4.388005
 21
5.529040
  0
POLYLINE
  8
0
  6
CONTINUOUS
 66
     1
 40
0.014080
 41
0.014080
  0
VERTEX
  8
0
  6
CONTINUOUS
 10
4.907760
 20
5.833080
  0
VERTEX
  8
0
  6
CONTINUOUS
 10
4.907760
 20
5.337200
  0
VERTEX
  8
0
  6
CONTINUOUS
 10
4.909080
 20
5.333240
  0
VERTEX
  8
0
  6
CONTINUOUS
 10
2.878480
 20
5.333240
  0
VERTEX
  8
0
  6
CONTINUOUS
 10
2.878480
 20
7.470760
  0
VERTEX
  8
0
  6
CONTINUOUS
 10
5.158560
 20
7.470760
  0
VERTEX
  8
0
  6
CONTINUOUS
 10
5.157240
 20
7.473400
  0
VERTEX
  8
0
  6
CONTINUOUS
 10
5.157240
 20
6.911960
  0
VERTEX
  8
0
  6
CONTINUOUS
 10
5.157240
 20
6.910640
  0
VERTEX
  8
0
  6
CONTINUOUS
 10
4.910400
 20
6.837160
  0
VERTEX
  8
0
  6
CONTINUOUS
 10
4.909080
 20
6.835840
  0
VERTEX
  8
0
  6
CONTINUOUS
 10
4.909080
 20
6.681400
  0
VERTEX
  8
0
  6
CONTINUOUS
 10
5.157240
 20
6.598680
  0
VERTEX
  8
0
  6
CONTINUOUS
 10
5.157240
 20
6.597360
  0
VERTEX
  8
0
  6
CONTINUOUS
 10
5.157240
 20
6.425320
  0
VERTEX
  8
0
  6
CONTINUOUS
 10
5.157240
 20
6.424000
  0
VERTEX
  8
0
  6
CONTINUOUS
 10
4.907760
 20
6.345240
  0
VERTEX
  8
0
  6
CONTINUOUS
 10
4.907760
 20
6.342600
  0
VERTEX
  8
0
  6
CONTINUOUS
 10
4.907760
 20
6.192120
  0
VERTEX
  8
0
  6
CONTINUOUS
 10
4.909080
 20
6.189040
  0
VERTEX
  8
0
  6
CONTINUOUS
 10
5.158560
 20
6.116000
  0
VERTEX
  8
0
  6
CONTINUOUS
 10
5.158560
 20
5.924160
  0
VERTEX
  8
0
  6
CONTINUOUS
 10
5.158560
 20
5.923720
  0
VERTEX
  8
0
  6
CONTINUOUS
 10
4.907760
 20
5.838800
  0
VERTEX
  8
0
  6
CONTINUOUS
 10
4.907760
 20
5.833080
  0
SEQEND
  8
0
  0
SOLID
  8
0
 62
    15
 10
3.830200
 20
3.492720
 11
4.461160
 21
3.864080
 12
4.078360
 22
3.410000
 13
4.709320
 23
3.781360
  0
POLYLINE
  8
0
  6
CONTINUOUS
 66
     1
 40
0.000000
 41
0.000000
  0
VERTEX
  8
0
  6
CONTINUOUS
 10
3.830200
 20
3.492720
  0
VERTEX
  8
0
  6
CONTINUOUS
 10
4.461160
 20
3.864080
  0
VERTEX
  8
0
  6
CONTINUOUS
 10
4.709320
 20
3.781360
  0
VERTEX
  8
0
  6
CONTINUOUS
 10
4.078360
 20
3.410000
  0
VERTEX
  8
0
  6
CONTINUOUS
 10
3.830200
 20
3.492720
  0
SEQEND
  8
0
  0
SOLID
  8
0
 62
    15
 10
3.828880
 20
2.148960
 11
4.459840
 21
2.519880
 12
3.830200
 22
2.145000
 13
4.461160
 23
2.515920
  0
POLYLINE
  8
0
  6
CONTINUOUS
 66
     1
 40
0.000000
 41
0.000000
  0
VERTEX
  8
0
  6
CONTINUOUS
 10
3.828880
 20
2.148960
  0
VERTEX
  8
0
  6
CONTINUOUS
 10
4.459840
 20
2.519880
  0
VERTEX
  8
0
  6
CONTINUOUS
 10
4.461160
 20
2.515920
  0
VERTEX
  8
0
  6
CONTINUOUS
 10
3.830200
 20
2.145000
  0
VERTEX
  8
0
  6
CONTINUOUS
 10
3.828880
 20
2.148960
  0
SEQEND
  8
0
  0
SOLID
  8
0
 62
    15
 10
1.799600
 20
4.282080
 11
2.430560
 21
4.653440
 12
4.078360
 22
4.282080
 13
4.709320
 23
4.653440
  0
POLYLINE
  8
0
  6
CONTINUOUS
 66
     1
 40
0.000000
 41
0.000000
  0
VERTEX
  8
0
  6
CONTINUOUS
 10
1.799600
 20
4.282080
  0
VERTEX
  8
0
  6
CONTINUOUS
 10
2.430560
 20
4.653440
  0
VERTEX
  8
0
  6
CONTINUOUS
 10
4.709320
 20
4.653440
  0
VERTEX
  8
0
  6
CONTINUOUS
 10
4.078360
 20
4.282080
  0
VERTEX
  8
0
  6
CONTINUOUS
 10
1.799600
 20
4.282080
  0
SEQEND
  8
0
  0
SOLID
  8
0
 62
    15
 10
3.831520
 20
3.648920
 11
4.462480
 21
4.019840
 12
3.830200
 22
3.647600
 13
4.461160
 23
4.018520
  0
POLYLINE
  8
0
  6
CONTINUOUS
 66
     1
 40
0.000000
 41
0.000000
  0
VERTEX
  8
0
  6
CONTINUOUS
 10
3.831520
 20
3.648920
  0
VERTEX
  8
0
  6
CONTINUOUS
 10
4.462480
 20
4.019840
  0
VERTEX
  8
0
  6
CONTINUOUS
 10
4.461160
 20
4.018520
  0
VERTEX
  8
0
  6
CONTINUOUS
 10
3.830200
 20
3.647600
  0
VERTEX
  8
0
  6
CONTINUOUS
 10
3.831520
 20
3.648920
  0
SEQEND
  8
0
  0
SOLID
  8
0
 62
    15
 10
3.830200
 20
3.647600
 11
4.461160
 21
4.018520
 12
3.830200
 22
3.492720
 13
4.461160
 23
3.864080
  0
POLYLINE
  8
0
  6
CONTINUOUS
 66
     1
 40
0.000000
 41
0.000000
  0
VERTEX
  8
0
  6
CONTINUOUS
 10
3.830200
 20
3.647600
  0
VERTEX
  8
0
  6
CONTINUOUS
 10
4.461160
 20
4.018520
  0
VERTEX
  8
0
  6
CONTINUOUS
 10
4.461160
 20
3.864080
  0
VERTEX
  8
0
  6
CONTINUOUS
 10
3.830200
 20
3.492720
  0
VERTEX
  8
0
  6
CONTINUOUS
 10
3.830200
 20
3.647600
  0
SEQEND
  8
0
  0
SOLID
  8
0
 62
    15
 10
4.078360
 20
4.284720
 11
4.709320
 21
4.656080
 12
4.078360
 22
3.721960
 13
4.709320
 23
4.093320
  0
POLYLINE
  8
0
  6
CONTINUOUS
 66
     1
 40
0.000000
 41
0.000000
  0
VERTEX
  8
0
  6
CONTINUOUS
 10
4.078360
 20
4.284720
  0
VERTEX
  8
0
  6
CONTINUOUS
 10
4.709320
 20
4.656080
  0
VERTEX
  8
0
  6
CONTINUOUS
 10
4.709320
 20
4.093320
  0
VERTEX
  8
0
  6
CONTINUOUS
 10
4.078360
 20
3.721960
  0
VERTEX
  8
0
  6
CONTINUOUS
 10
4.078360
 20
4.284720
  0
SEQEND
  8
0
  0
SOLID
  8
0
 62
    15
 10
4.709320
 20
4.653440
 11
4.710640
 21
4.653440
 12
4.078360
 22
4.282080
 13
4.079680
 23
4.282080
  0
POLYLINE
  8
0
  6
CONTINUOUS
 66
     1
 40
0.000000
 41
0.000000
  0
VERTEX
  8
0
  6
CONTINUOUS
 10
4.709320
 20
4.653440
  0
VERTEX
  8
0
  6
CONTINUOUS
 10
4.710640
 20
4.653440
  0
VERTEX
  8
0
  6
CONTINUOUS
 10
4.079680
 20
4.282080
  0
VERTEX
  8
0
  6
CONTINUOUS
 10
4.078360
 20
4.282080
  0
VERTEX
  8
0
  6
CONTINUOUS
 10
4.709320
 20
4.653440
  0
SEQEND
  8
0
  0
SOLID
  8
0
 62
    15
 10
3.828880
 20
2.644840
 11
4.459840
 21
3.016200
 12
3.828880
 22
2.148960
 13
4.459840
 23
2.519880
  0
POLYLINE
  8
0
  6
CONTINUOUS
 66
     1
 40
0.000000
 41
0.000000
  0
VERTEX
  8
0
  6
CONTINUOUS
 10
3.828880
 20
2.644840
  0
VERTEX
  8
0
  6
CONTINUOUS
 10
4.459840
 20
3.016200
  0
VERTEX
  8
0
  6
CONTINUOUS
 10
4.459840
 20
2.519880
  0
VERTEX
  8
0
  6
CONTINUOUS
 10
3.828880
 20
2.148960
  0
VERTEX
  8
0
  6
CONTINUOUS
 10
3.828880
 20
2.644840
  0
SEQEND
  8
0
  0
SOLID
  8
0
 62
    15
 10
3.828880
 20
3.157000
 11
4.459840
 21
3.527920
 12
3.828880
 22
3.003440
 13
4.459840
 23
3.374800
  0
POLYLINE
  8
0
  6
CONTINUOUS
 66
     1
 40
0.000000
 41
0.000000
  0
VERTEX
  8
0
  6
CONTINUOUS
 10
3.828880
 20
3.157000
  0
VERTEX
  8
0
  6
CONTINUOUS
 10
4.459840
 20
3.527920
  0
VERTEX
  8
0
  6
CONTINUOUS
 10
4.459840
 20
3.374800
  0
VERTEX
  8
0
  6
CONTINUOUS
 10
3.828880
 20
3.003440
  0
VERTEX
  8
0
  6
CONTINUOUS
 10
3.828880
 20
3.157000
  0
SEQEND
  8
0
  0
SOLID
  8
0
 62
    15
 10
4.078360
 20
3.410000
 11
4.709320
 21
3.781360
 12
4.078360
 22
3.235320
 13
4.709320
 23
3.606680
  0
POLYLINE
  8
0
  6
CONTINUOUS
 66
     1
 40
0.000000
 41
0.000000
  0
VERTEX
  8
0
  6
CONTINUOUS
 10
4.078360
 20
3.410000
  0
VERTEX
  8
0
  6
CONTINUOUS
 10
4.709320
 20
3.781360
  0
VERTEX
  8
0
  6
CONTINUOUS
 10
4.709320
 20
3.606680
  0
VERTEX
  8
0
  6
CONTINUOUS
 10
4.078360
 20
3.235320
  0
VERTEX
  8
0
  6
CONTINUOUS
 10
4.078360
 20
3.410000
  0
SEQEND
  8
0
  0
SOLID
  8
0
 62
    15
 10
3.828880
 20
3.003440
 11
4.459840
 21
3.374800
 12
3.830200
 22
3.000800
 13
4.461160
 23
3.372160
  0
POLYLINE
  8
0
  6
CONTINUOUS
 66
     1
 40
0.000000
 41
0.000000
  0
VERTEX
  8
0
  6
CONTINUOUS
 10
3.828880
 20
3.003440
  0
VERTEX
  8
0
  6
CONTINUOUS
 10
4.459840
 20
3.374800
  0
VERTEX
  8
0
  6
CONTINUOUS
 10
4.461160
 20
3.372160
  0
VERTEX
  8
0
  6
CONTINUOUS
 10
3.830200
 20
3.000800
  0
VERTEX
  8
0
  6
CONTINUOUS
 10
3.828880
 20
3.003440
  0
SEQEND
  8
0
  0
SOLID
  8
0
 62
    15
 10
3.830200
 20
3.000800
 11
4.461160
 21
3.372160
 12
4.079680
 22
2.927320
 13
4.710640
 23
3.298680
  0
POLYLINE
  8
0
  6
CONTINUOUS
 66
     1
 40
0.000000
 41
0.000000
  0
VERTEX
  8
0
  6
CONTINUOUS
 10
3.830200
 20
3.000800
  0
VERTEX
  8
0
  6
CONTINUOUS
 10
4.461160
 20
3.372160
  0
VERTEX
  8
0
  6
CONTINUOUS
 10
4.710640
 20
3.298680
  0
VERTEX
  8
0
  6
CONTINUOUS
 10
4.079680
 20
2.927320
  0
VERTEX
  8
0
  6
CONTINUOUS
 10
3.830200
 20
3.000800
  0
SEQEND
  8
0
  0
SOLID
  8
0
 62
    15
 10
3.828880
 20
2.650120
 11
4.459840
 21
3.021480
 12
3.828880
 22
2.644840
 13
4.459840
 23
3.016200
  0
POLYLINE
  8
0
  6
CONTINUOUS
 66
     1
 40
0.000000
 41
0.000000
  0
VERTEX
  8
0
  6
CONTINUOUS
 10
3.828880
 20
2.650120
  0
VERTEX
  8
0
  6
CONTINUOUS
 10
4.459840
 20
3.021480
  0
VERTEX
  8
0
  6
CONTINUOUS
 10
4.459840
 20
3.016200
  0
VERTEX
  8
0
  6
CONTINUOUS
 10
3.828880
 20
2.644840
  0
VERTEX
  8
0
  6
CONTINUOUS
 10
3.828880
 20
2.650120
  0
SEQEND
  8
0
  0
SOLID
  8
0
 62
    15
 10
4.079680
 20
2.927320
 11
4.710640
 21
3.298680
 12
4.079680
 22
2.735480
 13
4.710640
 23
3.106840
  0
POLYLINE
  8
0
  6
CONTINUOUS
 66
     1
 40
0.000000
 41
0.000000
  0
VERTEX
  8
0
  6
CONTINUOUS
 10
4.079680
 20
2.927320
  0
VERTEX
  8
0
  6
CONTINUOUS
 10
4.710640
 20
3.298680
  0
VERTEX
  8
0
  6
CONTINUOUS
 10
4.710640
 20
3.106840
  0
VERTEX
  8
0
  6
CONTINUOUS
 10
4.079680
 20
2.735480
  0
VERTEX
  8
0
  6
CONTINUOUS
 10
4.079680
 20
2.927320
  0
SEQEND
  8
0
  0
POLYLINE
  8
0
  6
CONTINUOUS
 66
     1
 40
0.000000
 41
0.000000
  0
VERTEX
  8
0
  6
CONTINUOUS
 10
3.828880
 20
2.644840
  0
VERTEX
  8
0
  6
CONTINUOUS
 10
3.828880
 20
2.148960
  0
VERTEX
  8
0
  6
CONTINUOUS
 10
3.830200
 20
2.145000
  0
VERTEX
  8
0
  6
CONTINUOUS
 10
1.799600
 20
2.145000
  0
VERTEX
  8
0
  6
CONTINUOUS
 10
1.799600
 20
4.282080
  0
VERTEX
  8
0
  6
CONTINUOUS
 10
4.079680
 20
4.282080
  0
VERTEX
  8
0
  6
CONTINUOUS
 10
4.078360
 20
4.284720
  0
VERTEX
  8
0
  6
CONTINUOUS
 10
4.078360
 20
3.721960
  0
VERTEX
  8
0
  6
CONTINUOUS
 10
3.831520
 20
3.648920
  0
VERTEX
  8
0
  6
CONTINUOUS
 10
3.830200
 20
3.647600
  0
VERTEX
  8
0
  6
CONTINUOUS
 10
3.830200
 20
3.492720
  0
VERTEX
  8
0
  6
CONTINUOUS
 10
4.078360
 20
3.410000
  0
VERTEX
  8
0
  6
CONTINUOUS
 10
4.078360
 20
3.235320
  0
VERTEX
  8
0
  6
CONTINUOUS
 10
3.828880
 20
3.157000
  0
VERTEX
  8
0
  6
CONTINUOUS
 10
3.828880
 20
3.003440
  0
VERTEX
  8
0
  6
CONTINUOUS
 10
3.830200
 20
3.000800
  0
VERTEX
  8
0
  6
CONTINUOUS
 10
4.079680
 20
2.927320
  0
VERTEX
  8
0
  6
CONTINUOUS
 10
4.079680
 20
2.735480
  0
VERTEX
  8
0
  6
CONTINUOUS
 10
3.828880
 20
2.650120
  0
VERTEX
  8
0
  6
CONTINUOUS
 10
3.828880
 20
2.644840
  0
SEQEND
  8
0
  0
SOLID
  8
0
 62
    15
 10
7.103360
 20
4.275480
 11
7.742240
 21
4.653440
 12
7.103360
 22
2.137960
 13
7.742240
 23
2.515920
  0
POLYLINE
  8
0
  6
CONTINUOUS
 66
     1
 40
0.000000
 41
0.000000
  0
VERTEX
  8
0
  6
CONTINUOUS
 10
7.103360
 20
4.275480
  0
VERTEX
  8
0
  6
CONTINUOUS
 10
7.742240
 20
4.653440
  0
VERTEX
  8
0
  6
CONTINUOUS
 10
7.742240
 20
2.515920
  0
VERTEX
  8
0
  6
CONTINUOUS
 10
7.103360
 20
2.137960
  0
VERTEX
  8
0
  6
CONTINUOUS
 10
7.103360
 20
4.275480
  0
SEQEND
  8
0
  0
SOLID
  8
0
 62
     7
 10
4.823720
 20
2.137960
 11
5.462600
 21
2.515920
 12
4.825040
 22
2.135320
 13
5.463920
 23
2.513280
  0
POLYLINE
  8
0
  6
CONTINUOUS
 66
     1
 40
0.000000
 41
0.000000
  0
VERTEX
  8
0
  6
CONTINUOUS
 10
4.823720
 20
2.137960
  0
VERTEX
  8
0
  6
CONTINUOUS
 10
5.462600
 20
2.515920
  0
VERTEX
  8
0
  6
CONTINUOUS
 10
5.463920
 20
2.513280
  0
VERTEX
  8
0
  6
CONTINUOUS
 10
4.825040
 20
2.135320
  0
VERTEX
  8
0
  6
CONTINUOUS
 10
4.823720
 20
2.137960
  0
SEQEND
  8
0
  0
SOLID
  8
0
 62
    15
 10
4.825040
 20
2.698080
 11
5.463920
 21
3.076040
 12
5.071440
 22
2.771560
 13
5.710320
 23
3.149520
  0
POLYLINE
  8
0
  6
CONTINUOUS
 66
     1
 40
0.000000
 41
0.000000
  0
VERTEX
  8
0
  6
CONTINUOUS
 10
4.825040
 20
2.698080
  0
VERTEX
  8
0
  6
CONTINUOUS
 10
5.463920
 20
3.076040
  0
VERTEX
  8
0
  6
CONTINUOUS
 10
5.710320
 20
3.149520
  0
VERTEX
  8
0
  6
CONTINUOUS
 10
5.071440
 20
2.771560
  0
VERTEX
  8
0
  6
CONTINUOUS
 10
4.825040
 20
2.698080
  0
SEQEND
  8
0
  0
SOLID
  8
0
 62
    15
 10
4.825040
 20
3.184720
 11
5.463920
 21
3.562680
 12
5.074080
 22
3.263480
 13
5.712960
 23
3.641440
  0
POLYLINE
  8
0
  6
CONTINUOUS
 66
     1
 40
0.000000
 41
0.000000
  0
VERTEX
  8
0
  6
CONTINUOUS
 10
4.825040
 20
3.184720
  0
VERTEX
  8
0
  6
CONTINUOUS
 10
5.463920
 20
3.562680
  0
VERTEX
  8
0
  6
CONTINUOUS
 10
5.712960
 20
3.641440
  0
VERTEX
  8
0
  6
CONTINUOUS
 10
5.074080
 20
3.263480
  0
VERTEX
  8
0
  6
CONTINUOUS
 10
4.825040
 20
3.184720
  0
SEQEND
  8
0
  0
SOLID
  8
0
 62
    15
 10
4.823720
 20
3.684560
 11
5.462600
 21
4.062520
 12
5.074080
 22
3.769920
 13
5.712960
 23
4.147880
  0
POLYLINE
  8
0
  6
CONTINUOUS
 66
     1
 40
0.000000
 41
0.000000
  0
VERTEX
  8
0
  6
CONTINUOUS
 10
4.823720
 20
3.684560
  0
VERTEX
  8
0
  6
CONTINUOUS
 10
5.462600
 20
4.062520
  0
VERTEX
  8
0
  6
CONTINUOUS
 10
5.712960
 20
4.147880
  0
VERTEX
  8
0
  6
CONTINUOUS
 10
5.074080
 20
3.769920
  0
VERTEX
  8
0
  6
CONTINUOUS
 10
4.823720
 20
3.684560
  0
SEQEND
  8
0
  0
SOLID
  8
0
 62
    15
 10
5.072760
 20
4.275480
 11
5.711640
 21
4.653440
 12
7.103360
 22
4.275480
 13
7.742240
 23
4.653440
  0
POLYLINE
  8
0
  6
CONTINUOUS
 66
     1
 40
0.000000
 41
0.000000
  0
VERTEX
  8
0
  6
CONTINUOUS
 10
5.072760
 20
4.275480
  0
VERTEX
  8
0
  6
CONTINUOUS
 10
5.711640
 20
4.653440
  0
VERTEX
  8
0
  6
CONTINUOUS
 10
7.742240
 20
4.653440
  0
VERTEX
  8
0
  6
CONTINUOUS
 10
7.103360
 20
4.275480
  0
VERTEX
  8
0
  6
CONTINUOUS
 10
5.072760
 20
4.275480
  0
SEQEND
  8
0
  0
POLYLINE
  8
0
  6
CONTINUOUS
 66
     1
 40
0.000000
 41
0.000000
  0
VERTEX
  8
0
  6
CONTINUOUS
 10
5.074080
 20
3.775200
  0
VERTEX
  8
0
  6
CONTINUOUS
 10
5.074080
 20
4.271520
  0
VERTEX
  8
0
  6
CONTINUOUS
 10
5.072760
 20
4.275480
  0
VERTEX
  8
0
  6
CONTINUOUS
 10
7.103360
 20
4.275480
  0
VERTEX
  8
0
  6
CONTINUOUS
 10
7.103360
 20
2.137960
  0
VERTEX
  8
0
  6
CONTINUOUS
 10
4.823720
 20
2.137960
  0
VERTEX
  8
0
  6
CONTINUOUS
 10
4.825040
 20
2.135320
  0
VERTEX
  8
0
  6
CONTINUOUS
 10
4.825040
 20
2.698080
  0
VERTEX
  8
0
  6
CONTINUOUS
 10
5.071440
 20
2.771560
  0
VERTEX
  8
0
  6
CONTINUOUS
 10
5.072760
 20
2.772880
  0
VERTEX
  8
0
  6
CONTINUOUS
 10
5.072760
 20
2.927320
  0
VERTEX
  8
0
  6
CONTINUOUS
 10
4.825040
 20
3.010040
  0
VERTEX
  8
0
  6
CONTINUOUS
 10
4.825040
 20
3.184720
  0
VERTEX
  8
0
  6
CONTINUOUS
 10
5.074080
 20
3.263480
  0
VERTEX
  8
0
  6
CONTINUOUS
 10
5.074080
 20
3.416600
  0
VERTEX
  8
0
  6
CONTINUOUS
 10
5.072760
 20
3.419240
  0
VERTEX
  8
0
  6
CONTINUOUS
 10
4.823720
 20
3.492720
  0
VERTEX
  8
0
  6
CONTINUOUS
 10
4.823720
 20
3.684560
  0
VERTEX
  8
0
  6
CONTINUOUS
 10
5.074080
 20
3.769920
  0
VERTEX
  8
0
  6
CONTINUOUS
 10
5.074080
 20
3.775200
  0
SEQEND
  8
0
  0
TEXT
  8
0
 10
4.474800
 20
1.874840
 40
0.138118
  1
BA  113
 41
1.000000
  7
SN1
 71
     0
 72
     5
 11
5.065289
 21
1.874840
  0
TEXT
  8
0
 10
4.302320
 20
1.683440
 40
0.138118
  1
1-5/16" max.
 41
1.000000
  7
SN1
 71
     0
 72
     5
 11
5.236344
 21
1.683440
  0
ENDSEC
  0
EOF
