  0
SECTION
  2
HEADER
  9
$ACADVER
  1
AC1006
  9
$EXTMIN
 10
2.303840
 20
1.297120
  9
$EXTMAX
 10
6.325440
 20
7.501560
  9
$LTSCALE
 40
0.044000
  9
$PDMODE
 70
    35
  9
$PDSIZE
 40
0.035200
  0
ENDSEC
  0
SECTION
  2
TABLES
  0
TABLE
  2
LTYPE
 70
     9
  0
LTYPE
  2
CONTINUOUS
 70
    64
  3
Solid line
 72
    65
 73
     0
 40
0.000000
  0
LTYPE
  2
DASHED
 70
    64
  3
__ __ __ __ __ __ __ __ __ __ __ __ __ __ __
 72
    65
 73
     2
 40
0.000330
 49
0.000220
 49
-0.000110
  0
LTYPE
  2
HIDDEN
 70
    64
  3
 _ _ _ _ _ _ _ _ _ _ _ _ _ _ _ _ _ _ _ _ _ _
 72
    65
 73
     2
 40
0.000165
 49
0.000110
 49
-0.000055
  0
LTYPE
  2
CENTER
 70
    64
  3
____ _ ____ _ ____ _ ____ _ ____ _ ____ _ ____
 72
    65
 73
     4
 40
0.000880
 49
0.000550
 49
-0.000110
 49
0.000110
 49
-0.000110
  0
LTYPE
  2
PHANTOM
 70
    64
  3
_____ _ _ _____ _ _ _____ _ _ _____ _ _ ____
 72
    65
 73
     6
 40
0.001100
 49
0.000550
 49
-0.000110
 49
0.000110
 49
-0.000110
 49
0.000110
 49
-0.000110
  0
LTYPE
  2
DOT
 70
    64
  3
...............................................
 72
    65
 73
     2
 40
0.000110
 49
0.000000
 49
-0.000110
  0
LTYPE
  2
DASHDOT
 70
    64
  3
__ . __ . __ . __ . __ . __ . __ . __ . __ . __
 72
    65
 73
     4
 40
0.000440
 49
0.000220
 49
-0.000110
 49
0.000000
 49
-0.000110
  0
LTYPE
  2
BORDER
 70
    64
  3
__ __ . __ __ . __ __ . __ __ . __ __ . __ __
 72
    65
 73
     6
 40
0.000770
 49
0.000220
 49
-0.000110
 49
0.000220
 49
-0.000110
 49
0.000000
 49
-0.000110
  0
LTYPE
  2
DIVIDE
 70
    64
  3
__ . . __ . . __ . . __ . . __ . . __ . . __
 72
    65
 73
     6
 40
0.000550
 49
0.000220
 49
-0.000110
 49
0.000000
 49
-0.000110
 49
0.000000
 49
-0.000110
  0
LTYPE
  2
DOTDOT
 70
    64
  3
 . .  . .  . .  . .  . .  . . 
 72
    65
 73
     5
 40
0.000242
 49
-0.000110
 49
0.000000
 49
-0.000110
 49
0.000000
 49
-0.000110
  0
ENDTAB
  0
TABLE
  2
STYLE
 70
     2
  0
STYLE
 70
     0
  2
SN0
 40
0.000000
 41
0.000440
 50
0.000000
 71
     0
 42
0.000000
  3
ROMAND
  0
STYLE
 70
    68
  2
SV0
 40
0.000000
 41
0.000440
 50
0.000000
 71
     0
 42
0.000000
  3
ROMAND
  0
ENDTAB
  0
TABLE
  2
LAYER
 70
     3
  0
LAYER
  2
FOREGROUND
 70
    64
 62
     7
  6
CONTINUOUS
  0
LAYER
  2
BACKGROUND
 70
    65
 62
    -7
  6
CONTINUOUS
  0
LAYER
  2
0
 70
    64
 62
     7
  6
CONTINUOUS
  0
ENDTAB
  0
ENDSEC
  0
SECTION
  2
ENTITIES
  0
POLYLINE
  8
FOREGROUND
  6
CONTINUOUS
 66
     1
 40
0.000000
 41
0.000000
  0
VERTEX
  8
FOREGROUND
  6
CONTINUOUS
 10
0.000000
 20
8.798680
  0
VERTEX
  8
FOREGROUND
  6
CONTINUOUS
 10
8.499920
 20
8.798680
  0
VERTEX
  8
FOREGROUND
  6
CONTINUOUS
 10
8.499920
 20
-2.201320
  0
VERTEX
  8
FOREGROUND
  6
CONTINUOUS
 10
0.000000
 20
-2.201320
  0
VERTEX
  8
FOREGROUND
  6
CONTINUOUS
 10
0.000000
 20
8.798680
  0
SEQEND
  8
0
  0
POLYLINE
  8
FOREGROUND
  6
CONTINUOUS
 66
     1
 40
0.000000
 41
0.000000
  0
VERTEX
  8
FOREGROUND
  6
CONTINUOUS
 10
0.000000
 20
8.798680
  0
VERTEX
  8
FOREGROUND
  6
CONTINUOUS
 10
8.499920
 20
8.798680
  0
VERTEX
  8
FOREGROUND
  6
CONTINUOUS
 10
8.499920
 20
-2.201320
  0
VERTEX
  8
FOREGROUND
  6
CONTINUOUS
 10
0.000000
 20
-2.201320
  0
VERTEX
  8
FOREGROUND
  6
CONTINUOUS
 10
0.000000
 20
8.798680
  0
SEQEND
  8
0
  0
POLYLINE
  8
0
  6
CONTINUOUS
 66
     1
 40
0.014080
 41
0.014080
  0
VERTEX
  8
0
  6
CONTINUOUS
 10
4.358640
 20
7.489680
  0
VERTEX
  8
0
  6
CONTINUOUS
 10
4.389000
 20
7.486600
  0
VERTEX
  8
0
  6
CONTINUOUS
 10
4.420240
 20
7.481760
  0
VERTEX
  8
0
  6
CONTINUOUS
 10
4.484480
 20
7.465040
  0
VERTEX
  8
0
  6
CONTINUOUS
 10
4.550920
 20
7.441280
  0
VERTEX
  8
0
  6
CONTINUOUS
 10
4.620000
 20
7.410920
  0
VERTEX
  8
0
  6
CONTINUOUS
 10
4.726920
 20
7.355920
  0
VERTEX
  8
0
  6
CONTINUOUS
 10
4.837360
 20
7.292560
  0
VERTEX
  8
0
  6
CONTINUOUS
 10
5.066160
 20
7.156160
  0
VERTEX
  8
0
  6
CONTINUOUS
 10
5.182760
 20
7.089720
  0
VERTEX
  8
0
  6
CONTINUOUS
 10
5.261080
 20
7.048360
  0
VERTEX
  8
0
  6
CONTINUOUS
 10
5.339400
 20
7.011400
  0
VERTEX
  8
0
  6
CONTINUOUS
 10
5.417720
 20
6.978840
  0
VERTEX
  8
0
  6
CONTINUOUS
 10
5.495600
 20
6.952440
  0
VERTEX
  8
0
  6
CONTINUOUS
 10
5.534320
 20
6.941880
  0
VERTEX
  8
0
  6
CONTINUOUS
 10
5.584480
 20
6.921640
  0
VERTEX
  8
0
  6
CONTINUOUS
 10
5.638600
 20
6.892600
  0
VERTEX
  8
0
  6
CONTINUOUS
 10
5.694920
 20
6.855200
  0
VERTEX
  8
0
  6
CONTINUOUS
 10
5.752120
 20
6.809440
  0
VERTEX
  8
0
  6
CONTINUOUS
 10
5.808440
 20
6.755760
  0
VERTEX
  8
0
  6
CONTINUOUS
 10
5.862120
 20
6.694160
  0
VERTEX
  8
0
  6
CONTINUOUS
 10
5.912280
 20
6.624640
  0
VERTEX
  8
0
  6
CONTINUOUS
 10
5.942640
 20
6.574040
  0
VERTEX
  8
0
  6
CONTINUOUS
 10
5.969920
 20
6.520360
  0
VERTEX
  8
0
  6
CONTINUOUS
 10
5.994120
 20
6.463600
  0
VERTEX
  8
0
  6
CONTINUOUS
 10
6.013920
 20
6.403320
  0
VERTEX
  8
0
  6
CONTINUOUS
 10
6.022720
 20
6.372080
  0
VERTEX
  8
0
  6
CONTINUOUS
 10
6.035920
 20
6.306960
  0
VERTEX
  8
0
  6
CONTINUOUS
 10
6.035920
 20
6.244920
  0
VERTEX
  8
0
  6
CONTINUOUS
 10
6.031960
 20
6.163080
  0
VERTEX
  8
0
  6
CONTINUOUS
 10
6.027120
 20
6.115120
  0
VERTEX
  8
0
  6
CONTINUOUS
 10
6.016120
 20
6.051760
  0
VERTEX
  8
0
  6
CONTINUOUS
 10
6.001600
 20
5.998080
  0
VERTEX
  8
0
  6
CONTINUOUS
 10
5.984000
 20
5.952320
  0
VERTEX
  8
0
  6
CONTINUOUS
 10
5.970800
 20
5.925040
  0
VERTEX
  8
0
  6
CONTINUOUS
 10
5.956720
 20
5.900400
  0
VERTEX
  8
0
  6
CONTINUOUS
 10
5.925480
 20
5.855960
  0
VERTEX
  8
0
  6
CONTINUOUS
 10
5.838360
 20
5.752560
  0
VERTEX
  8
0
  6
CONTINUOUS
 10
5.793920
 20
5.691400
  0
VERTEX
  8
0
  6
CONTINUOUS
 10
5.768400
 20
5.647400
  0
VERTEX
  8
0
  6
CONTINUOUS
 10
5.743760
 20
5.595920
  0
VERTEX
  8
0
  6
CONTINUOUS
 10
5.720880
 20
5.536080
  0
VERTEX
  8
0
  6
CONTINUOUS
 10
5.700200
 20
5.465680
  0
VERTEX
  8
0
  6
CONTINUOUS
 10
5.682160
 20
5.382960
  0
VERTEX
  8
0
  6
CONTINUOUS
 10
5.667200
 20
5.287040
  0
VERTEX
  8
0
  6
CONTINUOUS
 10
5.659280
 20
5.214880
  0
VERTEX
  8
0
  6
CONTINUOUS
 10
5.650040
 20
5.093000
  0
VERTEX
  8
0
  6
CONTINUOUS
 10
5.646520
 20
5.001920
  0
VERTEX
  8
0
  6
CONTINUOUS
 10
5.642560
 20
5.000600
  0
VERTEX
  8
0
  6
CONTINUOUS
 10
3.042600
 20
5.000600
  0
VERTEX
  8
0
  6
CONTINUOUS
 10
3.041280
 20
4.999280
  0
VERTEX
  8
0
  6
CONTINUOUS
 10
3.035120
 20
5.133040
  0
VERTEX
  8
0
  6
CONTINUOUS
 10
3.025000
 20
5.249200
  0
VERTEX
  8
0
  6
CONTINUOUS
 10
3.010920
 20
5.349960
  0
VERTEX
  8
0
  6
CONTINUOUS
 10
2.993760
 20
5.437080
  0
VERTEX
  8
0
  6
CONTINUOUS
 10
2.973960
 20
5.511000
  0
VERTEX
  8
0
  6
CONTINUOUS
 10
2.951960
 20
5.574360
  0
VERTEX
  8
0
  6
CONTINUOUS
 10
2.927760
 20
5.628480
  0
VERTEX
  8
0
  6
CONTINUOUS
 10
2.902680
 20
5.674680
  0
VERTEX
  8
0
  6
CONTINUOUS
 10
2.867480
 20
5.726600
  0
VERTEX
  8
0
  6
CONTINUOUS
 10
2.813800
 20
5.792160
  0
VERTEX
  8
0
  6
CONTINUOUS
 10
2.762320
 20
5.853320
  0
VERTEX
  8
0
  6
CONTINUOUS
 10
2.731080
 20
5.897760
  0
VERTEX
  8
0
  6
CONTINUOUS
 10
2.710400
 20
5.935600
  0
VERTEX
  8
0
  6
CONTINUOUS
 10
2.691920
 20
5.979600
  0
VERTEX
  8
0
  6
CONTINUOUS
 10
2.676080
 20
6.030200
  0
VERTEX
  8
0
  6
CONTINUOUS
 10
2.664200
 20
6.090040
  0
VERTEX
  8
0
  6
CONTINUOUS
 10
2.658040
 20
6.135800
  0
VERTEX
  8
0
  6
CONTINUOUS
 10
2.652760
 20
6.213680
  0
VERTEX
  8
0
  6
CONTINUOUS
 10
2.651440
 20
6.272640
  0
VERTEX
  8
0
  6
CONTINUOUS
 10
2.651880
 20
6.304320
  0
VERTEX
  8
0
  6
CONTINUOUS
 10
2.665080
 20
6.369440
  0
VERTEX
  8
0
  6
CONTINUOUS
 10
2.683120
 20
6.431040
  0
VERTEX
  8
0
  6
CONTINUOUS
 10
2.693680
 20
6.460960
  0
VERTEX
  8
0
  6
CONTINUOUS
 10
2.717880
 20
6.517720
  0
VERTEX
  8
0
  6
CONTINUOUS
 10
2.745160
 20
6.571400
  0
VERTEX
  8
0
  6
CONTINUOUS
 10
2.775520
 20
6.622000
  0
VERTEX
  8
0
  6
CONTINUOUS
 10
2.808080
 20
6.669080
  0
VERTEX
  8
0
  6
CONTINUOUS
 10
2.842840
 20
6.712640
  0
VERTEX
  8
0
  6
CONTINUOUS
 10
2.897840
 20
6.771600
  0
VERTEX
  8
0
  6
CONTINUOUS
 10
2.935240
 20
6.806800
  0
VERTEX
  8
0
  6
CONTINUOUS
 10
2.992440
 20
6.852560
  0
VERTEX
  8
0
  6
CONTINUOUS
 10
3.048760
 20
6.889960
  0
VERTEX
  8
0
  6
CONTINUOUS
 10
3.102880
 20
6.919000
  0
VERTEX
  8
0
  6
CONTINUOUS
 10
3.153040
 20
6.939240
  0
VERTEX
  8
0
  6
CONTINUOUS
 10
3.191760
 20
6.949800
  0
VERTEX
  8
0
  6
CONTINUOUS
 10
3.269640
 20
6.976640
  0
VERTEX
  8
0
  6
CONTINUOUS
 10
3.348400
 20
7.009200
  0
VERTEX
  8
0
  6
CONTINUOUS
 10
3.427160
 20
7.046600
  0
VERTEX
  8
0
  6
CONTINUOUS
 10
3.545080
 20
7.109960
  0
VERTEX
  8
0
  6
CONTINUOUS
 10
3.700840
 20
7.201920
  0
VERTEX
  8
0
  6
CONTINUOUS
 10
3.928320
 20
7.337440
  0
VERTEX
  8
0
  6
CONTINUOUS
 10
4.037000
 20
7.396400
  0
VERTEX
  8
0
  6
CONTINUOUS
 10
4.106960
 20
7.429840
  0
VERTEX
  8
0
  6
CONTINUOUS
 10
4.175160
 20
7.457560
  0
VERTEX
  8
0
  6
CONTINUOUS
 10
4.240720
 20
7.478240
  0
VERTEX
  8
0
  6
CONTINUOUS
 10
4.272840
 20
7.485720
  0
VERTEX
  8
0
  6
CONTINUOUS
 10
4.319480
 20
7.492320
  0
VERTEX
  8
0
  6
CONTINUOUS
 10
4.334440
 20
7.493640
  0
VERTEX
  8
0
  6
CONTINUOUS
 10
4.358640
 20
7.489680
  0
SEQEND
  8
0
  0
SOLID
  8
0
 62
    15
 10
5.659280
 20
2.814680
 11
6.296400
 21
3.194400
 12
5.636400
 22
2.751760
 13
6.273520
 23
3.131040
  0
POLYLINE
  8
0
  6
CONTINUOUS
 66
     1
 40
0.000000
 41
0.000000
  0
VERTEX
  8
0
  6
CONTINUOUS
 10
5.659280
 20
2.814680
  0
VERTEX
  8
0
  6
CONTINUOUS
 10
6.296400
 20
3.194400
  0
VERTEX
  8
0
  6
CONTINUOUS
 10
6.273520
 20
3.131040
  0
VERTEX
  8
0
  6
CONTINUOUS
 10
5.636400
 20
2.751760
  0
VERTEX
  8
0
  6
CONTINUOUS
 10
5.659280
 20
2.814680
  0
SEQEND
  8
0
  0
SOLID
  8
0
 62
    15
 10
4.136880
 20
4.264480
 11
4.774000
 21
4.644200
 12
4.272400
 22
4.210360
 13
4.909520
 23
4.590080
  0
POLYLINE
  8
0
  6
CONTINUOUS
 66
     1
 40
0.000000
 41
0.000000
  0
VERTEX
  8
0
  6
CONTINUOUS
 10
4.136880
 20
4.264480
  0
VERTEX
  8
0
  6
CONTINUOUS
 10
4.774000
 20
4.644200
  0
VERTEX
  8
0
  6
CONTINUOUS
 10
4.909520
 20
4.590080
  0
VERTEX
  8
0
  6
CONTINUOUS
 10
4.272400
 20
4.210360
  0
VERTEX
  8
0
  6
CONTINUOUS
 10
4.136880
 20
4.264480
  0
SEQEND
  8
0
  0
SOLID
  8
0
 62
    15
 10
4.272400
 20
4.210360
 11
4.909520
 21
4.590080
 12
4.415840
 22
4.135120
 13
5.052520
 23
4.514400
  0
POLYLINE
  8
0
  6
CONTINUOUS
 66
     1
 40
0.000000
 41
0.000000
  0
VERTEX
  8
0
  6
CONTINUOUS
 10
4.272400
 20
4.210360
  0
VERTEX
  8
0
  6
CONTINUOUS
 10
4.909520
 20
4.590080
  0
VERTEX
  8
0
  6
CONTINUOUS
 10
5.052520
 20
4.514400
  0
VERTEX
  8
0
  6
CONTINUOUS
 10
4.415840
 20
4.135120
  0
VERTEX
  8
0
  6
CONTINUOUS
 10
4.272400
 20
4.210360
  0
SEQEND
  8
0
  0
SOLID
  8
0
 62
    15
 10
4.415840
 20
4.135120
 11
5.052520
 21
4.514400
 12
4.565000
 22
4.047120
 13
5.202120
 23
4.426840
  0
POLYLINE
  8
0
  6
CONTINUOUS
 66
     1
 40
0.000000
 41
0.000000
  0
VERTEX
  8
0
  6
CONTINUOUS
 10
4.415840
 20
4.135120
  0
VERTEX
  8
0
  6
CONTINUOUS
 10
5.052520
 20
4.514400
  0
VERTEX
  8
0
  6
CONTINUOUS
 10
5.202120
 20
4.426840
  0
VERTEX
  8
0
  6
CONTINUOUS
 10
4.565000
 20
4.047120
  0
VERTEX
  8
0
  6
CONTINUOUS
 10
4.415840
 20
4.135120
  0
SEQEND
  8
0
  0
SOLID
  8
0
 62
    15
 10
4.565000
 20
4.047120
 11
5.202120
 21
4.426840
 12
4.641560
 22
4.001360
 13
5.278240
 23
4.380640
  0
POLYLINE
  8
0
  6
CONTINUOUS
 66
     1
 40
0.000000
 41
0.000000
  0
VERTEX
  8
0
  6
CONTINUOUS
 10
4.565000
 20
4.047120
  0
VERTEX
  8
0
  6
CONTINUOUS
 10
5.202120
 20
4.426840
  0
VERTEX
  8
0
  6
CONTINUOUS
 10
5.278240
 20
4.380640
  0
VERTEX
  8
0
  6
CONTINUOUS
 10
4.641560
 20
4.001360
  0
VERTEX
  8
0
  6
CONTINUOUS
 10
4.565000
 20
4.047120
  0
SEQEND
  8
0
  0
SOLID
  8
0
 62
    15
 10
4.641560
 20
4.001360
 11
5.278240
 21
4.380640
 12
4.718560
 22
3.955160
 13
5.355680
 23
4.334880
  0
POLYLINE
  8
0
  6
CONTINUOUS
 66
     1
 40
0.000000
 41
0.000000
  0
VERTEX
  8
0
  6
CONTINUOUS
 10
4.641560
 20
4.001360
  0
VERTEX
  8
0
  6
CONTINUOUS
 10
5.278240
 20
4.380640
  0
VERTEX
  8
0
  6
CONTINUOUS
 10
5.355680
 20
4.334880
  0
VERTEX
  8
0
  6
CONTINUOUS
 10
4.718560
 20
3.955160
  0
VERTEX
  8
0
  6
CONTINUOUS
 10
4.641560
 20
4.001360
  0
SEQEND
  8
0
  0
SOLID
  8
0
 62
    15
 10
4.718560
 20
3.955160
 11
5.355680
 21
4.334880
 12
4.874760
 22
3.868040
 13
5.511440
 23
4.247760
  0
POLYLINE
  8
0
  6
CONTINUOUS
 66
     1
 40
0.000000
 41
0.000000
  0
VERTEX
  8
0
  6
CONTINUOUS
 10
4.718560
 20
3.955160
  0
VERTEX
  8
0
  6
CONTINUOUS
 10
5.355680
 20
4.334880
  0
VERTEX
  8
0
  6
CONTINUOUS
 10
5.511440
 20
4.247760
  0
VERTEX
  8
0
  6
CONTINUOUS
 10
4.874760
 20
3.868040
  0
VERTEX
  8
0
  6
CONTINUOUS
 10
4.718560
 20
3.955160
  0
SEQEND
  8
0
  0
SOLID
  8
0
 62
    15
 10
4.874760
 20
3.868040
 11
5.511440
 21
4.247760
 12
5.031400
 22
3.793680
 13
5.668520
 23
4.173400
  0
POLYLINE
  8
0
  6
CONTINUOUS
 66
     1
 40
0.000000
 41
0.000000
  0
VERTEX
  8
0
  6
CONTINUOUS
 10
4.874760
 20
3.868040
  0
VERTEX
  8
0
  6
CONTINUOUS
 10
5.511440
 20
4.247760
  0
VERTEX
  8
0
  6
CONTINUOUS
 10
5.668520
 20
4.173400
  0
VERTEX
  8
0
  6
CONTINUOUS
 10
5.031400
 20
3.793680
  0
VERTEX
  8
0
  6
CONTINUOUS
 10
4.874760
 20
3.868040
  0
SEQEND
  8
0
  0
SOLID
  8
0
 62
    15
 10
5.031400
 20
3.793680
 11
5.668520
 21
4.173400
 12
5.187160
 22
3.741320
 13
5.823840
 23
4.120600
  0
POLYLINE
  8
0
  6
CONTINUOUS
 66
     1
 40
0.000000
 41
0.000000
  0
VERTEX
  8
0
  6
CONTINUOUS
 10
5.031400
 20
3.793680
  0
VERTEX
  8
0
  6
CONTINUOUS
 10
5.668520
 20
4.173400
  0
VERTEX
  8
0
  6
CONTINUOUS
 10
5.823840
 20
4.120600
  0
VERTEX
  8
0
  6
CONTINUOUS
 10
5.187160
 20
3.741320
  0
VERTEX
  8
0
  6
CONTINUOUS
 10
5.031400
 20
3.793680
  0
SEQEND
  8
0
  0
SOLID
  8
0
 62
    15
 10
5.187160
 20
3.741320
 11
5.823840
 21
4.120600
 12
5.254920
 22
3.712280
 13
5.891600
 23
4.091560
  0
POLYLINE
  8
0
  6
CONTINUOUS
 66
     1
 40
0.000000
 41
0.000000
  0
VERTEX
  8
0
  6
CONTINUOUS
 10
5.187160
 20
3.741320
  0
VERTEX
  8
0
  6
CONTINUOUS
 10
5.823840
 20
4.120600
  0
VERTEX
  8
0
  6
CONTINUOUS
 10
5.891600
 20
4.091560
  0
VERTEX
  8
0
  6
CONTINUOUS
 10
5.254920
 20
3.712280
  0
VERTEX
  8
0
  6
CONTINUOUS
 10
5.187160
 20
3.741320
  0
SEQEND
  8
0
  0
SOLID
  8
0
 62
    15
 10
5.254920
 20
3.712280
 11
5.891600
 21
4.091560
 12
5.328400
 22
3.667840
 13
5.965520
 23
4.047120
  0
POLYLINE
  8
0
  6
CONTINUOUS
 66
     1
 40
0.000000
 41
0.000000
  0
VERTEX
  8
0
  6
CONTINUOUS
 10
5.254920
 20
3.712280
  0
VERTEX
  8
0
  6
CONTINUOUS
 10
5.891600
 20
4.091560
  0
VERTEX
  8
0
  6
CONTINUOUS
 10
5.965520
 20
4.047120
  0
VERTEX
  8
0
  6
CONTINUOUS
 10
5.328400
 20
3.667840
  0
VERTEX
  8
0
  6
CONTINUOUS
 10
5.254920
 20
3.712280
  0
SEQEND
  8
0
  0
SOLID
  8
0
 62
    15
 10
5.328400
 20
3.667840
 11
5.965520
 21
4.047120
 12
5.404520
 22
3.608880
 13
6.041640
 23
3.988160
  0
POLYLINE
  8
0
  6
CONTINUOUS
 66
     1
 40
0.000000
 41
0.000000
  0
VERTEX
  8
0
  6
CONTINUOUS
 10
5.328400
 20
3.667840
  0
VERTEX
  8
0
  6
CONTINUOUS
 10
5.965520
 20
4.047120
  0
VERTEX
  8
0
  6
CONTINUOUS
 10
6.041640
 20
3.988160
  0
VERTEX
  8
0
  6
CONTINUOUS
 10
5.404520
 20
3.608880
  0
VERTEX
  8
0
  6
CONTINUOUS
 10
5.328400
 20
3.667840
  0
SEQEND
  8
0
  0
SOLID
  8
0
 62
    15
 10
5.404520
 20
3.608880
 11
6.041640
 21
3.988160
 12
5.479320
 22
3.535400
 13
6.116000
 23
3.915120
  0
POLYLINE
  8
0
  6
CONTINUOUS
 66
     1
 40
0.000000
 41
0.000000
  0
VERTEX
  8
0
  6
CONTINUOUS
 10
5.404520
 20
3.608880
  0
VERTEX
  8
0
  6
CONTINUOUS
 10
6.041640
 20
3.988160
  0
VERTEX
  8
0
  6
CONTINUOUS
 10
6.116000
 20
3.915120
  0
VERTEX
  8
0
  6
CONTINUOUS
 10
5.479320
 20
3.535400
  0
VERTEX
  8
0
  6
CONTINUOUS
 10
5.404520
 20
3.608880
  0
SEQEND
  8
0
  0
SOLID
  8
0
 62
    15
 10
5.479320
 20
3.535400
 11
6.116000
 21
3.915120
 12
5.548400
 22
3.448280
 13
6.185520
 23
3.827560
  0
POLYLINE
  8
0
  6
CONTINUOUS
 66
     1
 40
0.000000
 41
0.000000
  0
VERTEX
  8
0
  6
CONTINUOUS
 10
5.479320
 20
3.535400
  0
VERTEX
  8
0
  6
CONTINUOUS
 10
6.116000
 20
3.915120
  0
VERTEX
  8
0
  6
CONTINUOUS
 10
6.185520
 20
3.827560
  0
VERTEX
  8
0
  6
CONTINUOUS
 10
5.548400
 20
3.448280
  0
VERTEX
  8
0
  6
CONTINUOUS
 10
5.479320
 20
3.535400
  0
SEQEND
  8
0
  0
SOLID
  8
0
 62
    15
 10
5.548400
 20
3.448280
 11
6.185520
 21
3.827560
 12
5.609120
 22
3.347520
 13
6.245800
 23
3.726800
  0
POLYLINE
  8
0
  6
CONTINUOUS
 66
     1
 40
0.000000
 41
0.000000
  0
VERTEX
  8
0
  6
CONTINUOUS
 10
5.548400
 20
3.448280
  0
VERTEX
  8
0
  6
CONTINUOUS
 10
6.185520
 20
3.827560
  0
VERTEX
  8
0
  6
CONTINUOUS
 10
6.245800
 20
3.726800
  0
VERTEX
  8
0
  6
CONTINUOUS
 10
5.609120
 20
3.347520
  0
VERTEX
  8
0
  6
CONTINUOUS
 10
5.548400
 20
3.448280
  0
SEQEND
  8
0
  0
SOLID
  8
0
 62
    15
 10
5.609120
 20
3.347520
 11
6.245800
 21
3.726800
 12
5.656640
 22
3.233120
 13
6.293760
 23
3.612840
  0
POLYLINE
  8
0
  6
CONTINUOUS
 66
     1
 40
0.000000
 41
0.000000
  0
VERTEX
  8
0
  6
CONTINUOUS
 10
5.609120
 20
3.347520
  0
VERTEX
  8
0
  6
CONTINUOUS
 10
6.245800
 20
3.726800
  0
VERTEX
  8
0
  6
CONTINUOUS
 10
6.293760
 20
3.612840
  0
VERTEX
  8
0
  6
CONTINUOUS
 10
5.656640
 20
3.233120
  0
VERTEX
  8
0
  6
CONTINUOUS
 10
5.609120
 20
3.347520
  0
SEQEND
  8
0
  0
SOLID
  8
0
 62
    15
 10
5.656640
 20
3.233120
 11
6.293760
 21
3.612840
 12
5.688320
 22
3.106400
 13
6.325440
 23
3.486120
  0
POLYLINE
  8
0
  6
CONTINUOUS
 66
     1
 40
0.000000
 41
0.000000
  0
VERTEX
  8
0
  6
CONTINUOUS
 10
5.656640
 20
3.233120
  0
VERTEX
  8
0
  6
CONTINUOUS
 10
6.293760
 20
3.612840
  0
VERTEX
  8
0
  6
CONTINUOUS
 10
6.325440
 20
3.486120
  0
VERTEX
  8
0
  6
CONTINUOUS
 10
5.688320
 20
3.106400
  0
VERTEX
  8
0
  6
CONTINUOUS
 10
5.656640
 20
3.233120
  0
SEQEND
  8
0
  0
SOLID
  8
0
 62
    15
 10
5.688320
 20
3.106400
 11
6.325440
 21
3.486120
 12
5.686120
 22
2.988480
 13
6.323240
 23
3.367760
  0
POLYLINE
  8
0
  6
CONTINUOUS
 66
     1
 40
0.000000
 41
0.000000
  0
VERTEX
  8
0
  6
CONTINUOUS
 10
5.688320
 20
3.106400
  0
VERTEX
  8
0
  6
CONTINUOUS
 10
6.325440
 20
3.486120
  0
VERTEX
  8
0
  6
CONTINUOUS
 10
6.323240
 20
3.367760
  0
VERTEX
  8
0
  6
CONTINUOUS
 10
5.686120
 20
2.988480
  0
VERTEX
  8
0
  6
CONTINUOUS
 10
5.688320
 20
3.106400
  0
SEQEND
  8
0
  0
SOLID
  8
0
 62
    15
 10
5.686120
 20
2.988480
 11
6.323240
 21
3.367760
 12
5.676000
 22
2.892560
 13
6.313120
 23
3.271840
  0
POLYLINE
  8
0
  6
CONTINUOUS
 66
     1
 40
0.000000
 41
0.000000
  0
VERTEX
  8
0
  6
CONTINUOUS
 10
5.686120
 20
2.988480
  0
VERTEX
  8
0
  6
CONTINUOUS
 10
6.323240
 20
3.367760
  0
VERTEX
  8
0
  6
CONTINUOUS
 10
6.313120
 20
3.271840
  0
VERTEX
  8
0
  6
CONTINUOUS
 10
5.676000
 20
2.892560
  0
VERTEX
  8
0
  6
CONTINUOUS
 10
5.686120
 20
2.988480
  0
SEQEND
  8
0
  0
SOLID
  8
0
 62
    15
 10
5.676000
 20
2.892560
 11
6.313120
 21
3.271840
 12
5.659280
 22
2.814680
 13
6.296400
 23
3.194400
  0
POLYLINE
  8
0
  6
CONTINUOUS
 66
     1
 40
0.000000
 41
0.000000
  0
VERTEX
  8
0
  6
CONTINUOUS
 10
5.676000
 20
2.892560
  0
VERTEX
  8
0
  6
CONTINUOUS
 10
6.313120
 20
3.271840
  0
VERTEX
  8
0
  6
CONTINUOUS
 10
6.296400
 20
3.194400
  0
VERTEX
  8
0
  6
CONTINUOUS
 10
5.659280
 20
2.814680
  0
VERTEX
  8
0
  6
CONTINUOUS
 10
5.676000
 20
2.892560
  0
SEQEND
  8
0
  0
SOLID
  8
0
 62
    15
 10
4.011040
 20
4.289120
 11
4.648160
 21
4.668840
 12
4.136880
 22
4.264480
 13
4.774000
 23
4.644200
  0
POLYLINE
  8
0
  6
CONTINUOUS
 66
     1
 40
0.000000
 41
0.000000
  0
VERTEX
  8
0
  6
CONTINUOUS
 10
4.011040
 20
4.289120
  0
VERTEX
  8
0
  6
CONTINUOUS
 10
4.648160
 20
4.668840
  0
VERTEX
  8
0
  6
CONTINUOUS
 10
4.774000
 20
4.644200
  0
VERTEX
  8
0
  6
CONTINUOUS
 10
4.136880
 20
4.264480
  0
VERTEX
  8
0
  6
CONTINUOUS
 10
4.011040
 20
4.289120
  0
SEQEND
  8
0
  0
SOLID
  8
0
 62
    15
 10
5.636400
 20
2.751760
 11
6.273520
 21
3.131040
 12
5.577880
 22
2.655400
 13
6.214560
 23
3.034680
  0
POLYLINE
  8
0
  6
CONTINUOUS
 66
     1
 40
0.000000
 41
0.000000
  0
VERTEX
  8
0
  6
CONTINUOUS
 10
5.636400
 20
2.751760
  0
VERTEX
  8
0
  6
CONTINUOUS
 10
6.273520
 20
3.131040
  0
VERTEX
  8
0
  6
CONTINUOUS
 10
6.214560
 20
3.034680
  0
VERTEX
  8
0
  6
CONTINUOUS
 10
5.577880
 20
2.655400
  0
VERTEX
  8
0
  6
CONTINUOUS
 10
5.636400
 20
2.751760
  0
SEQEND
  8
0
  0
SOLID
  8
0
 62
    15
 10
5.577880
 20
2.655400
 11
6.214560
 21
3.034680
 12
5.508800
 22
2.573560
 13
6.145480
 23
2.952840
  0
POLYLINE
  8
0
  6
CONTINUOUS
 66
     1
 40
0.000000
 41
0.000000
  0
VERTEX
  8
0
  6
CONTINUOUS
 10
5.577880
 20
2.655400
  0
VERTEX
  8
0
  6
CONTINUOUS
 10
6.214560
 20
3.034680
  0
VERTEX
  8
0
  6
CONTINUOUS
 10
6.145480
 20
2.952840
  0
VERTEX
  8
0
  6
CONTINUOUS
 10
5.508800
 20
2.573560
  0
VERTEX
  8
0
  6
CONTINUOUS
 10
5.577880
 20
2.655400
  0
SEQEND
  8
0
  0
SOLID
  8
0
 62
    15
 10
5.508800
 20
2.573560
 11
6.145480
 21
2.952840
 12
5.437520
 22
2.476760
 13
6.074640
 23
2.856040
  0
POLYLINE
  8
0
  6
CONTINUOUS
 66
     1
 40
0.000000
 41
0.000000
  0
VERTEX
  8
0
  6
CONTINUOUS
 10
5.508800
 20
2.573560
  0
VERTEX
  8
0
  6
CONTINUOUS
 10
6.145480
 20
2.952840
  0
VERTEX
  8
0
  6
CONTINUOUS
 10
6.074640
 20
2.856040
  0
VERTEX
  8
0
  6
CONTINUOUS
 10
5.437520
 20
2.476760
  0
VERTEX
  8
0
  6
CONTINUOUS
 10
5.508800
 20
2.573560
  0
SEQEND
  8
0
  0
SOLID
  8
0
 62
    15
 10
5.437520
 20
2.476760
 11
6.074640
 21
2.856040
 12
5.404080
 22
2.413400
 13
6.041200
 23
2.793120
  0
POLYLINE
  8
0
  6
CONTINUOUS
 66
     1
 40
0.000000
 41
0.000000
  0
VERTEX
  8
0
  6
CONTINUOUS
 10
5.437520
 20
2.476760
  0
VERTEX
  8
0
  6
CONTINUOUS
 10
6.074640
 20
2.856040
  0
VERTEX
  8
0
  6
CONTINUOUS
 10
6.041200
 20
2.793120
  0
VERTEX
  8
0
  6
CONTINUOUS
 10
5.404080
 20
2.413400
  0
VERTEX
  8
0
  6
CONTINUOUS
 10
5.437520
 20
2.476760
  0
SEQEND
  8
0
  0
SOLID
  8
0
 62
    15
 10
5.404080
 20
2.413400
 11
6.041200
 21
2.793120
 12
5.373280
 22
2.335520
 13
6.010400
 23
2.714800
  0
POLYLINE
  8
0
  6
CONTINUOUS
 66
     1
 40
0.000000
 41
0.000000
  0
VERTEX
  8
0
  6
CONTINUOUS
 10
5.404080
 20
2.413400
  0
VERTEX
  8
0
  6
CONTINUOUS
 10
6.041200
 20
2.793120
  0
VERTEX
  8
0
  6
CONTINUOUS
 10
6.010400
 20
2.714800
  0
VERTEX
  8
0
  6
CONTINUOUS
 10
5.373280
 20
2.335520
  0
VERTEX
  8
0
  6
CONTINUOUS
 10
5.404080
 20
2.413400
  0
SEQEND
  8
0
  0
SOLID
  8
0
 62
    15
 10
5.373280
 20
2.335520
 11
6.010400
 21
2.714800
 12
5.346440
 22
2.238720
 13
5.983120
 23
2.618440
  0
POLYLINE
  8
0
  6
CONTINUOUS
 66
     1
 40
0.000000
 41
0.000000
  0
VERTEX
  8
0
  6
CONTINUOUS
 10
5.373280
 20
2.335520
  0
VERTEX
  8
0
  6
CONTINUOUS
 10
6.010400
 20
2.714800
  0
VERTEX
  8
0
  6
CONTINUOUS
 10
5.983120
 20
2.618440
  0
VERTEX
  8
0
  6
CONTINUOUS
 10
5.346440
 20
2.238720
  0
VERTEX
  8
0
  6
CONTINUOUS
 10
5.373280
 20
2.335520
  0
SEQEND
  8
0
  0
SOLID
  8
0
 62
    15
 10
5.346440
 20
2.238720
 11
5.983120
 21
2.618440
 12
5.324000
 22
2.119920
 13
5.961120
 23
2.499640
  0
POLYLINE
  8
0
  6
CONTINUOUS
 66
     1
 40
0.000000
 41
0.000000
  0
VERTEX
  8
0
  6
CONTINUOUS
 10
5.346440
 20
2.238720
  0
VERTEX
  8
0
  6
CONTINUOUS
 10
5.983120
 20
2.618440
  0
VERTEX
  8
0
  6
CONTINUOUS
 10
5.961120
 20
2.499640
  0
VERTEX
  8
0
  6
CONTINUOUS
 10
5.324000
 20
2.119920
  0
VERTEX
  8
0
  6
CONTINUOUS
 10
5.346440
 20
2.238720
  0
SEQEND
  8
0
  0
SOLID
  8
0
 62
    15
 10
5.324000
 20
2.119920
 11
5.961120
 21
2.499640
 12
5.308160
 22
1.975600
 13
5.944840
 23
2.354880
  0
POLYLINE
  8
0
  6
CONTINUOUS
 66
     1
 40
0.000000
 41
0.000000
  0
VERTEX
  8
0
  6
CONTINUOUS
 10
5.324000
 20
2.119920
  0
VERTEX
  8
0
  6
CONTINUOUS
 10
5.961120
 20
2.499640
  0
VERTEX
  8
0
  6
CONTINUOUS
 10
5.944840
 20
2.354880
  0
VERTEX
  8
0
  6
CONTINUOUS
 10
5.308160
 20
1.975600
  0
VERTEX
  8
0
  6
CONTINUOUS
 10
5.324000
 20
2.119920
  0
SEQEND
  8
0
  0
SOLID
  8
0
 62
    15
 10
5.308160
 20
1.975600
 11
5.944840
 21
2.354880
 12
5.298920
 22
1.801360
 13
5.936040
 23
2.180640
  0
POLYLINE
  8
0
  6
CONTINUOUS
 66
     1
 40
0.000000
 41
0.000000
  0
VERTEX
  8
0
  6
CONTINUOUS
 10
5.308160
 20
1.975600
  0
VERTEX
  8
0
  6
CONTINUOUS
 10
5.944840
 20
2.354880
  0
VERTEX
  8
0
  6
CONTINUOUS
 10
5.936040
 20
2.180640
  0
VERTEX
  8
0
  6
CONTINUOUS
 10
5.298920
 20
1.801360
  0
VERTEX
  8
0
  6
CONTINUOUS
 10
5.308160
 20
1.975600
  0
SEQEND
  8
0
  0
SOLID
  8
0
 62
    15
 10
2.695000
 20
1.800040
 11
3.332120
 21
2.179320
 12
2.693680
 22
1.798720
 13
3.330800
 23
2.178000
  0
POLYLINE
  8
0
  6
CONTINUOUS
 66
     1
 40
0.000000
 41
0.000000
  0
VERTEX
  8
0
  6
CONTINUOUS
 10
2.695000
 20
1.800040
  0
VERTEX
  8
0
  6
CONTINUOUS
 10
3.332120
 20
2.179320
  0
VERTEX
  8
0
  6
CONTINUOUS
 10
3.330800
 20
2.178000
  0
VERTEX
  8
0
  6
CONTINUOUS
 10
2.693680
 20
1.798720
  0
VERTEX
  8
0
  6
CONTINUOUS
 10
2.695000
 20
1.800040
  0
SEQEND
  8
0
  0
SOLID
  8
0
 62
    15
 10
2.737680
 20
3.709640
 11
3.374800
 21
4.088920
 12
2.805880
 22
3.738680
 13
3.442560
 23
4.117960
  0
POLYLINE
  8
0
  6
CONTINUOUS
 66
     1
 40
0.000000
 41
0.000000
  0
VERTEX
  8
0
  6
CONTINUOUS
 10
2.737680
 20
3.709640
  0
VERTEX
  8
0
  6
CONTINUOUS
 10
3.374800
 20
4.088920
  0
VERTEX
  8
0
  6
CONTINUOUS
 10
3.442560
 20
4.117960
  0
VERTEX
  8
0
  6
CONTINUOUS
 10
2.805880
 20
3.738680
  0
VERTEX
  8
0
  6
CONTINUOUS
 10
2.737680
 20
3.709640
  0
SEQEND
  8
0
  0
SOLID
  8
0
 62
    15
 10
2.805880
 20
3.738680
 11
3.442560
 21
4.117960
 12
2.961640
 22
3.791480
 13
3.598320
 23
4.171200
  0
POLYLINE
  8
0
  6
CONTINUOUS
 66
     1
 40
0.000000
 41
0.000000
  0
VERTEX
  8
0
  6
CONTINUOUS
 10
2.805880
 20
3.738680
  0
VERTEX
  8
0
  6
CONTINUOUS
 10
3.442560
 20
4.117960
  0
VERTEX
  8
0
  6
CONTINUOUS
 10
3.598320
 20
4.171200
  0
VERTEX
  8
0
  6
CONTINUOUS
 10
2.961640
 20
3.791480
  0
VERTEX
  8
0
  6
CONTINUOUS
 10
2.805880
 20
3.738680
  0
SEQEND
  8
0
  0
SOLID
  8
0
 62
    15
 10
2.961640
 20
3.791480
 11
3.598320
 21
4.171200
 12
3.118720
 22
3.866280
 13
3.755840
 23
4.246000
  0
POLYLINE
  8
0
  6
CONTINUOUS
 66
     1
 40
0.000000
 41
0.000000
  0
VERTEX
  8
0
  6
CONTINUOUS
 10
2.961640
 20
3.791480
  0
VERTEX
  8
0
  6
CONTINUOUS
 10
3.598320
 20
4.171200
  0
VERTEX
  8
0
  6
CONTINUOUS
 10
3.755840
 20
4.246000
  0
VERTEX
  8
0
  6
CONTINUOUS
 10
3.118720
 20
3.866280
  0
VERTEX
  8
0
  6
CONTINUOUS
 10
2.961640
 20
3.791480
  0
SEQEND
  8
0
  0
SOLID
  8
0
 62
    15
 10
3.430240
 20
4.048000
 11
4.067360
 21
4.427280
 12
3.580720
 22
4.136880
 13
4.217400
 23
4.516600
  0
POLYLINE
  8
0
  6
CONTINUOUS
 66
     1
 40
0.000000
 41
0.000000
  0
VERTEX
  8
0
  6
CONTINUOUS
 10
3.430240
 20
4.048000
  0
VERTEX
  8
0
  6
CONTINUOUS
 10
4.067360
 20
4.427280
  0
VERTEX
  8
0
  6
CONTINUOUS
 10
4.217400
 20
4.516600
  0
VERTEX
  8
0
  6
CONTINUOUS
 10
3.580720
 20
4.136880
  0
VERTEX
  8
0
  6
CONTINUOUS
 10
3.430240
 20
4.048000
  0
SEQEND
  8
0
  0
SOLID
  8
0
 62
    15
 10
3.580720
 20
4.136880
 11
4.217400
 21
4.516600
 12
3.724600
 22
4.213440
 13
4.361720
 23
4.592720
  0
POLYLINE
  8
0
  6
CONTINUOUS
 66
     1
 40
0.000000
 41
0.000000
  0
VERTEX
  8
0
  6
CONTINUOUS
 10
3.580720
 20
4.136880
  0
VERTEX
  8
0
  6
CONTINUOUS
 10
4.217400
 20
4.516600
  0
VERTEX
  8
0
  6
CONTINUOUS
 10
4.361720
 20
4.592720
  0
VERTEX
  8
0
  6
CONTINUOUS
 10
3.724600
 20
4.213440
  0
VERTEX
  8
0
  6
CONTINUOUS
 10
3.580720
 20
4.136880
  0
SEQEND
  8
0
  0
SOLID
  8
0
 62
    15
 10
3.118720
 20
3.866280
 11
3.755840
 21
4.246000
 12
3.275800
 22
3.954720
 13
3.912920
 23
4.334440
  0
POLYLINE
  8
0
  6
CONTINUOUS
 66
     1
 40
0.000000
 41
0.000000
  0
VERTEX
  8
0
  6
CONTINUOUS
 10
3.118720
 20
3.866280
  0
VERTEX
  8
0
  6
CONTINUOUS
 10
3.755840
 20
4.246000
  0
VERTEX
  8
0
  6
CONTINUOUS
 10
3.912920
 20
4.334440
  0
VERTEX
  8
0
  6
CONTINUOUS
 10
3.275800
 20
3.954720
  0
VERTEX
  8
0
  6
CONTINUOUS
 10
3.118720
 20
3.866280
  0
SEQEND
  8
0
  0
SOLID
  8
0
 62
    15
 10
3.724600
 20
4.213440
 11
4.361720
 21
4.592720
 12
3.861000
 22
4.268440
 13
4.497680
 23
4.647720
  0
POLYLINE
  8
0
  6
CONTINUOUS
 66
     1
 40
0.000000
 41
0.000000
  0
VERTEX
  8
0
  6
CONTINUOUS
 10
3.724600
 20
4.213440
  0
VERTEX
  8
0
  6
CONTINUOUS
 10
4.361720
 20
4.592720
  0
VERTEX
  8
0
  6
CONTINUOUS
 10
4.497680
 20
4.647720
  0
VERTEX
  8
0
  6
CONTINUOUS
 10
3.861000
 20
4.268440
  0
VERTEX
  8
0
  6
CONTINUOUS
 10
3.724600
 20
4.213440
  0
SEQEND
  8
0
  0
SOLID
  8
0
 62
    15
 10
3.861000
 20
4.268440
 11
4.497680
 21
4.647720
 12
3.986840
 22
4.293080
 13
4.623960
 23
4.672800
  0
POLYLINE
  8
0
  6
CONTINUOUS
 66
     1
 40
0.000000
 41
0.000000
  0
VERTEX
  8
0
  6
CONTINUOUS
 10
3.861000
 20
4.268440
  0
VERTEX
  8
0
  6
CONTINUOUS
 10
4.497680
 20
4.647720
  0
VERTEX
  8
0
  6
CONTINUOUS
 10
4.623960
 20
4.672800
  0
VERTEX
  8
0
  6
CONTINUOUS
 10
3.986840
 20
4.293080
  0
VERTEX
  8
0
  6
CONTINUOUS
 10
3.861000
 20
4.268440
  0
SEQEND
  8
0
  0
SOLID
  8
0
 62
    15
 10
3.986840
 20
4.293080
 11
4.623960
 21
4.672800
 12
4.011040
 22
4.289120
 13
4.648160
 23
4.668840
  0
POLYLINE
  8
0
  6
CONTINUOUS
 66
     1
 40
0.000000
 41
0.000000
  0
VERTEX
  8
0
  6
CONTINUOUS
 10
3.986840
 20
4.293080
  0
VERTEX
  8
0
  6
CONTINUOUS
 10
4.623960
 20
4.672800
  0
VERTEX
  8
0
  6
CONTINUOUS
 10
4.648160
 20
4.668840
  0
VERTEX
  8
0
  6
CONTINUOUS
 10
4.011040
 20
4.289120
  0
VERTEX
  8
0
  6
CONTINUOUS
 10
3.986840
 20
4.293080
  0
SEQEND
  8
0
  0
POLYLINE
  8
0
  6
CONTINUOUS
 66
     1
 40
0.000000
 41
0.000000
  0
VERTEX
  8
0
  6
CONTINUOUS
 10
4.011040
 20
4.289120
  0
VERTEX
  8
0
  6
CONTINUOUS
 10
4.136880
 20
4.264480
  0
VERTEX
  8
0
  6
CONTINUOUS
 10
4.272400
 20
4.210360
  0
VERTEX
  8
0
  6
CONTINUOUS
 10
4.415840
 20
4.135120
  0
VERTEX
  8
0
  6
CONTINUOUS
 10
4.718560
 20
3.955160
  0
VERTEX
  8
0
  6
CONTINUOUS
 10
4.874760
 20
3.868040
  0
VERTEX
  8
0
  6
CONTINUOUS
 10
5.031400
 20
3.793680
  0
VERTEX
  8
0
  6
CONTINUOUS
 10
5.187160
 20
3.741320
  0
VERTEX
  8
0
  6
CONTINUOUS
 10
5.254920
 20
3.712280
  0
VERTEX
  8
0
  6
CONTINUOUS
 10
5.328400
 20
3.667840
  0
VERTEX
  8
0
  6
CONTINUOUS
 10
5.404520
 20
3.608880
  0
VERTEX
  8
0
  6
CONTINUOUS
 10
5.479320
 20
3.535400
  0
VERTEX
  8
0
  6
CONTINUOUS
 10
5.548400
 20
3.448280
  0
VERTEX
  8
0
  6
CONTINUOUS
 10
5.609120
 20
3.347520
  0
VERTEX
  8
0
  6
CONTINUOUS
 10
5.656640
 20
3.233120
  0
VERTEX
  8
0
  6
CONTINUOUS
 10
5.688320
 20
3.106400
  0
VERTEX
  8
0
  6
CONTINUOUS
 10
5.686120
 20
2.988480
  0
VERTEX
  8
0
  6
CONTINUOUS
 10
5.676000
 20
2.892560
  0
VERTEX
  8
0
  6
CONTINUOUS
 10
5.659280
 20
2.814680
  0
VERTEX
  8
0
  6
CONTINUOUS
 10
5.636400
 20
2.751760
  0
VERTEX
  8
0
  6
CONTINUOUS
 10
5.577880
 20
2.655400
  0
VERTEX
  8
0
  6
CONTINUOUS
 10
5.508800
 20
2.573560
  0
VERTEX
  8
0
  6
CONTINUOUS
 10
5.437520
 20
2.476760
  0
VERTEX
  8
0
  6
CONTINUOUS
 10
5.404080
 20
2.413400
  0
VERTEX
  8
0
  6
CONTINUOUS
 10
5.373280
 20
2.335520
  0
VERTEX
  8
0
  6
CONTINUOUS
 10
5.346440
 20
2.238720
  0
VERTEX
  8
0
  6
CONTINUOUS
 10
5.324000
 20
2.119920
  0
VERTEX
  8
0
  6
CONTINUOUS
 10
5.308160
 20
1.975600
  0
VERTEX
  8
0
  6
CONTINUOUS
 10
5.298920
 20
1.801360
  0
VERTEX
  8
0
  6
CONTINUOUS
 10
5.294960
 20
1.800040
  0
VERTEX
  8
0
  6
CONTINUOUS
 10
2.695000
 20
1.800040
  0
VERTEX
  8
0
  6
CONTINUOUS
 10
2.693680
 20
1.798720
  0
VERTEX
  8
0
  6
CONTINUOUS
 10
2.684440
 20
1.972960
  0
VERTEX
  8
0
  6
CONTINUOUS
 10
2.668600
 20
2.117280
  0
VERTEX
  8
0
  6
CONTINUOUS
 10
2.646160
 20
2.236080
  0
VERTEX
  8
0
  6
CONTINUOUS
 10
2.619320
 20
2.332880
  0
VERTEX
  8
0
  6
CONTINUOUS
 10
2.588520
 20
2.410760
  0
VERTEX
  8
0
  6
CONTINUOUS
 10
2.555080
 20
2.474120
  0
VERTEX
  8
0
  6
CONTINUOUS
 10
2.483800
 20
2.570920
  0
VERTEX
  8
0
  6
CONTINUOUS
 10
2.414720
 20
2.652760
  0
VERTEX
  8
0
  6
CONTINUOUS
 10
2.356200
 20
2.749120
  0
VERTEX
  8
0
  6
CONTINUOUS
 10
2.333320
 20
2.812040
  0
VERTEX
  8
0
  6
CONTINUOUS
 10
2.316600
 20
2.889480
  0
VERTEX
  8
0
  6
CONTINUOUS
 10
2.306480
 20
2.985840
  0
VERTEX
  8
0
  6
CONTINUOUS
 10
2.304280
 20
3.103760
  0
VERTEX
  8
0
  6
CONTINUOUS
 10
2.335960
 20
3.230480
  0
VERTEX
  8
0
  6
CONTINUOUS
 10
2.383480
 20
3.344880
  0
VERTEX
  8
0
  6
CONTINUOUS
 10
2.444200
 20
3.445640
  0
VERTEX
  8
0
  6
CONTINUOUS
 10
2.513720
 20
3.532760
  0
VERTEX
  8
0
  6
CONTINUOUS
 10
2.588080
 20
3.606240
  0
VERTEX
  8
0
  6
CONTINUOUS
 10
2.664200
 20
3.665200
  0
VERTEX
  8
0
  6
CONTINUOUS
 10
2.737680
 20
3.709640
  0
VERTEX
  8
0
  6
CONTINUOUS
 10
2.805880
 20
3.738680
  0
VERTEX
  8
0
  6
CONTINUOUS
 10
2.961640
 20
3.791480
  0
VERTEX
  8
0
  6
CONTINUOUS
 10
3.118720
 20
3.866280
  0
VERTEX
  8
0
  6
CONTINUOUS
 10
3.275800
 20
3.954720
  0
VERTEX
  8
0
  6
CONTINUOUS
 10
3.580720
 20
4.136880
  0
VERTEX
  8
0
  6
CONTINUOUS
 10
3.724600
 20
4.213440
  0
VERTEX
  8
0
  6
CONTINUOUS
 10
3.861000
 20
4.268440
  0
VERTEX
  8
0
  6
CONTINUOUS
 10
3.986840
 20
4.293080
  0
VERTEX
  8
0
  6
CONTINUOUS
 10
4.011040
 20
4.289120
  0
SEQEND
  8
0
  0
TEXT
  8
0
 10
4.019840
 20
1.532960
 40
0.138209
  1
BA  110
 41
1.000000
  7
SN0
 71
     0
 72
     5
 11
4.610813
 21
1.532960
  0
TEXT
  8
0
 10
3.790160
 20
1.341120
 40
0.138209
  1
2-1/2" x 3-3/8"
 41
1.000000
  7
SN0
 71
     0
 72
     5
 11
4.840261
 21
1.341120
  0
ENDSEC
  0
EOF
