  0
SECTION
  2
HEADER
  9
$ACADVER
  1
AC1006
  9
$EXTMIN
 10
2.720520
 20
1.408440
  9
$EXTMAX
 10
5.698000
 20
6.712200
  9
$LTSCALE
 40
0.044000
  9
$PDMODE
 70
    35
  9
$PDSIZE
 40
0.035200
  0
ENDSEC
  0
SECTION
  2
TABLES
  0
TABLE
  2
LTYPE
 70
     9
  0
LTYPE
  2
CONTINUOUS
 70
    64
  3
Solid line
 72
    65
 73
     0
 40
0.000000
  0
LTYPE
  2
DASHED
 70
    64
  3
__ __ __ __ __ __ __ __ __ __ __ __ __ __ __
 72
    65
 73
     2
 40
0.000330
 49
0.000220
 49
-0.000110
  0
LTYPE
  2
HIDDEN
 70
    64
  3
 _ _ _ _ _ _ _ _ _ _ _ _ _ _ _ _ _ _ _ _ _ _
 72
    65
 73
     2
 40
0.000165
 49
0.000110
 49
-0.000055
  0
LTYPE
  2
CENTER
 70
    64
  3
____ _ ____ _ ____ _ ____ _ ____ _ ____ _ ____
 72
    65
 73
     4
 40
0.000880
 49
0.000550
 49
-0.000110
 49
0.000110
 49
-0.000110
  0
LTYPE
  2
PHANTOM
 70
    64
  3
_____ _ _ _____ _ _ _____ _ _ _____ _ _ ____
 72
    65
 73
     6
 40
0.001100
 49
0.000550
 49
-0.000110
 49
0.000110
 49
-0.000110
 49
0.000110
 49
-0.000110
  0
LTYPE
  2
DOT
 70
    64
  3
...............................................
 72
    65
 73
     2
 40
0.000110
 49
0.000000
 49
-0.000110
  0
LTYPE
  2
DASHDOT
 70
    64
  3
__ . __ . __ . __ . __ . __ . __ . __ . __ . __
 72
    65
 73
     4
 40
0.000440
 49
0.000220
 49
-0.000110
 49
0.000000
 49
-0.000110
  0
LTYPE
  2
BORDER
 70
    64
  3
__ __ . __ __ . __ __ . __ __ . __ __ . __ __
 72
    65
 73
     6
 40
0.000770
 49
0.000220
 49
-0.000110
 49
0.000220
 49
-0.000110
 49
0.000000
 49
-0.000110
  0
LTYPE
  2
DIVIDE
 70
    64
  3
__ . . __ . . __ . . __ . . __ . . __ . . __
 72
    65
 73
     6
 40
0.000550
 49
0.000220
 49
-0.000110
 49
0.000000
 49
-0.000110
 49
0.000000
 49
-0.000110
  0
LTYPE
  2
DOTDOT
 70
    64
  3
 . .  . .  . .  . .  . .  . . 
 72
    65
 73
     5
 40
0.000242
 49
-0.000110
 49
0.000000
 49
-0.000110
 49
0.000000
 49
-0.000110
  0
ENDTAB
  0
TABLE
  2
STYLE
 70
     2
  0
STYLE
 70
     0
  2
SN0
 40
0.000000
 41
0.000440
 50
0.000000
 71
     0
 42
0.000000
  3
ROMAND
  0
STYLE
 70
    68
  2
SV0
 40
0.000000
 41
0.000440
 50
0.000000
 71
     0
 42
0.000000
  3
ROMAND
  0
ENDTAB
  0
TABLE
  2
LAYER
 70
     3
  0
LAYER
  2
FOREGROUND
 70
    64
 62
     7
  6
CONTINUOUS
  0
LAYER
  2
BACKGROUND
 70
    65
 62
    -7
  6
CONTINUOUS
  0
LAYER
  2
0
 70
    64
 62
     7
  6
CONTINUOUS
  0
ENDTAB
  0
ENDSEC
  0
SECTION
  2
ENTITIES
  0
POLYLINE
  8
FOREGROUND
  6
CONTINUOUS
 66
     1
 40
0.000000
 41
0.000000
  0
VERTEX
  8
FOREGROUND
  6
CONTINUOUS
 10
0.000000
 20
8.120640
  0
VERTEX
  8
FOREGROUND
  6
CONTINUOUS
 10
8.499920
 20
8.120640
  0
VERTEX
  8
FOREGROUND
  6
CONTINUOUS
 10
8.499920
 20
-2.879360
  0
VERTEX
  8
FOREGROUND
  6
CONTINUOUS
 10
0.000000
 20
-2.879360
  0
VERTEX
  8
FOREGROUND
  6
CONTINUOUS
 10
0.000000
 20
8.120640
  0
SEQEND
  8
0
  0
POLYLINE
  8
FOREGROUND
  6
CONTINUOUS
 66
     1
 40
0.000000
 41
0.000000
  0
VERTEX
  8
FOREGROUND
  6
CONTINUOUS
 10
0.000000
 20
8.120640
  0
VERTEX
  8
FOREGROUND
  6
CONTINUOUS
 10
8.499920
 20
8.120640
  0
VERTEX
  8
FOREGROUND
  6
CONTINUOUS
 10
8.499920
 20
-2.879360
  0
VERTEX
  8
FOREGROUND
  6
CONTINUOUS
 10
0.000000
 20
-2.879360
  0
VERTEX
  8
FOREGROUND
  6
CONTINUOUS
 10
0.000000
 20
8.120640
  0
SEQEND
  8
0
  0
POLYLINE
  8
0
  6
CONTINUOUS
 66
     1
 40
0.014080
 41
0.014080
  0
VERTEX
  8
0
  6
CONTINUOUS
 10
5.680400
 20
5.108400
  0
VERTEX
  8
0
  6
CONTINUOUS
 10
2.728440
 20
5.108840
  0
VERTEX
  8
0
  6
CONTINUOUS
 10
2.728440
 20
6.704720
  0
VERTEX
  8
0
  6
CONTINUOUS
 10
3.798960
 20
6.704720
  0
VERTEX
  8
0
  6
CONTINUOUS
 10
3.798960
 20
6.563040
  0
VERTEX
  8
0
  6
CONTINUOUS
 10
3.833280
 20
6.564360
  0
VERTEX
  8
0
  6
CONTINUOUS
 10
3.922600
 20
6.563920
  0
VERTEX
  8
0
  6
CONTINUOUS
 10
4.004000
 20
6.559520
  0
VERTEX
  8
0
  6
CONTINUOUS
 10
4.077480
 20
6.551160
  0
VERTEX
  8
0
  6
CONTINUOUS
 10
4.143480
 20
6.539720
  0
VERTEX
  8
0
  6
CONTINUOUS
 10
4.203320
 20
6.524760
  0
VERTEX
  8
0
  6
CONTINUOUS
 10
4.272400
 20
6.500120
  0
VERTEX
  8
0
  6
CONTINUOUS
 10
4.317720
 20
6.478120
  0
VERTEX
  8
0
  6
CONTINUOUS
 10
4.357760
 20
6.453480
  0
VERTEX
  8
0
  6
CONTINUOUS
 10
4.381520
 20
6.435880
  0
VERTEX
  8
0
  6
CONTINUOUS
 10
4.403520
 20
6.416960
  0
VERTEX
  8
0
  6
CONTINUOUS
 10
4.423320
 20
6.397160
  0
VERTEX
  8
0
  6
CONTINUOUS
 10
4.441360
 20
6.376480
  0
VERTEX
  8
0
  6
CONTINUOUS
 10
4.473040
 20
6.332040
  0
VERTEX
  8
0
  6
CONTINUOUS
 10
4.498560
 20
6.284960
  0
VERTEX
  8
0
  6
CONTINUOUS
 10
4.520120
 20
6.235240
  0
VERTEX
  8
0
  6
CONTINUOUS
 10
4.537720
 20
6.183320
  0
VERTEX
  8
0
  6
CONTINUOUS
 10
4.560160
 20
6.102360
  0
VERTEX
  8
0
  6
CONTINUOUS
 10
4.602840
 20
5.935160
  0
VERTEX
  8
0
  6
CONTINUOUS
 10
4.630120
 20
5.852000
  0
VERTEX
  8
0
  6
CONTINUOUS
 10
4.653000
 20
5.797880
  0
VERTEX
  8
0
  6
CONTINUOUS
 10
4.680720
 20
5.745080
  0
VERTEX
  8
0
  6
CONTINUOUS
 10
4.714160
 20
5.694040
  0
VERTEX
  8
0
  6
CONTINUOUS
 10
4.754640
 20
5.645640
  0
VERTEX
  8
0
  6
CONTINUOUS
 10
4.803480
 20
5.600320
  0
VERTEX
  8
0
  6
CONTINUOUS
 10
4.845720
 20
5.568200
  0
VERTEX
  8
0
  6
CONTINUOUS
 10
4.893680
 20
5.537840
  0
VERTEX
  8
0
  6
CONTINUOUS
 10
4.966720
 20
5.501320
  0
VERTEX
  8
0
  6
CONTINUOUS
 10
5.029200
 20
5.477120
  0
VERTEX
  8
0
  6
CONTINUOUS
 10
5.098720
 20
5.455120
  0
VERTEX
  8
0
  6
CONTINUOUS
 10
5.175720
 20
5.436200
  0
VERTEX
  8
0
  6
CONTINUOUS
 10
5.260640
 20
5.420360
  0
VERTEX
  8
0
  6
CONTINUOUS
 10
5.353920
 20
5.407600
  0
VERTEX
  8
0
  6
CONTINUOUS
 10
5.456000
 20
5.398360
  0
VERTEX
  8
0
  6
CONTINUOUS
 10
5.567320
 20
5.393080
  0
VERTEX
  8
0
  6
CONTINUOUS
 10
5.688320
 20
5.391320
  0
VERTEX
  8
0
  6
CONTINUOUS
 10
5.690960
 20
5.392640
  0
VERTEX
  8
0
  6
CONTINUOUS
 10
5.690960
 20
5.108400
  0
VERTEX
  8
0
  6
CONTINUOUS
 10
5.668520
 20
5.108400
  0
VERTEX
  8
0
  6
CONTINUOUS
 10
5.680400
 20
5.108400
  0
SEQEND
  8
0
  0
SOLID
  8
0
 62
    15
 10
3.730320
 20
2.854280
 11
4.379320
 21
2.495240
 12
3.621640
 22
2.808520
 13
4.270640
 23
2.449480
  0
POLYLINE
  8
0
  6
CONTINUOUS
 66
     1
 40
0.000000
 41
0.000000
  0
VERTEX
  8
0
  6
CONTINUOUS
 10
3.730320
 20
2.854280
  0
VERTEX
  8
0
  6
CONTINUOUS
 10
4.379320
 20
2.495240
  0
VERTEX
  8
0
  6
CONTINUOUS
 10
4.270640
 20
2.449480
  0
VERTEX
  8
0
  6
CONTINUOUS
 10
3.621640
 20
2.808520
  0
VERTEX
  8
0
  6
CONTINUOUS
 10
3.730320
 20
2.854280
  0
SEQEND
  8
0
  0
SOLID
  8
0
 62
    15
 10
4.555320
 20
3.675760
 11
5.203880
 21
3.316720
 12
4.414080
 22
3.675760
 13
5.062640
 23
3.316720
  0
POLYLINE
  8
0
  6
CONTINUOUS
 66
     1
 40
0.000000
 41
0.000000
  0
VERTEX
  8
0
  6
CONTINUOUS
 10
4.555320
 20
3.675760
  0
VERTEX
  8
0
  6
CONTINUOUS
 10
5.203880
 20
3.316720
  0
VERTEX
  8
0
  6
CONTINUOUS
 10
5.062640
 20
3.316720
  0
VERTEX
  8
0
  6
CONTINUOUS
 10
4.414080
 20
3.675760
  0
VERTEX
  8
0
  6
CONTINUOUS
 10
4.555320
 20
3.675760
  0
SEQEND
  8
0
  0
SOLID
  8
0
 62
    15
 10
4.414080
 20
3.675760
 11
5.062640
 21
3.316720
 12
4.414080
 22
3.552120
 13
5.063080
 23
3.193080
  0
POLYLINE
  8
0
  6
CONTINUOUS
 66
     1
 40
0.000000
 41
0.000000
  0
VERTEX
  8
0
  6
CONTINUOUS
 10
4.414080
 20
3.675760
  0
VERTEX
  8
0
  6
CONTINUOUS
 10
5.062640
 20
3.316720
  0
VERTEX
  8
0
  6
CONTINUOUS
 10
5.063080
 20
3.193080
  0
VERTEX
  8
0
  6
CONTINUOUS
 10
4.414080
 20
3.552120
  0
VERTEX
  8
0
  6
CONTINUOUS
 10
4.414080
 20
3.675760
  0
SEQEND
  8
0
  0
SOLID
  8
0
 62
    15
 10
4.414080
 20
3.552120
 11
5.063080
 21
3.193080
 12
4.407480
 22
3.445640
 13
5.056480
 23
3.086600
  0
POLYLINE
  8
0
  6
CONTINUOUS
 66
     1
 40
0.000000
 41
0.000000
  0
VERTEX
  8
0
  6
CONTINUOUS
 10
4.414080
 20
3.552120
  0
VERTEX
  8
0
  6
CONTINUOUS
 10
5.063080
 20
3.193080
  0
VERTEX
  8
0
  6
CONTINUOUS
 10
5.056480
 20
3.086600
  0
VERTEX
  8
0
  6
CONTINUOUS
 10
4.407480
 20
3.445640
  0
VERTEX
  8
0
  6
CONTINUOUS
 10
4.414080
 20
3.552120
  0
SEQEND
  8
0
  0
SOLID
  8
0
 62
    15
 10
4.407480
 20
3.445640
 11
5.056480
 21
3.086600
 12
4.394280
 22
3.352360
 13
5.043280
 23
2.993320
  0
POLYLINE
  8
0
  6
CONTINUOUS
 66
     1
 40
0.000000
 41
0.000000
  0
VERTEX
  8
0
  6
CONTINUOUS
 10
4.407480
 20
3.445640
  0
VERTEX
  8
0
  6
CONTINUOUS
 10
5.056480
 20
3.086600
  0
VERTEX
  8
0
  6
CONTINUOUS
 10
5.043280
 20
2.993320
  0
VERTEX
  8
0
  6
CONTINUOUS
 10
4.394280
 20
3.352360
  0
VERTEX
  8
0
  6
CONTINUOUS
 10
4.407480
 20
3.445640
  0
SEQEND
  8
0
  0
SOLID
  8
0
 62
    15
 10
4.394280
 20
3.352360
 11
5.043280
 21
2.993320
 12
4.375360
 22
3.271400
 13
5.023920
 23
2.912800
  0
POLYLINE
  8
0
  6
CONTINUOUS
 66
     1
 40
0.000000
 41
0.000000
  0
VERTEX
  8
0
  6
CONTINUOUS
 10
4.394280
 20
3.352360
  0
VERTEX
  8
0
  6
CONTINUOUS
 10
5.043280
 20
2.993320
  0
VERTEX
  8
0
  6
CONTINUOUS
 10
5.023920
 20
2.912800
  0
VERTEX
  8
0
  6
CONTINUOUS
 10
4.375360
 20
3.271400
  0
VERTEX
  8
0
  6
CONTINUOUS
 10
4.394280
 20
3.352360
  0
SEQEND
  8
0
  0
SOLID
  8
0
 62
    15
 10
4.375360
 20
3.271400
 11
5.023920
 21
2.912800
 12
4.350280
 22
3.202320
 13
4.999280
 23
2.843280
  0
POLYLINE
  8
0
  6
CONTINUOUS
 66
     1
 40
0.000000
 41
0.000000
  0
VERTEX
  8
0
  6
CONTINUOUS
 10
4.375360
 20
3.271400
  0
VERTEX
  8
0
  6
CONTINUOUS
 10
5.023920
 20
2.912800
  0
VERTEX
  8
0
  6
CONTINUOUS
 10
4.999280
 20
2.843280
  0
VERTEX
  8
0
  6
CONTINUOUS
 10
4.350280
 20
3.202320
  0
VERTEX
  8
0
  6
CONTINUOUS
 10
4.375360
 20
3.271400
  0
SEQEND
  8
0
  0
SOLID
  8
0
 62
    15
 10
4.350280
 20
3.202320
 11
4.999280
 21
2.843280
 12
4.320800
 22
3.142920
 13
4.969800
 23
2.783880
  0
POLYLINE
  8
0
  6
CONTINUOUS
 66
     1
 40
0.000000
 41
0.000000
  0
VERTEX
  8
0
  6
CONTINUOUS
 10
4.350280
 20
3.202320
  0
VERTEX
  8
0
  6
CONTINUOUS
 10
4.999280
 20
2.843280
  0
VERTEX
  8
0
  6
CONTINUOUS
 10
4.969800
 20
2.783880
  0
VERTEX
  8
0
  6
CONTINUOUS
 10
4.320800
 20
3.142920
  0
VERTEX
  8
0
  6
CONTINUOUS
 10
4.350280
 20
3.202320
  0
SEQEND
  8
0
  0
SOLID
  8
0
 62
    15
 10
4.320800
 20
3.142920
 11
4.969800
 21
2.783880
 12
4.286040
 22
3.093200
 13
4.935040
 23
2.734160
  0
POLYLINE
  8
0
  6
CONTINUOUS
 66
     1
 40
0.000000
 41
0.000000
  0
VERTEX
  8
0
  6
CONTINUOUS
 10
4.320800
 20
3.142920
  0
VERTEX
  8
0
  6
CONTINUOUS
 10
4.969800
 20
2.783880
  0
VERTEX
  8
0
  6
CONTINUOUS
 10
4.935040
 20
2.734160
  0
VERTEX
  8
0
  6
CONTINUOUS
 10
4.286040
 20
3.093200
  0
VERTEX
  8
0
  6
CONTINUOUS
 10
4.320800
 20
3.142920
  0
SEQEND
  8
0
  0
SOLID
  8
0
 62
    15
 10
4.286040
 20
3.093200
 11
4.935040
 21
2.734160
 12
4.247760
 22
3.051400
 13
4.896320
 23
2.692360
  0
POLYLINE
  8
0
  6
CONTINUOUS
 66
     1
 40
0.000000
 41
0.000000
  0
VERTEX
  8
0
  6
CONTINUOUS
 10
4.286040
 20
3.093200
  0
VERTEX
  8
0
  6
CONTINUOUS
 10
4.935040
 20
2.734160
  0
VERTEX
  8
0
  6
CONTINUOUS
 10
4.896320
 20
2.692360
  0
VERTEX
  8
0
  6
CONTINUOUS
 10
4.247760
 20
3.051400
  0
VERTEX
  8
0
  6
CONTINUOUS
 10
4.286040
 20
3.093200
  0
SEQEND
  8
0
  0
SOLID
  8
0
 62
    15
 10
4.247760
 20
3.051400
 11
4.896320
 21
2.692360
 12
4.159320
 22
2.988480
 13
4.808320
 23
2.629440
  0
POLYLINE
  8
0
  6
CONTINUOUS
 66
     1
 40
0.000000
 41
0.000000
  0
VERTEX
  8
0
  6
CONTINUOUS
 10
4.247760
 20
3.051400
  0
VERTEX
  8
0
  6
CONTINUOUS
 10
4.896320
 20
2.692360
  0
VERTEX
  8
0
  6
CONTINUOUS
 10
4.808320
 20
2.629440
  0
VERTEX
  8
0
  6
CONTINUOUS
 10
4.159320
 20
2.988480
  0
VERTEX
  8
0
  6
CONTINUOUS
 10
4.247760
 20
3.051400
  0
SEQEND
  8
0
  0
SOLID
  8
0
 62
    15
 10
4.159320
 20
2.988480
 11
4.808320
 21
2.629440
 12
4.060320
 22
2.945360
 13
4.708880
 23
2.586320
  0
POLYLINE
  8
0
  6
CONTINUOUS
 66
     1
 40
0.000000
 41
0.000000
  0
VERTEX
  8
0
  6
CONTINUOUS
 10
4.159320
 20
2.988480
  0
VERTEX
  8
0
  6
CONTINUOUS
 10
4.808320
 20
2.629440
  0
VERTEX
  8
0
  6
CONTINUOUS
 10
4.708880
 20
2.586320
  0
VERTEX
  8
0
  6
CONTINUOUS
 10
4.060320
 20
2.945360
  0
VERTEX
  8
0
  6
CONTINUOUS
 10
4.159320
 20
2.988480
  0
SEQEND
  8
0
  0
SOLID
  8
0
 62
    15
 10
4.060320
 20
2.945360
 11
4.708880
 21
2.586320
 12
3.842080
 22
2.886840
 13
4.490640
 23
2.527800
  0
POLYLINE
  8
0
  6
CONTINUOUS
 66
     1
 40
0.000000
 41
0.000000
  0
VERTEX
  8
0
  6
CONTINUOUS
 10
4.060320
 20
2.945360
  0
VERTEX
  8
0
  6
CONTINUOUS
 10
4.708880
 20
2.586320
  0
VERTEX
  8
0
  6
CONTINUOUS
 10
4.490640
 20
2.527800
  0
VERTEX
  8
0
  6
CONTINUOUS
 10
3.842080
 20
2.886840
  0
VERTEX
  8
0
  6
CONTINUOUS
 10
4.060320
 20
2.945360
  0
SEQEND
  8
0
  0
SOLID
  8
0
 62
    15
 10
3.842080
 20
2.886840
 11
4.490640
 21
2.527800
 12
3.730320
 22
2.854280
 13
4.379320
 23
2.495240
  0
POLYLINE
  8
0
  6
CONTINUOUS
 66
     1
 40
0.000000
 41
0.000000
  0
VERTEX
  8
0
  6
CONTINUOUS
 10
3.842080
 20
2.886840
  0
VERTEX
  8
0
  6
CONTINUOUS
 10
4.490640
 20
2.527800
  0
VERTEX
  8
0
  6
CONTINUOUS
 10
4.379320
 20
2.495240
  0
VERTEX
  8
0
  6
CONTINUOUS
 10
3.730320
 20
2.854280
  0
VERTEX
  8
0
  6
CONTINUOUS
 10
3.842080
 20
2.886840
  0
SEQEND
  8
0
  0
SOLID
  8
0
 62
    15
 10
4.555320
 20
4.746280
 11
5.204320
 21
4.387680
 12
4.555320
 22
3.675760
 13
5.203880
 23
3.316720
  0
POLYLINE
  8
0
  6
CONTINUOUS
 66
     1
 40
0.000000
 41
0.000000
  0
VERTEX
  8
0
  6
CONTINUOUS
 10
4.555320
 20
4.746280
  0
VERTEX
  8
0
  6
CONTINUOUS
 10
5.204320
 20
4.387680
  0
VERTEX
  8
0
  6
CONTINUOUS
 10
5.203880
 20
3.316720
  0
VERTEX
  8
0
  6
CONTINUOUS
 10
4.555320
 20
3.675760
  0
VERTEX
  8
0
  6
CONTINUOUS
 10
4.555320
 20
4.746280
  0
SEQEND
  8
0
  0
SOLID
  8
0
 62
    15
 10
3.621640
 20
2.808520
 11
4.270640
 21
2.449480
 12
3.520440
 22
2.741200
 13
4.169000
 23
2.382160
  0
POLYLINE
  8
0
  6
CONTINUOUS
 66
     1
 40
0.000000
 41
0.000000
  0
VERTEX
  8
0
  6
CONTINUOUS
 10
3.621640
 20
2.808520
  0
VERTEX
  8
0
  6
CONTINUOUS
 10
4.270640
 20
2.449480
  0
VERTEX
  8
0
  6
CONTINUOUS
 10
4.169000
 20
2.382160
  0
VERTEX
  8
0
  6
CONTINUOUS
 10
3.520440
 20
2.741200
  0
VERTEX
  8
0
  6
CONTINUOUS
 10
3.621640
 20
2.808520
  0
SEQEND
  8
0
  0
SOLID
  8
0
 62
    15
 10
3.520440
 20
2.741200
 11
4.169000
 21
2.382160
 12
3.472920
 22
2.696760
 13
4.121920
 23
2.337720
  0
POLYLINE
  8
0
  6
CONTINUOUS
 66
     1
 40
0.000000
 41
0.000000
  0
VERTEX
  8
0
  6
CONTINUOUS
 10
3.520440
 20
2.741200
  0
VERTEX
  8
0
  6
CONTINUOUS
 10
4.169000
 20
2.382160
  0
VERTEX
  8
0
  6
CONTINUOUS
 10
4.121920
 20
2.337720
  0
VERTEX
  8
0
  6
CONTINUOUS
 10
3.472920
 20
2.696760
  0
VERTEX
  8
0
  6
CONTINUOUS
 10
3.520440
 20
2.741200
  0
SEQEND
  8
0
  0
SOLID
  8
0
 62
    15
 10
3.472920
 20
2.696760
 11
4.121920
 21
2.337720
 12
3.428920
 22
2.643960
 13
4.077920
 23
2.284920
  0
POLYLINE
  8
0
  6
CONTINUOUS
 66
     1
 40
0.000000
 41
0.000000
  0
VERTEX
  8
0
  6
CONTINUOUS
 10
3.472920
 20
2.696760
  0
VERTEX
  8
0
  6
CONTINUOUS
 10
4.121920
 20
2.337720
  0
VERTEX
  8
0
  6
CONTINUOUS
 10
4.077920
 20
2.284920
  0
VERTEX
  8
0
  6
CONTINUOUS
 10
3.428920
 20
2.643960
  0
VERTEX
  8
0
  6
CONTINUOUS
 10
3.472920
 20
2.696760
  0
SEQEND
  8
0
  0
SOLID
  8
0
 62
    15
 10
3.428920
 20
2.643960
 11
4.077920
 21
2.284920
 12
3.388440
 22
2.581040
 13
4.037440
 23
2.222440
  0
POLYLINE
  8
0
  6
CONTINUOUS
 66
     1
 40
0.000000
 41
0.000000
  0
VERTEX
  8
0
  6
CONTINUOUS
 10
3.428920
 20
2.643960
  0
VERTEX
  8
0
  6
CONTINUOUS
 10
4.077920
 20
2.284920
  0
VERTEX
  8
0
  6
CONTINUOUS
 10
4.037440
 20
2.222440
  0
VERTEX
  8
0
  6
CONTINUOUS
 10
3.388440
 20
2.581040
  0
VERTEX
  8
0
  6
CONTINUOUS
 10
3.428920
 20
2.643960
  0
SEQEND
  8
0
  0
SOLID
  8
0
 62
    15
 10
3.388440
 20
2.581040
 11
4.037440
 21
2.222440
 12
3.351920
 22
2.508000
 13
4.000920
 23
2.148960
  0
POLYLINE
  8
0
  6
CONTINUOUS
 66
     1
 40
0.000000
 41
0.000000
  0
VERTEX
  8
0
  6
CONTINUOUS
 10
3.388440
 20
2.581040
  0
VERTEX
  8
0
  6
CONTINUOUS
 10
4.037440
 20
2.222440
  0
VERTEX
  8
0
  6
CONTINUOUS
 10
4.000920
 20
2.148960
  0
VERTEX
  8
0
  6
CONTINUOUS
 10
3.351920
 20
2.508000
  0
VERTEX
  8
0
  6
CONTINUOUS
 10
3.388440
 20
2.581040
  0
SEQEND
  8
0
  0
SOLID
  8
0
 62
    15
 10
3.351920
 20
2.508000
 11
4.000920
 21
2.148960
 12
3.319800
 22
2.423080
 13
3.968800
 23
2.064040
  0
POLYLINE
  8
0
  6
CONTINUOUS
 66
     1
 40
0.000000
 41
0.000000
  0
VERTEX
  8
0
  6
CONTINUOUS
 10
3.351920
 20
2.508000
  0
VERTEX
  8
0
  6
CONTINUOUS
 10
4.000920
 20
2.148960
  0
VERTEX
  8
0
  6
CONTINUOUS
 10
3.968800
 20
2.064040
  0
VERTEX
  8
0
  6
CONTINUOUS
 10
3.319800
 20
2.423080
  0
VERTEX
  8
0
  6
CONTINUOUS
 10
3.351920
 20
2.508000
  0
SEQEND
  8
0
  0
SOLID
  8
0
 62
    15
 10
3.319800
 20
2.423080
 11
3.968800
 21
2.064040
 12
3.292960
 22
2.325400
 13
3.941520
 23
1.966360
  0
POLYLINE
  8
0
  6
CONTINUOUS
 66
     1
 40
0.000000
 41
0.000000
  0
VERTEX
  8
0
  6
CONTINUOUS
 10
3.319800
 20
2.423080
  0
VERTEX
  8
0
  6
CONTINUOUS
 10
3.968800
 20
2.064040
  0
VERTEX
  8
0
  6
CONTINUOUS
 10
3.941520
 20
1.966360
  0
VERTEX
  8
0
  6
CONTINUOUS
 10
3.292960
 20
2.325400
  0
VERTEX
  8
0
  6
CONTINUOUS
 10
3.319800
 20
2.423080
  0
SEQEND
  8
0
  0
SOLID
  8
0
 62
    15
 10
3.292960
 20
2.325400
 11
3.941520
 21
1.966360
 12
3.270960
 22
2.214080
 13
3.919960
 23
1.855040
  0
POLYLINE
  8
0
  6
CONTINUOUS
 66
     1
 40
0.000000
 41
0.000000
  0
VERTEX
  8
0
  6
CONTINUOUS
 10
3.292960
 20
2.325400
  0
VERTEX
  8
0
  6
CONTINUOUS
 10
3.941520
 20
1.966360
  0
VERTEX
  8
0
  6
CONTINUOUS
 10
3.919960
 20
1.855040
  0
VERTEX
  8
0
  6
CONTINUOUS
 10
3.270960
 20
2.214080
  0
VERTEX
  8
0
  6
CONTINUOUS
 10
3.292960
 20
2.325400
  0
SEQEND
  8
0
  0
SOLID
  8
0
 62
    15
 10
3.270960
 20
2.214080
 11
3.919960
 21
1.855040
 12
3.254680
 22
2.087800
 13
3.903680
 23
1.728760
  0
POLYLINE
  8
0
  6
CONTINUOUS
 66
     1
 40
0.000000
 41
0.000000
  0
VERTEX
  8
0
  6
CONTINUOUS
 10
3.270960
 20
2.214080
  0
VERTEX
  8
0
  6
CONTINUOUS
 10
3.919960
 20
1.855040
  0
VERTEX
  8
0
  6
CONTINUOUS
 10
3.903680
 20
1.728760
  0
VERTEX
  8
0
  6
CONTINUOUS
 10
3.254680
 20
2.087800
  0
VERTEX
  8
0
  6
CONTINUOUS
 10
3.270960
 20
2.214080
  0
SEQEND
  8
0
  0
SOLID
  8
0
 62
    15
 10
3.254680
 20
2.087800
 11
3.903680
 21
1.728760
 12
3.245000
 22
1.945680
 13
3.894000
 23
1.586640
  0
POLYLINE
  8
0
  6
CONTINUOUS
 66
     1
 40
0.000000
 41
0.000000
  0
VERTEX
  8
0
  6
CONTINUOUS
 10
3.254680
 20
2.087800
  0
VERTEX
  8
0
  6
CONTINUOUS
 10
3.903680
 20
1.728760
  0
VERTEX
  8
0
  6
CONTINUOUS
 10
3.894000
 20
1.586640
  0
VERTEX
  8
0
  6
CONTINUOUS
 10
3.245000
 20
1.945680
  0
VERTEX
  8
0
  6
CONTINUOUS
 10
3.254680
 20
2.087800
  0
SEQEND
  8
0
  0
SOLID
  8
0
 62
    15
 10
3.245000
 20
1.945680
 11
3.894000
 21
1.586640
 12
3.241920
 22
1.786400
 13
3.890920
 23
1.427360
  0
POLYLINE
  8
0
  6
CONTINUOUS
 66
     1
 40
0.000000
 41
0.000000
  0
VERTEX
  8
0
  6
CONTINUOUS
 10
3.245000
 20
1.945680
  0
VERTEX
  8
0
  6
CONTINUOUS
 10
3.894000
 20
1.586640
  0
VERTEX
  8
0
  6
CONTINUOUS
 10
3.890920
 20
1.427360
  0
VERTEX
  8
0
  6
CONTINUOUS
 10
3.241920
 20
1.786400
  0
VERTEX
  8
0
  6
CONTINUOUS
 10
3.245000
 20
1.945680
  0
SEQEND
  8
0
  0
SOLID
  8
0
 62
    15
 10
3.241920
 20
1.786400
 11
3.890920
 21
1.427360
 12
3.243240
 22
1.783760
 13
3.892240
 23
1.424720
  0
POLYLINE
  8
0
  6
CONTINUOUS
 66
     1
 40
0.000000
 41
0.000000
  0
VERTEX
  8
0
  6
CONTINUOUS
 10
3.241920
 20
1.786400
  0
VERTEX
  8
0
  6
CONTINUOUS
 10
3.890920
 20
1.427360
  0
VERTEX
  8
0
  6
CONTINUOUS
 10
3.892240
 20
1.424720
  0
VERTEX
  8
0
  6
CONTINUOUS
 10
3.243240
 20
1.783760
  0
VERTEX
  8
0
  6
CONTINUOUS
 10
3.241920
 20
1.786400
  0
SEQEND
  8
0
  0
SOLID
  8
0
 62
    15
 10
2.959440
 20
1.806200
 11
3.608000
 21
1.447600
 12
2.959440
 22
1.794320
 13
3.608000
 23
1.435720
  0
POLYLINE
  8
0
  6
CONTINUOUS
 66
     1
 40
0.000000
 41
0.000000
  0
VERTEX
  8
0
  6
CONTINUOUS
 10
2.959440
 20
1.806200
  0
VERTEX
  8
0
  6
CONTINUOUS
 10
3.608000
 20
1.447600
  0
VERTEX
  8
0
  6
CONTINUOUS
 10
3.608000
 20
1.435720
  0
VERTEX
  8
0
  6
CONTINUOUS
 10
2.959440
 20
1.794320
  0
VERTEX
  8
0
  6
CONTINUOUS
 10
2.959440
 20
1.806200
  0
SEQEND
  8
0
  0
SOLID
  8
0
 62
    15
 10
3.243240
 20
1.783760
 11
3.892240
 21
1.424720
 12
2.959440
 22
1.783760
 13
3.608000
 23
1.424720
  0
POLYLINE
  8
0
  6
CONTINUOUS
 66
     1
 40
0.000000
 41
0.000000
  0
VERTEX
  8
0
  6
CONTINUOUS
 10
3.243240
 20
1.783760
  0
VERTEX
  8
0
  6
CONTINUOUS
 10
3.892240
 20
1.424720
  0
VERTEX
  8
0
  6
CONTINUOUS
 10
3.608000
 20
1.424720
  0
VERTEX
  8
0
  6
CONTINUOUS
 10
2.959440
 20
1.783760
  0
VERTEX
  8
0
  6
CONTINUOUS
 10
3.243240
 20
1.783760
  0
SEQEND
  8
0
  0
POLYLINE
  8
0
  6
CONTINUOUS
 66
     1
 40
0.000000
 41
0.000000
  0
VERTEX
  8
0
  6
CONTINUOUS
 10
2.959440
 20
1.794320
  0
VERTEX
  8
0
  6
CONTINUOUS
 10
2.959440
 20
4.746280
  0
VERTEX
  8
0
  6
CONTINUOUS
 10
4.555320
 20
4.746280
  0
VERTEX
  8
0
  6
CONTINUOUS
 10
4.555320
 20
3.675760
  0
VERTEX
  8
0
  6
CONTINUOUS
 10
4.414080
 20
3.675760
  0
VERTEX
  8
0
  6
CONTINUOUS
 10
4.414080
 20
3.552120
  0
VERTEX
  8
0
  6
CONTINUOUS
 10
4.407480
 20
3.445640
  0
VERTEX
  8
0
  6
CONTINUOUS
 10
4.394280
 20
3.352360
  0
VERTEX
  8
0
  6
CONTINUOUS
 10
4.375360
 20
3.271400
  0
VERTEX
  8
0
  6
CONTINUOUS
 10
4.350280
 20
3.202320
  0
VERTEX
  8
0
  6
CONTINUOUS
 10
4.320800
 20
3.142920
  0
VERTEX
  8
0
  6
CONTINUOUS
 10
4.286040
 20
3.093200
  0
VERTEX
  8
0
  6
CONTINUOUS
 10
4.247760
 20
3.051400
  0
VERTEX
  8
0
  6
CONTINUOUS
 10
4.159320
 20
2.988480
  0
VERTEX
  8
0
  6
CONTINUOUS
 10
4.060320
 20
2.945360
  0
VERTEX
  8
0
  6
CONTINUOUS
 10
3.842080
 20
2.886840
  0
VERTEX
  8
0
  6
CONTINUOUS
 10
3.730320
 20
2.854280
  0
VERTEX
  8
0
  6
CONTINUOUS
 10
3.621640
 20
2.808520
  0
VERTEX
  8
0
  6
CONTINUOUS
 10
3.520440
 20
2.741200
  0
VERTEX
  8
0
  6
CONTINUOUS
 10
3.472920
 20
2.696760
  0
VERTEX
  8
0
  6
CONTINUOUS
 10
3.428920
 20
2.643960
  0
VERTEX
  8
0
  6
CONTINUOUS
 10
3.388440
 20
2.581040
  0
VERTEX
  8
0
  6
CONTINUOUS
 10
3.351920
 20
2.508000
  0
VERTEX
  8
0
  6
CONTINUOUS
 10
3.319800
 20
2.423080
  0
VERTEX
  8
0
  6
CONTINUOUS
 10
3.292960
 20
2.325400
  0
VERTEX
  8
0
  6
CONTINUOUS
 10
3.270960
 20
2.214080
  0
VERTEX
  8
0
  6
CONTINUOUS
 10
3.254680
 20
2.087800
  0
VERTEX
  8
0
  6
CONTINUOUS
 10
3.245000
 20
1.945680
  0
VERTEX
  8
0
  6
CONTINUOUS
 10
3.241920
 20
1.786400
  0
VERTEX
  8
0
  6
CONTINUOUS
 10
3.243240
 20
1.783760
  0
VERTEX
  8
0
  6
CONTINUOUS
 10
2.959440
 20
1.783760
  0
VERTEX
  8
0
  6
CONTINUOUS
 10
2.959440
 20
1.806200
  0
VERTEX
  8
0
  6
CONTINUOUS
 10
2.959440
 20
1.794320
  0
SEQEND
  8
0
  0
TEXT
  8
0
 10
4.392520
 20
1.643400
 40
0.138323
  1
BA  109
 41
1.000000
  7
SN0
 71
     0
 72
     5
 11
4.983094
 21
1.643400
  0
TEXT
  8
0
 10
4.273720
 20
1.452000
 40
0.138323
  1
1-5/8" x 3"*
 41
1.000000
  7
SN0
 71
     0
 72
     5
 11
5.101107
 21
1.452000
  0
ENDSEC
  0
EOF
