  0
SECTION
  2
HEADER
  9
$ACADVER
  1
AC1006
  9
$EXTMIN
 10
4.323000
 20
0.428560
  9
$EXTMAX
 10
7.911640
 20
3.720640
  9
$LTSCALE
 40
0.044000
  9
$PDMODE
 70
    35
  9
$PDSIZE
 40
0.035200
  0
ENDSEC
  0
SECTION
  2
TABLES
  0
TABLE
  2
LTYPE
 70
     9
  0
LTYPE
  2
CONTINUOUS
 70
    64
  3
Solid line
 72
    65
 73
     0
 40
0.000000
  0
LTYPE
  2
DASHED
 70
    64
  3
__ __ __ __ __ __ __ __ __ __ __ __ __ __ __
 72
    65
 73
     2
 40
0.000330
 49
0.000220
 49
-0.000110
  0
LTYPE
  2
HIDDEN
 70
    64
  3
 _ _ _ _ _ _ _ _ _ _ _ _ _ _ _ _ _ _ _ _ _ _
 72
    65
 73
     2
 40
0.000165
 49
0.000110
 49
-0.000055
  0
LTYPE
  2
CENTER
 70
    64
  3
____ _ ____ _ ____ _ ____ _ ____ _ ____ _ ____
 72
    65
 73
     4
 40
0.000880
 49
0.000550
 49
-0.000110
 49
0.000110
 49
-0.000110
  0
LTYPE
  2
PHANTOM
 70
    64
  3
_____ _ _ _____ _ _ _____ _ _ _____ _ _ ____
 72
    65
 73
     6
 40
0.001100
 49
0.000550
 49
-0.000110
 49
0.000110
 49
-0.000110
 49
0.000110
 49
-0.000110
  0
LTYPE
  2
DOT
 70
    64
  3
...............................................
 72
    65
 73
     2
 40
0.000110
 49
0.000000
 49
-0.000110
  0
LTYPE
  2
DASHDOT
 70
    64
  3
__ . __ . __ . __ . __ . __ . __ . __ . __ . __
 72
    65
 73
     4
 40
0.000440
 49
0.000220
 49
-0.000110
 49
0.000000
 49
-0.000110
  0
LTYPE
  2
BORDER
 70
    64
  3
__ __ . __ __ . __ __ . __ __ . __ __ . __ __
 72
    65
 73
     6
 40
0.000770
 49
0.000220
 49
-0.000110
 49
0.000220
 49
-0.000110
 49
0.000000
 49
-0.000110
  0
LTYPE
  2
DIVIDE
 70
    64
  3
__ . . __ . . __ . . __ . . __ . . __ . . __
 72
    65
 73
     6
 40
0.000550
 49
0.000220
 49
-0.000110
 49
0.000000
 49
-0.000110
 49
0.000000
 49
-0.000110
  0
LTYPE
  2
DOTDOT
 70
    64
  3
 . .  . .  . .  . .  . .  . . 
 72
    65
 73
     5
 40
0.000242
 49
-0.000110
 49
0.000000
 49
-0.000110
 49
0.000000
 49
-0.000110
  0
ENDTAB
  0
TABLE
  2
STYLE
 70
     2
  0
STYLE
 70
     0
  2
SN0
 40
0.000000
 41
0.000440
 50
0.000000
 71
     0
 42
0.000000
  3
ROMAND
  0
STYLE
 70
    68
  2
SV0
 40
0.000000
 41
0.000440
 50
0.000000
 71
     0
 42
0.000000
  3
ROMAND
  0
ENDTAB
  0
TABLE
  2
LAYER
 70
     3
  0
LAYER
  2
FOREGROUND
 70
    64
 62
     7
  6
CONTINUOUS
  0
LAYER
  2
BACKGROUND
 70
    65
 62
    -7
  6
CONTINUOUS
  0
LAYER
  2
0
 70
    64
 62
     7
  6
CONTINUOUS
  0
ENDTAB
  0
ENDSEC
  0
SECTION
  2
ENTITIES
  0
POLYLINE
  8
FOREGROUND
  6
CONTINUOUS
 66
     1
 40
0.000000
 41
0.000000
  0
VERTEX
  8
FOREGROUND
  6
CONTINUOUS
 10
0.000000
 20
4.149200
  0
VERTEX
  8
FOREGROUND
  6
CONTINUOUS
 10
8.499920
 20
4.149200
  0
VERTEX
  8
FOREGROUND
  6
CONTINUOUS
 10
8.499920
 20
-6.850800
  0
VERTEX
  8
FOREGROUND
  6
CONTINUOUS
 10
0.000000
 20
-6.850800
  0
VERTEX
  8
FOREGROUND
  6
CONTINUOUS
 10
0.000000
 20
4.149200
  0
SEQEND
  8
0
  0
POLYLINE
  8
FOREGROUND
  6
CONTINUOUS
 66
     1
 40
0.000000
 41
0.000000
  0
VERTEX
  8
FOREGROUND
  6
CONTINUOUS
 10
0.000000
 20
4.149200
  0
VERTEX
  8
FOREGROUND
  6
CONTINUOUS
 10
8.499920
 20
4.149200
  0
VERTEX
  8
FOREGROUND
  6
CONTINUOUS
 10
8.499920
 20
-6.850800
  0
VERTEX
  8
FOREGROUND
  6
CONTINUOUS
 10
0.000000
 20
-6.850800
  0
VERTEX
  8
FOREGROUND
  6
CONTINUOUS
 10
0.000000
 20
4.149200
  0
SEQEND
  8
0
  0
POLYLINE
  8
0
  6
CONTINUOUS
 66
     1
 40
0.012320
 41
0.012320
  0
VERTEX
  8
0
  6
CONTINUOUS
 10
6.412560
 20
1.241240
  0
VERTEX
  8
0
  6
CONTINUOUS
 10
6.424000
 20
1.224080
  0
VERTEX
  8
0
  6
CONTINUOUS
 10
6.429720
 20
1.206480
  0
VERTEX
  8
0
  6
CONTINUOUS
 10
6.431040
 20
1.189760
  0
VERTEX
  8
0
  6
CONTINUOUS
 10
6.428400
 20
1.172160
  0
VERTEX
  8
0
  6
CONTINUOUS
 10
6.417840
 20
1.146200
  0
VERTEX
  8
0
  6
CONTINUOUS
 10
6.387040
 20
1.100880
  0
VERTEX
  8
0
  6
CONTINUOUS
 10
6.321920
 20
1.020800
  0
VERTEX
  8
0
  6
CONTINUOUS
 10
6.291560
 20
0.974600
  0
VERTEX
  8
0
  6
CONTINUOUS
 10
6.273080
 20
0.937200
  0
VERTEX
  8
0
  6
CONTINUOUS
 10
6.268240
 20
0.924000
  0
VERTEX
  8
0
  6
CONTINUOUS
 10
6.170560
 20
0.924000
  0
VERTEX
  8
0
  6
CONTINUOUS
 10
6.171880
 20
0.924000
  0
VERTEX
  8
0
  6
CONTINUOUS
 10
6.171880
 20
3.455320
  0
VERTEX
  8
0
  6
CONTINUOUS
 10
6.173200
 20
3.454000
  0
VERTEX
  8
0
  6
CONTINUOUS
 10
6.245360
 20
3.446960
  0
VERTEX
  8
0
  6
CONTINUOUS
 10
6.321920
 20
3.434640
  0
VERTEX
  8
0
  6
CONTINUOUS
 10
6.400680
 20
3.415280
  0
VERTEX
  8
0
  6
CONTINUOUS
 10
6.453040
 20
3.397680
  0
VERTEX
  8
0
  6
CONTINUOUS
 10
6.504960
 20
3.376560
  0
VERTEX
  8
0
  6
CONTINUOUS
 10
6.555560
 20
3.351040
  0
VERTEX
  8
0
  6
CONTINUOUS
 10
6.603960
 20
3.320680
  0
VERTEX
  8
0
  6
CONTINUOUS
 10
6.649720
 20
3.285480
  0
VERTEX
  8
0
  6
CONTINUOUS
 10
6.692400
 20
3.245000
  0
VERTEX
  8
0
  6
CONTINUOUS
 10
6.712200
 20
3.222560
  0
VERTEX
  8
0
  6
CONTINUOUS
 10
6.748280
 20
3.173720
  0
VERTEX
  8
0
  6
CONTINUOUS
 10
6.779520
 20
3.118280
  0
VERTEX
  8
0
  6
CONTINUOUS
 10
6.793160
 20
3.087920
  0
VERTEX
  8
0
  6
CONTINUOUS
 10
6.805480
 20
3.056240
  0
VERTEX
  8
0
  6
CONTINUOUS
 10
6.816040
 20
3.022800
  0
VERTEX
  8
0
  6
CONTINUOUS
 10
6.824840
 20
2.987600
  0
VERTEX
  8
0
  6
CONTINUOUS
 10
6.834520
 20
2.931280
  0
VERTEX
  8
0
  6
CONTINUOUS
 10
6.837160
 20
2.911480
  0
VERTEX
  8
0
  6
CONTINUOUS
 10
6.751800
 20
2.911480
  0
VERTEX
  8
0
  6
CONTINUOUS
 10
6.782600
 20
2.828760
  0
VERTEX
  8
0
  6
CONTINUOUS
 10
6.798000
 20
2.778600
  0
VERTEX
  8
0
  6
CONTINUOUS
 10
6.809880
 20
2.730640
  0
VERTEX
  8
0
  6
CONTINUOUS
 10
6.820880
 20
2.663760
  0
VERTEX
  8
0
  6
CONTINUOUS
 10
6.824400
 20
2.621960
  0
VERTEX
  8
0
  6
CONTINUOUS
 10
6.824400
 20
2.563000
  0
VERTEX
  8
0
  6
CONTINUOUS
 10
6.818240
 20
2.508000
  0
VERTEX
  8
0
  6
CONTINUOUS
 10
6.811640
 20
2.473680
  0
VERTEX
  8
0
  6
CONTINUOUS
 10
6.802840
 20
2.440240
  0
VERTEX
  8
0
  6
CONTINUOUS
 10
6.792280
 20
2.408120
  0
VERTEX
  8
0
  6
CONTINUOUS
 10
6.766760
 20
2.346080
  0
VERTEX
  8
0
  6
CONTINUOUS
 10
6.736840
 20
2.286680
  0
VERTEX
  8
0
  6
CONTINUOUS
 10
6.654560
 20
2.138840
  0
VERTEX
  8
0
  6
CONTINUOUS
 10
6.623760
 20
2.075920
  0
VERTEX
  8
0
  6
CONTINUOUS
 10
6.596920
 20
2.008600
  0
VERTEX
  8
0
  6
CONTINUOUS
 10
6.585040
 20
1.972960
  0
VERTEX
  8
0
  6
CONTINUOUS
 10
6.570960
 20
1.916200
  0
VERTEX
  8
0
  6
CONTINUOUS
 10
6.561280
 20
1.855040
  0
VERTEX
  8
0
  6
CONTINUOUS
 10
6.557760
 20
1.811480
  0
VERTEX
  8
0
  6
CONTINUOUS
 10
6.556440
 20
1.765720
  0
VERTEX
  8
0
  6
CONTINUOUS
 10
6.558200
 20
1.717320
  0
VERTEX
  8
0
  6
CONTINUOUS
 10
6.475480
 20
1.717320
  0
VERTEX
  8
0
  6
CONTINUOUS
 10
6.475480
 20
1.301520
  0
VERTEX
  8
0
  6
CONTINUOUS
 10
6.412560
 20
1.301520
  0
VERTEX
  8
0
  6
CONTINUOUS
 10
6.412560
 20
1.241240
  0
SEQEND
  8
0
  0
SOLID
  8
0
 62
    15
 10
4.990480
 20
2.912800
 11
5.734520
 21
2.905320
 12
4.905120
 22
2.912800
 13
5.648720
 23
2.905320
  0
POLYLINE
  8
0
  6
CONTINUOUS
 66
     1
 40
0.000000
 41
0.000000
  0
VERTEX
  8
0
  6
CONTINUOUS
 10
4.990480
 20
2.912800
  0
VERTEX
  8
0
  6
CONTINUOUS
 10
5.734520
 20
2.905320
  0
VERTEX
  8
0
  6
CONTINUOUS
 10
5.648720
 20
2.905320
  0
VERTEX
  8
0
  6
CONTINUOUS
 10
4.905120
 20
2.912800
  0
VERTEX
  8
0
  6
CONTINUOUS
 10
4.990480
 20
2.912800
  0
SEQEND
  8
0
  0
SOLID
  8
0
 62
    15
 10
4.576880
 20
1.225400
 11
5.320920
 21
1.217480
 12
4.583040
 22
1.208240
 13
5.326640
 23
1.200320
  0
POLYLINE
  8
0
  6
CONTINUOUS
 66
     1
 40
0.000000
 41
0.000000
  0
VERTEX
  8
0
  6
CONTINUOUS
 10
4.576880
 20
1.225400
  0
VERTEX
  8
0
  6
CONTINUOUS
 10
5.320920
 20
1.217480
  0
VERTEX
  8
0
  6
CONTINUOUS
 10
5.326640
 20
1.200320
  0
VERTEX
  8
0
  6
CONTINUOUS
 10
4.583040
 20
1.208240
  0
VERTEX
  8
0
  6
CONTINUOUS
 10
4.576880
 20
1.225400
  0
SEQEND
  8
0
  0
SOLID
  8
0
 62
    15
 10
4.583040
 20
1.208240
 11
5.326640
 21
1.200320
 12
4.584360
 22
1.191080
 13
5.328400
 23
1.183160
  0
POLYLINE
  8
0
  6
CONTINUOUS
 66
     1
 40
0.000000
 41
0.000000
  0
VERTEX
  8
0
  6
CONTINUOUS
 10
4.583040
 20
1.208240
  0
VERTEX
  8
0
  6
CONTINUOUS
 10
5.326640
 20
1.200320
  0
VERTEX
  8
0
  6
CONTINUOUS
 10
5.328400
 20
1.183160
  0
VERTEX
  8
0
  6
CONTINUOUS
 10
4.584360
 20
1.191080
  0
VERTEX
  8
0
  6
CONTINUOUS
 10
4.583040
 20
1.208240
  0
SEQEND
  8
0
  0
SOLID
  8
0
 62
    15
 10
4.584360
 20
1.191080
 11
5.328400
 21
1.183160
 12
4.581720
 22
1.173920
 13
5.325320
 23
1.166000
  0
POLYLINE
  8
0
  6
CONTINUOUS
 66
     1
 40
0.000000
 41
0.000000
  0
VERTEX
  8
0
  6
CONTINUOUS
 10
4.584360
 20
1.191080
  0
VERTEX
  8
0
  6
CONTINUOUS
 10
5.328400
 20
1.183160
  0
VERTEX
  8
0
  6
CONTINUOUS
 10
5.325320
 20
1.166000
  0
VERTEX
  8
0
  6
CONTINUOUS
 10
4.581720
 20
1.173920
  0
VERTEX
  8
0
  6
CONTINUOUS
 10
4.584360
 20
1.191080
  0
SEQEND
  8
0
  0
SOLID
  8
0
 62
    15
 10
4.581720
 20
1.173920
 11
5.325320
 21
1.166000
 12
4.565880
 22
1.139160
 13
5.309920
 23
1.131240
  0
POLYLINE
  8
0
  6
CONTINUOUS
 66
     1
 40
0.000000
 41
0.000000
  0
VERTEX
  8
0
  6
CONTINUOUS
 10
4.581720
 20
1.173920
  0
VERTEX
  8
0
  6
CONTINUOUS
 10
5.325320
 20
1.166000
  0
VERTEX
  8
0
  6
CONTINUOUS
 10
5.309920
 20
1.131240
  0
VERTEX
  8
0
  6
CONTINUOUS
 10
4.565880
 20
1.139160
  0
VERTEX
  8
0
  6
CONTINUOUS
 10
4.581720
 20
1.173920
  0
SEQEND
  8
0
  0
SOLID
  8
0
 62
    15
 10
4.565880
 20
1.139160
 11
5.309920
 21
1.131240
 12
4.539920
 22
1.102640
 13
5.283960
 23
1.094720
  0
POLYLINE
  8
0
  6
CONTINUOUS
 66
     1
 40
0.000000
 41
0.000000
  0
VERTEX
  8
0
  6
CONTINUOUS
 10
4.565880
 20
1.139160
  0
VERTEX
  8
0
  6
CONTINUOUS
 10
5.309920
 20
1.131240
  0
VERTEX
  8
0
  6
CONTINUOUS
 10
5.283960
 20
1.094720
  0
VERTEX
  8
0
  6
CONTINUOUS
 10
4.539920
 20
1.102640
  0
VERTEX
  8
0
  6
CONTINUOUS
 10
4.565880
 20
1.139160
  0
SEQEND
  8
0
  0
SOLID
  8
0
 62
    15
 10
4.539920
 20
1.102640
 11
5.283960
 21
1.094720
 12
4.524520
 22
1.083720
 13
5.268560
 23
1.075800
  0
POLYLINE
  8
0
  6
CONTINUOUS
 66
     1
 40
0.000000
 41
0.000000
  0
VERTEX
  8
0
  6
CONTINUOUS
 10
4.539920
 20
1.102640
  0
VERTEX
  8
0
  6
CONTINUOUS
 10
5.283960
 20
1.094720
  0
VERTEX
  8
0
  6
CONTINUOUS
 10
5.268560
 20
1.075800
  0
VERTEX
  8
0
  6
CONTINUOUS
 10
4.524520
 20
1.083720
  0
VERTEX
  8
0
  6
CONTINUOUS
 10
4.539920
 20
1.102640
  0
SEQEND
  8
0
  0
SOLID
  8
0
 62
    15
 10
4.524520
 20
1.083720
 11
5.268560
 21
1.075800
 12
4.508240
 22
1.063920
 13
5.252280
 23
1.056440
  0
POLYLINE
  8
0
  6
CONTINUOUS
 66
     1
 40
0.000000
 41
0.000000
  0
VERTEX
  8
0
  6
CONTINUOUS
 10
4.524520
 20
1.083720
  0
VERTEX
  8
0
  6
CONTINUOUS
 10
5.268560
 20
1.075800
  0
VERTEX
  8
0
  6
CONTINUOUS
 10
5.252280
 20
1.056440
  0
VERTEX
  8
0
  6
CONTINUOUS
 10
4.508240
 20
1.063920
  0
VERTEX
  8
0
  6
CONTINUOUS
 10
4.524520
 20
1.083720
  0
SEQEND
  8
0
  0
SOLID
  8
0
 62
    15
 10
4.508240
 20
1.063920
 11
5.252280
 21
1.056440
 12
4.475240
 22
1.022120
 13
5.219280
 23
1.014200
  0
POLYLINE
  8
0
  6
CONTINUOUS
 66
     1
 40
0.000000
 41
0.000000
  0
VERTEX
  8
0
  6
CONTINUOUS
 10
4.508240
 20
1.063920
  0
VERTEX
  8
0
  6
CONTINUOUS
 10
5.252280
 20
1.056440
  0
VERTEX
  8
0
  6
CONTINUOUS
 10
5.219280
 20
1.014200
  0
VERTEX
  8
0
  6
CONTINUOUS
 10
4.475240
 20
1.022120
  0
VERTEX
  8
0
  6
CONTINUOUS
 10
4.508240
 20
1.063920
  0
SEQEND
  8
0
  0
SOLID
  8
0
 62
    15
 10
4.475240
 20
1.022120
 11
5.219280
 21
1.014200
 12
4.444880
 22
0.976360
 13
5.188920
 23
0.968440
  0
POLYLINE
  8
0
  6
CONTINUOUS
 66
     1
 40
0.000000
 41
0.000000
  0
VERTEX
  8
0
  6
CONTINUOUS
 10
4.475240
 20
1.022120
  0
VERTEX
  8
0
  6
CONTINUOUS
 10
5.219280
 20
1.014200
  0
VERTEX
  8
0
  6
CONTINUOUS
 10
5.188920
 20
0.968440
  0
VERTEX
  8
0
  6
CONTINUOUS
 10
4.444880
 20
0.976360
  0
VERTEX
  8
0
  6
CONTINUOUS
 10
4.475240
 20
1.022120
  0
SEQEND
  8
0
  0
SOLID
  8
0
 62
    15
 10
4.421120
 20
0.925760
 11
5.165160
 21
0.917840
 12
4.323880
 22
0.925760
 13
5.067920
 23
0.917840
  0
POLYLINE
  8
0
  6
CONTINUOUS
 66
     1
 40
0.000000
 41
0.000000
  0
VERTEX
  8
0
  6
CONTINUOUS
 10
4.421120
 20
0.925760
  0
VERTEX
  8
0
  6
CONTINUOUS
 10
5.165160
 20
0.917840
  0
VERTEX
  8
0
  6
CONTINUOUS
 10
5.067920
 20
0.917840
  0
VERTEX
  8
0
  6
CONTINUOUS
 10
4.323880
 20
0.925760
  0
VERTEX
  8
0
  6
CONTINUOUS
 10
4.421120
 20
0.925760
  0
SEQEND
  8
0
  0
SOLID
  8
0
 62
    15
 10
4.444880
 20
0.976360
 11
5.188920
 21
0.968440
 12
4.421120
 22
0.925760
 13
5.165160
 23
0.917840
  0
POLYLINE
  8
0
  6
CONTINUOUS
 66
     1
 40
0.000000
 41
0.000000
  0
VERTEX
  8
0
  6
CONTINUOUS
 10
4.444880
 20
0.976360
  0
VERTEX
  8
0
  6
CONTINUOUS
 10
5.188920
 20
0.968440
  0
VERTEX
  8
0
  6
CONTINUOUS
 10
5.165160
 20
0.917840
  0
VERTEX
  8
0
  6
CONTINUOUS
 10
4.421120
 20
0.925760
  0
VERTEX
  8
0
  6
CONTINUOUS
 10
4.444880
 20
0.976360
  0
SEQEND
  8
0
  0
SOLID
  8
0
 62
    15
 10
4.325200
 20
3.457080
 11
5.068800
 21
3.449160
 12
4.326520
 22
3.455320
 13
5.070560
 23
3.447840
  0
POLYLINE
  8
0
  6
CONTINUOUS
 66
     1
 40
0.000000
 41
0.000000
  0
VERTEX
  8
0
  6
CONTINUOUS
 10
4.325200
 20
3.457080
  0
VERTEX
  8
0
  6
CONTINUOUS
 10
5.068800
 20
3.449160
  0
VERTEX
  8
0
  6
CONTINUOUS
 10
5.070560
 20
3.447840
  0
VERTEX
  8
0
  6
CONTINUOUS
 10
4.326520
 20
3.455320
  0
VERTEX
  8
0
  6
CONTINUOUS
 10
4.325200
 20
3.457080
  0
SEQEND
  8
0
  0
SOLID
  8
0
 62
    15
 10
4.326520
 20
3.455320
 11
5.070560
 21
3.447840
 12
4.374040
 22
3.451360
 13
5.117640
 23
3.443440
  0
POLYLINE
  8
0
  6
CONTINUOUS
 66
     1
 40
0.000000
 41
0.000000
  0
VERTEX
  8
0
  6
CONTINUOUS
 10
4.326520
 20
3.455320
  0
VERTEX
  8
0
  6
CONTINUOUS
 10
5.070560
 20
3.447840
  0
VERTEX
  8
0
  6
CONTINUOUS
 10
5.117640
 20
3.443440
  0
VERTEX
  8
0
  6
CONTINUOUS
 10
4.374040
 20
3.451360
  0
VERTEX
  8
0
  6
CONTINUOUS
 10
4.326520
 20
3.455320
  0
SEQEND
  8
0
  0
SOLID
  8
0
 62
    15
 10
4.374040
 20
3.451360
 11
5.117640
 21
3.443440
 12
4.423760
 22
3.445200
 13
5.167800
 23
3.437280
  0
POLYLINE
  8
0
  6
CONTINUOUS
 66
     1
 40
0.000000
 41
0.000000
  0
VERTEX
  8
0
  6
CONTINUOUS
 10
4.374040
 20
3.451360
  0
VERTEX
  8
0
  6
CONTINUOUS
 10
5.117640
 20
3.443440
  0
VERTEX
  8
0
  6
CONTINUOUS
 10
5.167800
 20
3.437280
  0
VERTEX
  8
0
  6
CONTINUOUS
 10
4.423760
 20
3.445200
  0
VERTEX
  8
0
  6
CONTINUOUS
 10
4.374040
 20
3.451360
  0
SEQEND
  8
0
  0
SOLID
  8
0
 62
    15
 10
4.423760
 20
3.445200
 11
5.167800
 21
3.437280
 12
4.475240
 22
3.435960
 13
5.218840
 23
3.428040
  0
POLYLINE
  8
0
  6
CONTINUOUS
 66
     1
 40
0.000000
 41
0.000000
  0
VERTEX
  8
0
  6
CONTINUOUS
 10
4.423760
 20
3.445200
  0
VERTEX
  8
0
  6
CONTINUOUS
 10
5.167800
 20
3.437280
  0
VERTEX
  8
0
  6
CONTINUOUS
 10
5.218840
 20
3.428040
  0
VERTEX
  8
0
  6
CONTINUOUS
 10
4.475240
 20
3.435960
  0
VERTEX
  8
0
  6
CONTINUOUS
 10
4.423760
 20
3.445200
  0
SEQEND
  8
0
  0
SOLID
  8
0
 62
    15
 10
4.475240
 20
3.435960
 11
5.218840
 21
3.428040
 12
4.527160
 22
3.423640
 13
5.271200
 23
3.416160
  0
POLYLINE
  8
0
  6
CONTINUOUS
 66
     1
 40
0.000000
 41
0.000000
  0
VERTEX
  8
0
  6
CONTINUOUS
 10
4.475240
 20
3.435960
  0
VERTEX
  8
0
  6
CONTINUOUS
 10
5.218840
 20
3.428040
  0
VERTEX
  8
0
  6
CONTINUOUS
 10
5.271200
 20
3.416160
  0
VERTEX
  8
0
  6
CONTINUOUS
 10
4.527160
 20
3.423640
  0
VERTEX
  8
0
  6
CONTINUOUS
 10
4.475240
 20
3.435960
  0
SEQEND
  8
0
  0
SOLID
  8
0
 62
    15
 10
4.527160
 20
3.423640
 11
5.271200
 21
3.416160
 12
4.579960
 22
3.408240
 13
5.324000
 23
3.400320
  0
POLYLINE
  8
0
  6
CONTINUOUS
 66
     1
 40
0.000000
 41
0.000000
  0
VERTEX
  8
0
  6
CONTINUOUS
 10
4.527160
 20
3.423640
  0
VERTEX
  8
0
  6
CONTINUOUS
 10
5.271200
 20
3.416160
  0
VERTEX
  8
0
  6
CONTINUOUS
 10
5.324000
 20
3.400320
  0
VERTEX
  8
0
  6
CONTINUOUS
 10
4.579960
 20
3.408240
  0
VERTEX
  8
0
  6
CONTINUOUS
 10
4.527160
 20
3.423640
  0
SEQEND
  8
0
  0
SOLID
  8
0
 62
    15
 10
4.579960
 20
3.408240
 11
5.324000
 21
3.400320
 12
4.632320
 22
3.388880
 13
5.376360
 23
3.380960
  0
POLYLINE
  8
0
  6
CONTINUOUS
 66
     1
 40
0.000000
 41
0.000000
  0
VERTEX
  8
0
  6
CONTINUOUS
 10
4.579960
 20
3.408240
  0
VERTEX
  8
0
  6
CONTINUOUS
 10
5.324000
 20
3.400320
  0
VERTEX
  8
0
  6
CONTINUOUS
 10
5.376360
 20
3.380960
  0
VERTEX
  8
0
  6
CONTINUOUS
 10
4.632320
 20
3.388880
  0
VERTEX
  8
0
  6
CONTINUOUS
 10
4.579960
 20
3.408240
  0
SEQEND
  8
0
  0
SOLID
  8
0
 62
    15
 10
4.632320
 20
3.388880
 11
5.376360
 21
3.380960
 12
4.683360
 22
3.365560
 13
5.427400
 23
3.357640
  0
POLYLINE
  8
0
  6
CONTINUOUS
 66
     1
 40
0.000000
 41
0.000000
  0
VERTEX
  8
0
  6
CONTINUOUS
 10
4.632320
 20
3.388880
  0
VERTEX
  8
0
  6
CONTINUOUS
 10
5.376360
 20
3.380960
  0
VERTEX
  8
0
  6
CONTINUOUS
 10
5.427400
 20
3.357640
  0
VERTEX
  8
0
  6
CONTINUOUS
 10
4.683360
 20
3.365560
  0
VERTEX
  8
0
  6
CONTINUOUS
 10
4.632320
 20
3.388880
  0
SEQEND
  8
0
  0
SOLID
  8
0
 62
    15
 10
4.683360
 20
3.365560
 11
5.427400
 21
3.357640
 12
4.733080
 22
3.337840
 13
5.477120
 23
3.329920
  0
POLYLINE
  8
0
  6
CONTINUOUS
 66
     1
 40
0.000000
 41
0.000000
  0
VERTEX
  8
0
  6
CONTINUOUS
 10
4.683360
 20
3.365560
  0
VERTEX
  8
0
  6
CONTINUOUS
 10
5.427400
 20
3.357640
  0
VERTEX
  8
0
  6
CONTINUOUS
 10
5.477120
 20
3.329920
  0
VERTEX
  8
0
  6
CONTINUOUS
 10
4.733080
 20
3.337840
  0
VERTEX
  8
0
  6
CONTINUOUS
 10
4.683360
 20
3.365560
  0
SEQEND
  8
0
  0
SOLID
  8
0
 62
    15
 10
4.733080
 20
3.337840
 11
5.477120
 21
3.329920
 12
4.780600
 22
3.305280
 13
5.524200
 23
3.297360
  0
POLYLINE
  8
0
  6
CONTINUOUS
 66
     1
 40
0.000000
 41
0.000000
  0
VERTEX
  8
0
  6
CONTINUOUS
 10
4.733080
 20
3.337840
  0
VERTEX
  8
0
  6
CONTINUOUS
 10
5.477120
 20
3.329920
  0
VERTEX
  8
0
  6
CONTINUOUS
 10
5.524200
 20
3.297360
  0
VERTEX
  8
0
  6
CONTINUOUS
 10
4.780600
 20
3.305280
  0
VERTEX
  8
0
  6
CONTINUOUS
 10
4.733080
 20
3.337840
  0
SEQEND
  8
0
  0
SOLID
  8
0
 62
    15
 10
4.780600
 20
3.305280
 11
5.524200
 21
3.297360
 12
4.824600
 22
3.267440
 13
5.568640
 23
3.259520
  0
POLYLINE
  8
0
  6
CONTINUOUS
 66
     1
 40
0.000000
 41
0.000000
  0
VERTEX
  8
0
  6
CONTINUOUS
 10
4.780600
 20
3.305280
  0
VERTEX
  8
0
  6
CONTINUOUS
 10
5.524200
 20
3.297360
  0
VERTEX
  8
0
  6
CONTINUOUS
 10
5.568640
 20
3.259520
  0
VERTEX
  8
0
  6
CONTINUOUS
 10
4.824600
 20
3.267440
  0
VERTEX
  8
0
  6
CONTINUOUS
 10
4.780600
 20
3.305280
  0
SEQEND
  8
0
  0
SOLID
  8
0
 62
    15
 10
4.824600
 20
3.267440
 11
5.568640
 21
3.259520
 12
4.865080
 22
3.223880
 13
5.609120
 23
3.216400
  0
POLYLINE
  8
0
  6
CONTINUOUS
 66
     1
 40
0.000000
 41
0.000000
  0
VERTEX
  8
0
  6
CONTINUOUS
 10
4.824600
 20
3.267440
  0
VERTEX
  8
0
  6
CONTINUOUS
 10
5.568640
 20
3.259520
  0
VERTEX
  8
0
  6
CONTINUOUS
 10
5.609120
 20
3.216400
  0
VERTEX
  8
0
  6
CONTINUOUS
 10
4.865080
 20
3.223880
  0
VERTEX
  8
0
  6
CONTINUOUS
 10
4.824600
 20
3.267440
  0
SEQEND
  8
0
  0
SOLID
  8
0
 62
    15
 10
4.865080
 20
3.223880
 11
5.609120
 21
3.216400
 12
4.901600
 22
3.175040
 13
5.645640
 23
3.167120
  0
POLYLINE
  8
0
  6
CONTINUOUS
 66
     1
 40
0.000000
 41
0.000000
  0
VERTEX
  8
0
  6
CONTINUOUS
 10
4.865080
 20
3.223880
  0
VERTEX
  8
0
  6
CONTINUOUS
 10
5.609120
 20
3.216400
  0
VERTEX
  8
0
  6
CONTINUOUS
 10
5.645640
 20
3.167120
  0
VERTEX
  8
0
  6
CONTINUOUS
 10
4.901600
 20
3.175040
  0
VERTEX
  8
0
  6
CONTINUOUS
 10
4.865080
 20
3.223880
  0
SEQEND
  8
0
  0
SOLID
  8
0
 62
    15
 10
4.901600
 20
3.175040
 11
5.645640
 21
3.167120
 12
4.932840
 22
3.119600
 13
5.676880
 23
3.111680
  0
POLYLINE
  8
0
  6
CONTINUOUS
 66
     1
 40
0.000000
 41
0.000000
  0
VERTEX
  8
0
  6
CONTINUOUS
 10
4.901600
 20
3.175040
  0
VERTEX
  8
0
  6
CONTINUOUS
 10
5.645640
 20
3.167120
  0
VERTEX
  8
0
  6
CONTINUOUS
 10
5.676880
 20
3.111680
  0
VERTEX
  8
0
  6
CONTINUOUS
 10
4.932840
 20
3.119600
  0
VERTEX
  8
0
  6
CONTINUOUS
 10
4.901600
 20
3.175040
  0
SEQEND
  8
0
  0
SOLID
  8
0
 62
    15
 10
4.932840
 20
3.119600
 11
5.676880
 21
3.111680
 12
4.958800
 22
3.058000
 13
5.702400
 23
3.050080
  0
POLYLINE
  8
0
  6
CONTINUOUS
 66
     1
 40
0.000000
 41
0.000000
  0
VERTEX
  8
0
  6
CONTINUOUS
 10
4.932840
 20
3.119600
  0
VERTEX
  8
0
  6
CONTINUOUS
 10
5.676880
 20
3.111680
  0
VERTEX
  8
0
  6
CONTINUOUS
 10
5.702400
 20
3.050080
  0
VERTEX
  8
0
  6
CONTINUOUS
 10
4.958800
 20
3.058000
  0
VERTEX
  8
0
  6
CONTINUOUS
 10
4.932840
 20
3.119600
  0
SEQEND
  8
0
  0
SOLID
  8
0
 62
    15
 10
4.958800
 20
3.058000
 11
5.702400
 21
3.050080
 12
4.978160
 22
2.988920
 13
5.721760
 23
2.981000
  0
POLYLINE
  8
0
  6
CONTINUOUS
 66
     1
 40
0.000000
 41
0.000000
  0
VERTEX
  8
0
  6
CONTINUOUS
 10
4.958800
 20
3.058000
  0
VERTEX
  8
0
  6
CONTINUOUS
 10
5.702400
 20
3.050080
  0
VERTEX
  8
0
  6
CONTINUOUS
 10
5.721760
 20
2.981000
  0
VERTEX
  8
0
  6
CONTINUOUS
 10
4.978160
 20
2.988920
  0
VERTEX
  8
0
  6
CONTINUOUS
 10
4.958800
 20
3.058000
  0
SEQEND
  8
0
  0
SOLID
  8
0
 62
    15
 10
4.978160
 20
2.988920
 11
5.721760
 21
2.981000
 12
4.990480
 22
2.912800
 13
5.734520
 23
2.905320
  0
POLYLINE
  8
0
  6
CONTINUOUS
 66
     1
 40
0.000000
 41
0.000000
  0
VERTEX
  8
0
  6
CONTINUOUS
 10
4.978160
 20
2.988920
  0
VERTEX
  8
0
  6
CONTINUOUS
 10
5.721760
 20
2.981000
  0
VERTEX
  8
0
  6
CONTINUOUS
 10
5.734520
 20
2.905320
  0
VERTEX
  8
0
  6
CONTINUOUS
 10
4.990480
 20
2.912800
  0
VERTEX
  8
0
  6
CONTINUOUS
 10
4.978160
 20
2.988920
  0
SEQEND
  8
0
  0
SOLID
  8
0
 62
    15
 10
4.565440
 20
1.243000
 11
5.309480
 21
1.235080
 12
4.576880
 22
1.225400
 13
5.320920
 23
1.217480
  0
POLYLINE
  8
0
  6
CONTINUOUS
 66
     1
 40
0.000000
 41
0.000000
  0
VERTEX
  8
0
  6
CONTINUOUS
 10
4.565440
 20
1.243000
  0
VERTEX
  8
0
  6
CONTINUOUS
 10
5.309480
 20
1.235080
  0
VERTEX
  8
0
  6
CONTINUOUS
 10
5.320920
 20
1.217480
  0
VERTEX
  8
0
  6
CONTINUOUS
 10
4.576880
 20
1.225400
  0
VERTEX
  8
0
  6
CONTINUOUS
 10
4.565440
 20
1.243000
  0
SEQEND
  8
0
  0
SOLID
  8
0
 62
    15
 10
4.905120
 20
2.912800
 11
5.648720
 21
2.905320
 12
4.905120
 22
2.911920
 13
5.648720
 23
2.904000
  0
POLYLINE
  8
0
  6
CONTINUOUS
 66
     1
 40
0.000000
 41
0.000000
  0
VERTEX
  8
0
  6
CONTINUOUS
 10
4.905120
 20
2.912800
  0
VERTEX
  8
0
  6
CONTINUOUS
 10
5.648720
 20
2.905320
  0
VERTEX
  8
0
  6
CONTINUOUS
 10
5.648720
 20
2.904000
  0
VERTEX
  8
0
  6
CONTINUOUS
 10
4.905120
 20
2.911920
  0
VERTEX
  8
0
  6
CONTINUOUS
 10
4.905120
 20
2.912800
  0
SEQEND
  8
0
  0
SOLID
  8
0
 62
    15
 10
4.905120
 20
2.911920
 11
5.648720
 21
2.904000
 12
4.926240
 22
2.856920
 13
5.670280
 23
2.849000
  0
POLYLINE
  8
0
  6
CONTINUOUS
 66
     1
 40
0.000000
 41
0.000000
  0
VERTEX
  8
0
  6
CONTINUOUS
 10
4.905120
 20
2.911920
  0
VERTEX
  8
0
  6
CONTINUOUS
 10
5.648720
 20
2.904000
  0
VERTEX
  8
0
  6
CONTINUOUS
 10
5.670280
 20
2.849000
  0
VERTEX
  8
0
  6
CONTINUOUS
 10
4.926240
 20
2.856920
  0
VERTEX
  8
0
  6
CONTINUOUS
 10
4.905120
 20
2.911920
  0
SEQEND
  8
0
  0
SOLID
  8
0
 62
    15
 10
4.926240
 20
2.856920
 11
5.670280
 21
2.849000
 12
4.943840
 22
2.805000
 13
5.687880
 23
2.797080
  0
POLYLINE
  8
0
  6
CONTINUOUS
 66
     1
 40
0.000000
 41
0.000000
  0
VERTEX
  8
0
  6
CONTINUOUS
 10
4.926240
 20
2.856920
  0
VERTEX
  8
0
  6
CONTINUOUS
 10
5.670280
 20
2.849000
  0
VERTEX
  8
0
  6
CONTINUOUS
 10
5.687880
 20
2.797080
  0
VERTEX
  8
0
  6
CONTINUOUS
 10
4.943840
 20
2.805000
  0
VERTEX
  8
0
  6
CONTINUOUS
 10
4.926240
 20
2.856920
  0
SEQEND
  8
0
  0
SOLID
  8
0
 62
    15
 10
4.943840
 20
2.805000
 11
5.687880
 21
2.797080
 12
4.957480
 22
2.755720
 13
5.701080
 23
2.747800
  0
POLYLINE
  8
0
  6
CONTINUOUS
 66
     1
 40
0.000000
 41
0.000000
  0
VERTEX
  8
0
  6
CONTINUOUS
 10
4.943840
 20
2.805000
  0
VERTEX
  8
0
  6
CONTINUOUS
 10
5.687880
 20
2.797080
  0
VERTEX
  8
0
  6
CONTINUOUS
 10
5.701080
 20
2.747800
  0
VERTEX
  8
0
  6
CONTINUOUS
 10
4.957480
 20
2.755720
  0
VERTEX
  8
0
  6
CONTINUOUS
 10
4.943840
 20
2.805000
  0
SEQEND
  8
0
  0
SOLID
  8
0
 62
    15
 10
4.957480
 20
2.755720
 11
5.701080
 21
2.747800
 12
4.967160
 22
2.709080
 13
5.711200
 23
2.701600
  0
POLYLINE
  8
0
  6
CONTINUOUS
 66
     1
 40
0.000000
 41
0.000000
  0
VERTEX
  8
0
  6
CONTINUOUS
 10
4.957480
 20
2.755720
  0
VERTEX
  8
0
  6
CONTINUOUS
 10
5.701080
 20
2.747800
  0
VERTEX
  8
0
  6
CONTINUOUS
 10
5.711200
 20
2.701600
  0
VERTEX
  8
0
  6
CONTINUOUS
 10
4.967160
 20
2.709080
  0
VERTEX
  8
0
  6
CONTINUOUS
 10
4.957480
 20
2.755720
  0
SEQEND
  8
0
  0
SOLID
  8
0
 62
    15
 10
4.967160
 20
2.709080
 11
5.711200
 21
2.701600
 12
4.973760
 22
2.665080
 13
5.717800
 23
2.657160
  0
POLYLINE
  8
0
  6
CONTINUOUS
 66
     1
 40
0.000000
 41
0.000000
  0
VERTEX
  8
0
  6
CONTINUOUS
 10
4.967160
 20
2.709080
  0
VERTEX
  8
0
  6
CONTINUOUS
 10
5.711200
 20
2.701600
  0
VERTEX
  8
0
  6
CONTINUOUS
 10
5.717800
 20
2.657160
  0
VERTEX
  8
0
  6
CONTINUOUS
 10
4.973760
 20
2.665080
  0
VERTEX
  8
0
  6
CONTINUOUS
 10
4.967160
 20
2.709080
  0
SEQEND
  8
0
  0
SOLID
  8
0
 62
    15
 10
4.973760
 20
2.665080
 11
5.717800
 21
2.657160
 12
4.977280
 22
2.623280
 13
5.721320
 23
2.615360
  0
POLYLINE
  8
0
  6
CONTINUOUS
 66
     1
 40
0.000000
 41
0.000000
  0
VERTEX
  8
0
  6
CONTINUOUS
 10
4.973760
 20
2.665080
  0
VERTEX
  8
0
  6
CONTINUOUS
 10
5.717800
 20
2.657160
  0
VERTEX
  8
0
  6
CONTINUOUS
 10
5.721320
 20
2.615360
  0
VERTEX
  8
0
  6
CONTINUOUS
 10
4.977280
 20
2.623280
  0
VERTEX
  8
0
  6
CONTINUOUS
 10
4.973760
 20
2.665080
  0
SEQEND
  8
0
  0
SOLID
  8
0
 62
    15
 10
4.977280
 20
2.623280
 11
5.721320
 21
2.615360
 12
4.978160
 22
2.583680
 13
5.721760
 23
2.575760
  0
POLYLINE
  8
0
  6
CONTINUOUS
 66
     1
 40
0.000000
 41
0.000000
  0
VERTEX
  8
0
  6
CONTINUOUS
 10
4.977280
 20
2.623280
  0
VERTEX
  8
0
  6
CONTINUOUS
 10
5.721320
 20
2.615360
  0
VERTEX
  8
0
  6
CONTINUOUS
 10
5.721760
 20
2.575760
  0
VERTEX
  8
0
  6
CONTINUOUS
 10
4.978160
 20
2.583680
  0
VERTEX
  8
0
  6
CONTINUOUS
 10
4.977280
 20
2.623280
  0
SEQEND
  8
0
  0
SOLID
  8
0
 62
    15
 10
4.978160
 20
2.583680
 11
5.721760
 21
2.575760
 12
4.975960
 22
2.545840
 13
5.720000
 23
2.537920
  0
POLYLINE
  8
0
  6
CONTINUOUS
 66
     1
 40
0.000000
 41
0.000000
  0
VERTEX
  8
0
  6
CONTINUOUS
 10
4.978160
 20
2.583680
  0
VERTEX
  8
0
  6
CONTINUOUS
 10
5.721760
 20
2.575760
  0
VERTEX
  8
0
  6
CONTINUOUS
 10
5.720000
 20
2.537920
  0
VERTEX
  8
0
  6
CONTINUOUS
 10
4.975960
 20
2.545840
  0
VERTEX
  8
0
  6
CONTINUOUS
 10
4.978160
 20
2.583680
  0
SEQEND
  8
0
  0
SOLID
  8
0
 62
    15
 10
4.975960
 20
2.545840
 11
5.720000
 21
2.537920
 12
4.964520
 22
2.475000
 13
5.708560
 23
2.467080
  0
POLYLINE
  8
0
  6
CONTINUOUS
 66
     1
 40
0.000000
 41
0.000000
  0
VERTEX
  8
0
  6
CONTINUOUS
 10
4.975960
 20
2.545840
  0
VERTEX
  8
0
  6
CONTINUOUS
 10
5.720000
 20
2.537920
  0
VERTEX
  8
0
  6
CONTINUOUS
 10
5.708560
 20
2.467080
  0
VERTEX
  8
0
  6
CONTINUOUS
 10
4.964520
 20
2.475000
  0
VERTEX
  8
0
  6
CONTINUOUS
 10
4.975960
 20
2.545840
  0
SEQEND
  8
0
  0
SOLID
  8
0
 62
    15
 10
4.964520
 20
2.475000
 11
5.708560
 21
2.467080
 12
4.945160
 22
2.409440
 13
5.689200
 23
2.401520
  0
POLYLINE
  8
0
  6
CONTINUOUS
 66
     1
 40
0.000000
 41
0.000000
  0
VERTEX
  8
0
  6
CONTINUOUS
 10
4.964520
 20
2.475000
  0
VERTEX
  8
0
  6
CONTINUOUS
 10
5.708560
 20
2.467080
  0
VERTEX
  8
0
  6
CONTINUOUS
 10
5.689200
 20
2.401520
  0
VERTEX
  8
0
  6
CONTINUOUS
 10
4.945160
 20
2.409440
  0
VERTEX
  8
0
  6
CONTINUOUS
 10
4.964520
 20
2.475000
  0
SEQEND
  8
0
  0
SOLID
  8
0
 62
    15
 10
4.945160
 20
2.409440
 11
5.689200
 21
2.401520
 12
4.919640
 22
2.347840
 13
5.663680
 23
2.339920
  0
POLYLINE
  8
0
  6
CONTINUOUS
 66
     1
 40
0.000000
 41
0.000000
  0
VERTEX
  8
0
  6
CONTINUOUS
 10
4.945160
 20
2.409440
  0
VERTEX
  8
0
  6
CONTINUOUS
 10
5.689200
 20
2.401520
  0
VERTEX
  8
0
  6
CONTINUOUS
 10
5.663680
 20
2.339920
  0
VERTEX
  8
0
  6
CONTINUOUS
 10
4.919640
 20
2.347840
  0
VERTEX
  8
0
  6
CONTINUOUS
 10
4.945160
 20
2.409440
  0
SEQEND
  8
0
  0
SOLID
  8
0
 62
    15
 10
4.919640
 20
2.347840
 11
5.663680
 21
2.339920
 12
4.889720
 22
2.288000
 13
5.633760
 23
2.280520
  0
POLYLINE
  8
0
  6
CONTINUOUS
 66
     1
 40
0.000000
 41
0.000000
  0
VERTEX
  8
0
  6
CONTINUOUS
 10
4.919640
 20
2.347840
  0
VERTEX
  8
0
  6
CONTINUOUS
 10
5.663680
 20
2.339920
  0
VERTEX
  8
0
  6
CONTINUOUS
 10
5.633760
 20
2.280520
  0
VERTEX
  8
0
  6
CONTINUOUS
 10
4.889720
 20
2.288000
  0
VERTEX
  8
0
  6
CONTINUOUS
 10
4.919640
 20
2.347840
  0
SEQEND
  8
0
  0
SOLID
  8
0
 62
    15
 10
4.889720
 20
2.288000
 11
5.633760
 21
2.280520
 12
4.857160
 22
2.229480
 13
5.601200
 23
2.222000
  0
POLYLINE
  8
0
  6
CONTINUOUS
 66
     1
 40
0.000000
 41
0.000000
  0
VERTEX
  8
0
  6
CONTINUOUS
 10
4.889720
 20
2.288000
  0
VERTEX
  8
0
  6
CONTINUOUS
 10
5.633760
 20
2.280520
  0
VERTEX
  8
0
  6
CONTINUOUS
 10
5.601200
 20
2.222000
  0
VERTEX
  8
0
  6
CONTINUOUS
 10
4.857160
 20
2.229480
  0
VERTEX
  8
0
  6
CONTINUOUS
 10
4.889720
 20
2.288000
  0
SEQEND
  8
0
  0
SOLID
  8
0
 62
    15
 10
4.857160
 20
2.229480
 11
5.601200
 21
2.222000
 12
4.840880
 22
2.200440
 13
5.584480
 23
2.192520
  0
POLYLINE
  8
0
  6
CONTINUOUS
 66
     1
 40
0.000000
 41
0.000000
  0
VERTEX
  8
0
  6
CONTINUOUS
 10
4.857160
 20
2.229480
  0
VERTEX
  8
0
  6
CONTINUOUS
 10
5.601200
 20
2.222000
  0
VERTEX
  8
0
  6
CONTINUOUS
 10
5.584480
 20
2.192520
  0
VERTEX
  8
0
  6
CONTINUOUS
 10
4.840880
 20
2.200440
  0
VERTEX
  8
0
  6
CONTINUOUS
 10
4.857160
 20
2.229480
  0
SEQEND
  8
0
  0
SOLID
  8
0
 62
    15
 10
4.840880
 20
2.200440
 11
5.584480
 21
2.192520
 12
4.824160
 22
2.170520
 13
5.568200
 23
2.162600
  0
POLYLINE
  8
0
  6
CONTINUOUS
 66
     1
 40
0.000000
 41
0.000000
  0
VERTEX
  8
0
  6
CONTINUOUS
 10
4.840880
 20
2.200440
  0
VERTEX
  8
0
  6
CONTINUOUS
 10
5.584480
 20
2.192520
  0
VERTEX
  8
0
  6
CONTINUOUS
 10
5.568200
 20
2.162600
  0
VERTEX
  8
0
  6
CONTINUOUS
 10
4.824160
 20
2.170520
  0
VERTEX
  8
0
  6
CONTINUOUS
 10
4.840880
 20
2.200440
  0
SEQEND
  8
0
  0
SOLID
  8
0
 62
    15
 10
4.824160
 20
2.170520
 11
5.568200
 21
2.162600
 12
4.792040
 22
2.109360
 13
5.536080
 23
2.101440
  0
POLYLINE
  8
0
  6
CONTINUOUS
 66
     1
 40
0.000000
 41
0.000000
  0
VERTEX
  8
0
  6
CONTINUOUS
 10
4.824160
 20
2.170520
  0
VERTEX
  8
0
  6
CONTINUOUS
 10
5.568200
 20
2.162600
  0
VERTEX
  8
0
  6
CONTINUOUS
 10
5.536080
 20
2.101440
  0
VERTEX
  8
0
  6
CONTINUOUS
 10
4.792040
 20
2.109360
  0
VERTEX
  8
0
  6
CONTINUOUS
 10
4.824160
 20
2.170520
  0
SEQEND
  8
0
  0
SOLID
  8
0
 62
    15
 10
4.792040
 20
2.109360
 11
5.536080
 21
2.101440
 12
4.762560
 22
2.044240
 13
5.506600
 23
2.036320
  0
POLYLINE
  8
0
  6
CONTINUOUS
 66
     1
 40
0.000000
 41
0.000000
  0
VERTEX
  8
0
  6
CONTINUOUS
 10
4.792040
 20
2.109360
  0
VERTEX
  8
0
  6
CONTINUOUS
 10
5.536080
 20
2.101440
  0
VERTEX
  8
0
  6
CONTINUOUS
 10
5.506600
 20
2.036320
  0
VERTEX
  8
0
  6
CONTINUOUS
 10
4.762560
 20
2.044240
  0
VERTEX
  8
0
  6
CONTINUOUS
 10
4.792040
 20
2.109360
  0
SEQEND
  8
0
  0
SOLID
  8
0
 62
    15
 10
4.762560
 20
2.044240
 11
5.506600
 21
2.036320
 12
4.738360
 22
1.974280
 13
5.481960
 23
1.966360
  0
POLYLINE
  8
0
  6
CONTINUOUS
 66
     1
 40
0.000000
 41
0.000000
  0
VERTEX
  8
0
  6
CONTINUOUS
 10
4.762560
 20
2.044240
  0
VERTEX
  8
0
  6
CONTINUOUS
 10
5.506600
 20
2.036320
  0
VERTEX
  8
0
  6
CONTINUOUS
 10
5.481960
 20
1.966360
  0
VERTEX
  8
0
  6
CONTINUOUS
 10
4.738360
 20
1.974280
  0
VERTEX
  8
0
  6
CONTINUOUS
 10
4.762560
 20
2.044240
  0
SEQEND
  8
0
  0
SOLID
  8
0
 62
    15
 10
4.738360
 20
1.974280
 11
5.481960
 21
1.966360
 12
4.720320
 22
1.897720
 13
5.464360
 23
1.889800
  0
POLYLINE
  8
0
  6
CONTINUOUS
 66
     1
 40
0.000000
 41
0.000000
  0
VERTEX
  8
0
  6
CONTINUOUS
 10
4.738360
 20
1.974280
  0
VERTEX
  8
0
  6
CONTINUOUS
 10
5.481960
 20
1.966360
  0
VERTEX
  8
0
  6
CONTINUOUS
 10
5.464360
 20
1.889800
  0
VERTEX
  8
0
  6
CONTINUOUS
 10
4.720320
 20
1.897720
  0
VERTEX
  8
0
  6
CONTINUOUS
 10
4.738360
 20
1.974280
  0
SEQEND
  8
0
  0
SOLID
  8
0
 62
    15
 10
4.720320
 20
1.897720
 11
5.464360
 21
1.889800
 12
4.710640
 22
1.812800
 13
5.454680
 23
1.805320
  0
POLYLINE
  8
0
  6
CONTINUOUS
 66
     1
 40
0.000000
 41
0.000000
  0
VERTEX
  8
0
  6
CONTINUOUS
 10
4.720320
 20
1.897720
  0
VERTEX
  8
0
  6
CONTINUOUS
 10
5.464360
 20
1.889800
  0
VERTEX
  8
0
  6
CONTINUOUS
 10
5.454680
 20
1.805320
  0
VERTEX
  8
0
  6
CONTINUOUS
 10
4.710640
 20
1.812800
  0
VERTEX
  8
0
  6
CONTINUOUS
 10
4.720320
 20
1.897720
  0
SEQEND
  8
0
  0
SOLID
  8
0
 62
    15
 10
4.710640
 20
1.812800
 11
5.454680
 21
1.805320
 12
4.709760
 22
1.767040
 13
5.453360
 23
1.759120
  0
POLYLINE
  8
0
  6
CONTINUOUS
 66
     1
 40
0.000000
 41
0.000000
  0
VERTEX
  8
0
  6
CONTINUOUS
 10
4.710640
 20
1.812800
  0
VERTEX
  8
0
  6
CONTINUOUS
 10
5.454680
 20
1.805320
  0
VERTEX
  8
0
  6
CONTINUOUS
 10
5.453360
 20
1.759120
  0
VERTEX
  8
0
  6
CONTINUOUS
 10
4.709760
 20
1.767040
  0
VERTEX
  8
0
  6
CONTINUOUS
 10
4.710640
 20
1.812800
  0
SEQEND
  8
0
  0
SOLID
  8
0
 62
    15
 10
4.565440
 20
1.302840
 11
5.309480
 21
1.294920
 12
4.565440
 22
1.245640
 13
5.309480
 23
1.237720
  0
POLYLINE
  8
0
  6
CONTINUOUS
 66
     1
 40
0.000000
 41
0.000000
  0
VERTEX
  8
0
  6
CONTINUOUS
 10
4.565440
 20
1.302840
  0
VERTEX
  8
0
  6
CONTINUOUS
 10
5.309480
 20
1.294920
  0
VERTEX
  8
0
  6
CONTINUOUS
 10
5.309480
 20
1.237720
  0
VERTEX
  8
0
  6
CONTINUOUS
 10
4.565440
 20
1.245640
  0
VERTEX
  8
0
  6
CONTINUOUS
 10
4.565440
 20
1.302840
  0
SEQEND
  8
0
  0
SOLID
  8
0
 62
    15
 10
4.628360
 20
1.302840
 11
5.372400
 21
1.294920
 12
4.565440
 22
1.302840
 13
5.309480
 23
1.294920
  0
POLYLINE
  8
0
  6
CONTINUOUS
 66
     1
 40
0.000000
 41
0.000000
  0
VERTEX
  8
0
  6
CONTINUOUS
 10
4.628360
 20
1.302840
  0
VERTEX
  8
0
  6
CONTINUOUS
 10
5.372400
 20
1.294920
  0
VERTEX
  8
0
  6
CONTINUOUS
 10
5.309480
 20
1.294920
  0
VERTEX
  8
0
  6
CONTINUOUS
 10
4.565440
 20
1.302840
  0
VERTEX
  8
0
  6
CONTINUOUS
 10
4.628360
 20
1.302840
  0
SEQEND
  8
0
  0
SOLID
  8
0
 62
    15
 10
4.628360
 20
1.718640
 11
5.372400
 21
1.710720
 12
4.628360
 22
1.302840
 13
5.372400
 23
1.294920
  0
POLYLINE
  8
0
  6
CONTINUOUS
 66
     1
 40
0.000000
 41
0.000000
  0
VERTEX
  8
0
  6
CONTINUOUS
 10
4.628360
 20
1.718640
  0
VERTEX
  8
0
  6
CONTINUOUS
 10
5.372400
 20
1.710720
  0
VERTEX
  8
0
  6
CONTINUOUS
 10
5.372400
 20
1.294920
  0
VERTEX
  8
0
  6
CONTINUOUS
 10
4.628360
 20
1.302840
  0
VERTEX
  8
0
  6
CONTINUOUS
 10
4.628360
 20
1.718640
  0
SEQEND
  8
0
  0
SOLID
  8
0
 62
    15
 10
4.711080
 20
1.718640
 11
5.455120
 21
1.710720
 12
4.628360
 22
1.718640
 13
5.372400
 23
1.710720
  0
POLYLINE
  8
0
  6
CONTINUOUS
 66
     1
 40
0.000000
 41
0.000000
  0
VERTEX
  8
0
  6
CONTINUOUS
 10
4.711080
 20
1.718640
  0
VERTEX
  8
0
  6
CONTINUOUS
 10
5.455120
 20
1.710720
  0
VERTEX
  8
0
  6
CONTINUOUS
 10
5.372400
 20
1.710720
  0
VERTEX
  8
0
  6
CONTINUOUS
 10
4.628360
 20
1.718640
  0
VERTEX
  8
0
  6
CONTINUOUS
 10
4.711080
 20
1.718640
  0
SEQEND
  8
0
  0
SOLID
  8
0
 62
    15
 10
4.709760
 20
1.767040
 11
5.453360
 21
1.759120
 12
4.711080
 22
1.718640
 13
5.455120
 23
1.710720
  0
POLYLINE
  8
0
  6
CONTINUOUS
 66
     1
 40
0.000000
 41
0.000000
  0
VERTEX
  8
0
  6
CONTINUOUS
 10
4.709760
 20
1.767040
  0
VERTEX
  8
0
  6
CONTINUOUS
 10
5.453360
 20
1.759120
  0
VERTEX
  8
0
  6
CONTINUOUS
 10
5.455120
 20
1.710720
  0
VERTEX
  8
0
  6
CONTINUOUS
 10
4.711080
 20
1.718640
  0
VERTEX
  8
0
  6
CONTINUOUS
 10
4.709760
 20
1.767040
  0
SEQEND
  8
0
  0
SOLID
  8
0
 62
    15
 10
4.565440
 20
1.245640
 11
5.309480
 21
1.237720
 12
4.565440
 22
1.243000
 13
5.309480
 23
1.235080
  0
POLYLINE
  8
0
  6
CONTINUOUS
 66
     1
 40
0.000000
 41
0.000000
  0
VERTEX
  8
0
  6
CONTINUOUS
 10
4.565440
 20
1.245640
  0
VERTEX
  8
0
  6
CONTINUOUS
 10
5.309480
 20
1.237720
  0
VERTEX
  8
0
  6
CONTINUOUS
 10
5.309480
 20
1.235080
  0
VERTEX
  8
0
  6
CONTINUOUS
 10
4.565440
 20
1.243000
  0
VERTEX
  8
0
  6
CONTINUOUS
 10
4.565440
 20
1.245640
  0
SEQEND
  8
0
  0
POLYLINE
  8
0
  6
CONTINUOUS
 66
     1
 40
0.000000
 41
0.000000
  0
VERTEX
  8
0
  6
CONTINUOUS
 10
4.565440
 20
1.243000
  0
VERTEX
  8
0
  6
CONTINUOUS
 10
4.576880
 20
1.225400
  0
VERTEX
  8
0
  6
CONTINUOUS
 10
4.583040
 20
1.208240
  0
VERTEX
  8
0
  6
CONTINUOUS
 10
4.584360
 20
1.191080
  0
VERTEX
  8
0
  6
CONTINUOUS
 10
4.581720
 20
1.173920
  0
VERTEX
  8
0
  6
CONTINUOUS
 10
4.565880
 20
1.139160
  0
VERTEX
  8
0
  6
CONTINUOUS
 10
4.539920
 20
1.102640
  0
VERTEX
  8
0
  6
CONTINUOUS
 10
4.475240
 20
1.022120
  0
VERTEX
  8
0
  6
CONTINUOUS
 10
4.444880
 20
0.976360
  0
VERTEX
  8
0
  6
CONTINUOUS
 10
4.421120
 20
0.925760
  0
VERTEX
  8
0
  6
CONTINUOUS
 10
4.323880
 20
0.925760
  0
VERTEX
  8
0
  6
CONTINUOUS
 10
4.325200
 20
0.925760
  0
VERTEX
  8
0
  6
CONTINUOUS
 10
4.325200
 20
3.457080
  0
VERTEX
  8
0
  6
CONTINUOUS
 10
4.326520
 20
3.455320
  0
VERTEX
  8
0
  6
CONTINUOUS
 10
4.374040
 20
3.451360
  0
VERTEX
  8
0
  6
CONTINUOUS
 10
4.423760
 20
3.445200
  0
VERTEX
  8
0
  6
CONTINUOUS
 10
4.475240
 20
3.435960
  0
VERTEX
  8
0
  6
CONTINUOUS
 10
4.527160
 20
3.423640
  0
VERTEX
  8
0
  6
CONTINUOUS
 10
4.579960
 20
3.408240
  0
VERTEX
  8
0
  6
CONTINUOUS
 10
4.632320
 20
3.388880
  0
VERTEX
  8
0
  6
CONTINUOUS
 10
4.683360
 20
3.365560
  0
VERTEX
  8
0
  6
CONTINUOUS
 10
4.733080
 20
3.337840
  0
VERTEX
  8
0
  6
CONTINUOUS
 10
4.780600
 20
3.305280
  0
VERTEX
  8
0
  6
CONTINUOUS
 10
4.824600
 20
3.267440
  0
VERTEX
  8
0
  6
CONTINUOUS
 10
4.865080
 20
3.223880
  0
VERTEX
  8
0
  6
CONTINUOUS
 10
4.901600
 20
3.175040
  0
VERTEX
  8
0
  6
CONTINUOUS
 10
4.932840
 20
3.119600
  0
VERTEX
  8
0
  6
CONTINUOUS
 10
4.958800
 20
3.058000
  0
VERTEX
  8
0
  6
CONTINUOUS
 10
4.978160
 20
2.988920
  0
VERTEX
  8
0
  6
CONTINUOUS
 10
4.990480
 20
2.912800
  0
VERTEX
  8
0
  6
CONTINUOUS
 10
4.905120
 20
2.912800
  0
VERTEX
  8
0
  6
CONTINUOUS
 10
4.926240
 20
2.856920
  0
VERTEX
  8
0
  6
CONTINUOUS
 10
4.943840
 20
2.805000
  0
VERTEX
  8
0
  6
CONTINUOUS
 10
4.957480
 20
2.755720
  0
VERTEX
  8
0
  6
CONTINUOUS
 10
4.967160
 20
2.709080
  0
VERTEX
  8
0
  6
CONTINUOUS
 10
4.973760
 20
2.665080
  0
VERTEX
  8
0
  6
CONTINUOUS
 10
4.977280
 20
2.623280
  0
VERTEX
  8
0
  6
CONTINUOUS
 10
4.978160
 20
2.583680
  0
VERTEX
  8
0
  6
CONTINUOUS
 10
4.975960
 20
2.545840
  0
VERTEX
  8
0
  6
CONTINUOUS
 10
4.964520
 20
2.475000
  0
VERTEX
  8
0
  6
CONTINUOUS
 10
4.945160
 20
2.409440
  0
VERTEX
  8
0
  6
CONTINUOUS
 10
4.919640
 20
2.347840
  0
VERTEX
  8
0
  6
CONTINUOUS
 10
4.889720
 20
2.288000
  0
VERTEX
  8
0
  6
CONTINUOUS
 10
4.824160
 20
2.170520
  0
VERTEX
  8
0
  6
CONTINUOUS
 10
4.792040
 20
2.109360
  0
VERTEX
  8
0
  6
CONTINUOUS
 10
4.762560
 20
2.044240
  0
VERTEX
  8
0
  6
CONTINUOUS
 10
4.738360
 20
1.974280
  0
VERTEX
  8
0
  6
CONTINUOUS
 10
4.720320
 20
1.897720
  0
VERTEX
  8
0
  6
CONTINUOUS
 10
4.710640
 20
1.812800
  0
VERTEX
  8
0
  6
CONTINUOUS
 10
4.709760
 20
1.767040
  0
VERTEX
  8
0
  6
CONTINUOUS
 10
4.711080
 20
1.718640
  0
VERTEX
  8
0
  6
CONTINUOUS
 10
4.628360
 20
1.718640
  0
VERTEX
  8
0
  6
CONTINUOUS
 10
4.628360
 20
1.302840
  0
VERTEX
  8
0
  6
CONTINUOUS
 10
4.565440
 20
1.302840
  0
VERTEX
  8
0
  6
CONTINUOUS
 10
4.565440
 20
1.243000
  0
SEQEND
  8
0
  0
TEXT
  8
0
 10
4.734840
 20
0.663960
 40
0.138168
  1
BA  107
 41
1.000000
  7
SN0
 71
     0
 72
     5
 11
5.325171
 21
0.663960
  0
TEXT
  8
0
 10
4.579080
 20
0.472120
 40
0.138168
  1
5/8" x 2-1/2"
 41
1.000000
  7
SN0
 71
     0
 72
     5
 11
5.479649
 21
0.472120
  0
TEXT
  8
0
 10
7.284200
 20
3.569280
 40
0.138168
  1
chair rail
 41
1.000000
  7
SN0
 71
     0
 72
     5
 11
7.910059
 21
3.569280
  0
TEXT
  8
0
 10
7.459320
 20
3.377880
 40
0.138168
  1
107
 41
1.000000
  7
SN0
 71
     0
 72
     5
 11
7.736363
 21
3.377880
  0
ENDSEC
  0
EOF
