  0
SECTION
  2
HEADER
  9
$ACADVER
  1
AC1006
  9
$EXTMIN
 10
2.071080
 20
1.674640
  9
$EXTMAX
 10
6.155160
 20
4.036120
  9
$LTSCALE
 40
0.044000
  9
$PDMODE
 70
    35
  9
$PDSIZE
 40
0.035200
  0
ENDSEC
  0
SECTION
  2
TABLES
  0
TABLE
  2
LTYPE
 70
     9
  0
LTYPE
  2
CONTINUOUS
 70
    64
  3
Solid line
 72
    65
 73
     0
 40
0.000000
  0
LTYPE
  2
DASHED
 70
    64
  3
__ __ __ __ __ __ __ __ __ __ __ __ __ __ __
 72
    65
 73
     2
 40
0.000330
 49
0.000220
 49
-0.000110
  0
LTYPE
  2
HIDDEN
 70
    64
  3
 _ _ _ _ _ _ _ _ _ _ _ _ _ _ _ _ _ _ _ _ _ _
 72
    65
 73
     2
 40
0.000165
 49
0.000110
 49
-0.000055
  0
LTYPE
  2
CENTER
 70
    64
  3
____ _ ____ _ ____ _ ____ _ ____ _ ____ _ ____
 72
    65
 73
     4
 40
0.000880
 49
0.000550
 49
-0.000110
 49
0.000110
 49
-0.000110
  0
LTYPE
  2
PHANTOM
 70
    64
  3
_____ _ _ _____ _ _ _____ _ _ _____ _ _ ____
 72
    65
 73
     6
 40
0.001100
 49
0.000550
 49
-0.000110
 49
0.000110
 49
-0.000110
 49
0.000110
 49
-0.000110
  0
LTYPE
  2
DOT
 70
    64
  3
...............................................
 72
    65
 73
     2
 40
0.000110
 49
0.000000
 49
-0.000110
  0
LTYPE
  2
DASHDOT
 70
    64
  3
__ . __ . __ . __ . __ . __ . __ . __ . __ . __
 72
    65
 73
     4
 40
0.000440
 49
0.000220
 49
-0.000110
 49
0.000000
 49
-0.000110
  0
LTYPE
  2
BORDER
 70
    64
  3
__ __ . __ __ . __ __ . __ __ . __ __ . __ __
 72
    65
 73
     6
 40
0.000770
 49
0.000220
 49
-0.000110
 49
0.000220
 49
-0.000110
 49
0.000000
 49
-0.000110
  0
LTYPE
  2
DIVIDE
 70
    64
  3
__ . . __ . . __ . . __ . . __ . . __ . . __
 72
    65
 73
     6
 40
0.000550
 49
0.000220
 49
-0.000110
 49
0.000000
 49
-0.000110
 49
0.000000
 49
-0.000110
  0
LTYPE
  2
DOTDOT
 70
    64
  3
 . .  . .  . .  . .  . .  . . 
 72
    65
 73
     5
 40
0.000242
 49
-0.000110
 49
0.000000
 49
-0.000110
 49
0.000000
 49
-0.000110
  0
ENDTAB
  0
TABLE
  2
STYLE
 70
     2
  0
STYLE
 70
     0
  2
SN0
 40
0.000000
 41
0.000440
 50
0.000000
 71
     0
 42
0.000000
  3
ROMAND
  0
STYLE
 70
    68
  2
SV0
 40
0.000000
 41
0.000440
 50
0.000000
 71
     0
 42
0.000000
  3
ROMAND
  0
ENDTAB
  0
TABLE
  2
LAYER
 70
     3
  0
LAYER
  2
FOREGROUND
 70
    64
 62
     7
  6
CONTINUOUS
  0
LAYER
  2
BACKGROUND
 70
    65
 62
    -7
  6
CONTINUOUS
  0
LAYER
  2
0
 70
    64
 62
     7
  6
CONTINUOUS
  0
ENDTAB
  0
ENDSEC
  0
SECTION
  2
ENTITIES
  0
POLYLINE
  8
FOREGROUND
  6
CONTINUOUS
 66
     1
 40
0.000000
 41
0.000000
  0
VERTEX
  8
FOREGROUND
  6
CONTINUOUS
 10
0.000000
 20
5.710760
  0
VERTEX
  8
FOREGROUND
  6
CONTINUOUS
 10
8.499920
 20
5.710760
  0
VERTEX
  8
FOREGROUND
  6
CONTINUOUS
 10
8.499920
 20
-5.289240
  0
VERTEX
  8
FOREGROUND
  6
CONTINUOUS
 10
0.000000
 20
-5.289240
  0
VERTEX
  8
FOREGROUND
  6
CONTINUOUS
 10
0.000000
 20
5.710760
  0
SEQEND
  8
0
  0
POLYLINE
  8
FOREGROUND
  6
CONTINUOUS
 66
     1
 40
0.000000
 41
0.000000
  0
VERTEX
  8
FOREGROUND
  6
CONTINUOUS
 10
0.000000
 20
5.710760
  0
VERTEX
  8
FOREGROUND
  6
CONTINUOUS
 10
8.499920
 20
5.710760
  0
VERTEX
  8
FOREGROUND
  6
CONTINUOUS
 10
8.499920
 20
-5.289240
  0
VERTEX
  8
FOREGROUND
  6
CONTINUOUS
 10
0.000000
 20
-5.289240
  0
VERTEX
  8
FOREGROUND
  6
CONTINUOUS
 10
0.000000
 20
5.710760
  0
SEQEND
  8
0
  0
POLYLINE
  8
0
  6
CONTINUOUS
 66
     1
 40
0.014080
 41
0.014080
  0
VERTEX
  8
0
  6
CONTINUOUS
 10
5.984000
 20
4.026000
  0
VERTEX
  8
0
  6
CONTINUOUS
 10
6.074640
 20
3.913800
  0
VERTEX
  8
0
  6
CONTINUOUS
 10
6.073320
 20
3.912480
  0
VERTEX
  8
0
  6
CONTINUOUS
 10
6.073320
 20
3.619440
  0
VERTEX
  8
0
  6
CONTINUOUS
 10
2.079880
 20
3.619440
  0
VERTEX
  8
0
  6
CONTINUOUS
 10
2.078560
 20
3.617680
  0
VERTEX
  8
0
  6
CONTINUOUS
 10
2.078560
 20
3.916440
  0
VERTEX
  8
0
  6
CONTINUOUS
 10
2.163920
 20
4.028640
  0
VERTEX
  8
0
  6
CONTINUOUS
 10
2.169200
 20
4.028640
  0
VERTEX
  8
0
  6
CONTINUOUS
 10
3.979800
 20
4.028640
  0
VERTEX
  8
0
  6
CONTINUOUS
 10
3.985080
 20
4.028640
  0
VERTEX
  8
0
  6
CONTINUOUS
 10
4.075720
 20
3.916440
  0
VERTEX
  8
0
  6
CONTINUOUS
 10
4.077480
 20
3.913800
  0
VERTEX
  8
0
  6
CONTINUOUS
 10
4.162400
 20
4.026000
  0
VERTEX
  8
0
  6
CONTINUOUS
 10
4.168120
 20
4.026000
  0
VERTEX
  8
0
  6
CONTINUOUS
 10
5.984000
 20
4.026000
  0
SEQEND
  8
0
  0
SOLID
  8
0
 62
    15
 10
4.063840
 20
2.584560
 11
4.065600
 21
3.322880
 12
4.154480
 22
2.472360
 13
4.156240
 23
3.211120
  0
POLYLINE
  8
0
  6
CONTINUOUS
 66
     1
 40
0.000000
 41
0.000000
  0
VERTEX
  8
0
  6
CONTINUOUS
 10
4.063840
 20
2.584560
  0
VERTEX
  8
0
  6
CONTINUOUS
 10
4.065600
 20
3.322880
  0
VERTEX
  8
0
  6
CONTINUOUS
 10
4.156240
 20
3.211120
  0
VERTEX
  8
0
  6
CONTINUOUS
 10
4.154480
 20
2.472360
  0
VERTEX
  8
0
  6
CONTINUOUS
 10
4.063840
 20
2.584560
  0
SEQEND
  8
0
  0
SOLID
  8
0
 62
    15
 10
6.151640
 20
2.468400
 11
6.153400
 21
3.206720
 12
6.151640
 22
2.175360
 13
6.153400
 23
2.913680
  0
POLYLINE
  8
0
  6
CONTINUOUS
 66
     1
 40
0.000000
 41
0.000000
  0
VERTEX
  8
0
  6
CONTINUOUS
 10
6.151640
 20
2.468400
  0
VERTEX
  8
0
  6
CONTINUOUS
 10
6.153400
 20
3.206720
  0
VERTEX
  8
0
  6
CONTINUOUS
 10
6.153400
 20
2.913680
  0
VERTEX
  8
0
  6
CONTINUOUS
 10
6.151640
 20
2.175360
  0
VERTEX
  8
0
  6
CONTINUOUS
 10
6.151640
 20
2.468400
  0
SEQEND
  8
0
  0
SOLID
  8
0
 62
    15
 10
2.156880
 20
2.472360
 11
2.158640
 21
3.210680
 12
2.242240
 22
2.584560
 13
2.244000
 23
3.322880
  0
POLYLINE
  8
0
  6
CONTINUOUS
 66
     1
 40
0.000000
 41
0.000000
  0
VERTEX
  8
0
  6
CONTINUOUS
 10
2.156880
 20
2.472360
  0
VERTEX
  8
0
  6
CONTINUOUS
 10
2.158640
 20
3.210680
  0
VERTEX
  8
0
  6
CONTINUOUS
 10
2.244000
 20
3.322880
  0
VERTEX
  8
0
  6
CONTINUOUS
 10
2.242240
 20
2.584560
  0
VERTEX
  8
0
  6
CONTINUOUS
 10
2.156880
 20
2.472360
  0
SEQEND
  8
0
  0
SOLID
  8
0
 62
    15
 10
2.242240
 20
2.584560
 11
2.244000
 21
3.322880
 12
4.063840
 22
2.584560
 13
4.065600
 23
3.322880
  0
POLYLINE
  8
0
  6
CONTINUOUS
 66
     1
 40
0.000000
 41
0.000000
  0
VERTEX
  8
0
  6
CONTINUOUS
 10
2.242240
 20
2.584560
  0
VERTEX
  8
0
  6
CONTINUOUS
 10
2.244000
 20
3.322880
  0
VERTEX
  8
0
  6
CONTINUOUS
 10
4.065600
 20
3.322880
  0
VERTEX
  8
0
  6
CONTINUOUS
 10
4.063840
 20
2.584560
  0
VERTEX
  8
0
  6
CONTINUOUS
 10
2.242240
 20
2.584560
  0
SEQEND
  8
0
  0
SOLID
  8
0
 62
    15
 10
6.062320
 20
2.581920
 11
6.064080
 21
3.320240
 12
6.152960
 22
2.469720
 13
6.154720
 23
3.208040
  0
POLYLINE
  8
0
  6
CONTINUOUS
 66
     1
 40
0.000000
 41
0.000000
  0
VERTEX
  8
0
  6
CONTINUOUS
 10
6.062320
 20
2.581920
  0
VERTEX
  8
0
  6
CONTINUOUS
 10
6.064080
 20
3.320240
  0
VERTEX
  8
0
  6
CONTINUOUS
 10
6.154720
 20
3.208040
  0
VERTEX
  8
0
  6
CONTINUOUS
 10
6.152960
 20
2.469720
  0
VERTEX
  8
0
  6
CONTINUOUS
 10
6.062320
 20
2.581920
  0
SEQEND
  8
0
  0
SOLID
  8
0
 62
    15
 10
4.154480
 20
2.472360
 11
4.156240
 21
3.211120
 12
4.155800
 22
2.469720
 13
4.157560
 23
3.208040
  0
POLYLINE
  8
0
  6
CONTINUOUS
 66
     1
 40
0.000000
 41
0.000000
  0
VERTEX
  8
0
  6
CONTINUOUS
 10
4.154480
 20
2.472360
  0
VERTEX
  8
0
  6
CONTINUOUS
 10
4.156240
 20
3.211120
  0
VERTEX
  8
0
  6
CONTINUOUS
 10
4.157560
 20
3.208040
  0
VERTEX
  8
0
  6
CONTINUOUS
 10
4.155800
 20
2.469720
  0
VERTEX
  8
0
  6
CONTINUOUS
 10
4.154480
 20
2.472360
  0
SEQEND
  8
0
  0
SOLID
  8
0
 62
    15
 10
4.155800
 20
2.469720
 11
4.157560
 21
3.208040
 12
4.241160
 22
2.581920
 13
4.242920
 23
3.320240
  0
POLYLINE
  8
0
  6
CONTINUOUS
 66
     1
 40
0.000000
 41
0.000000
  0
VERTEX
  8
0
  6
CONTINUOUS
 10
4.155800
 20
2.469720
  0
VERTEX
  8
0
  6
CONTINUOUS
 10
4.157560
 20
3.208040
  0
VERTEX
  8
0
  6
CONTINUOUS
 10
4.242920
 20
3.320240
  0
VERTEX
  8
0
  6
CONTINUOUS
 10
4.241160
 20
2.581920
  0
VERTEX
  8
0
  6
CONTINUOUS
 10
4.155800
 20
2.469720
  0
SEQEND
  8
0
  0
SOLID
  8
0
 62
    15
 10
4.241160
 20
2.581920
 11
4.242920
 21
3.320240
 12
4.246440
 22
2.581920
 13
4.248200
 23
3.320240
  0
POLYLINE
  8
0
  6
CONTINUOUS
 66
     1
 40
0.000000
 41
0.000000
  0
VERTEX
  8
0
  6
CONTINUOUS
 10
4.241160
 20
2.581920
  0
VERTEX
  8
0
  6
CONTINUOUS
 10
4.242920
 20
3.320240
  0
VERTEX
  8
0
  6
CONTINUOUS
 10
4.248200
 20
3.320240
  0
VERTEX
  8
0
  6
CONTINUOUS
 10
4.246440
 20
2.581920
  0
VERTEX
  8
0
  6
CONTINUOUS
 10
4.241160
 20
2.581920
  0
SEQEND
  8
0
  0
SOLID
  8
0
 62
    15
 10
4.246440
 20
2.581920
 11
4.248200
 21
3.320240
 12
6.062320
 22
2.581920
 13
6.064080
 23
3.320240
  0
POLYLINE
  8
0
  6
CONTINUOUS
 66
     1
 40
0.000000
 41
0.000000
  0
VERTEX
  8
0
  6
CONTINUOUS
 10
4.246440
 20
2.581920
  0
VERTEX
  8
0
  6
CONTINUOUS
 10
4.248200
 20
3.320240
  0
VERTEX
  8
0
  6
CONTINUOUS
 10
6.064080
 20
3.320240
  0
VERTEX
  8
0
  6
CONTINUOUS
 10
6.062320
 20
2.581920
  0
VERTEX
  8
0
  6
CONTINUOUS
 10
4.246440
 20
2.581920
  0
SEQEND
  8
0
  0
POLYLINE
  8
0
  6
CONTINUOUS
 66
     1
 40
0.000000
 41
0.000000
  0
VERTEX
  8
0
  6
CONTINUOUS
 10
6.062320
 20
2.581920
  0
VERTEX
  8
0
  6
CONTINUOUS
 10
6.152960
 20
2.469720
  0
VERTEX
  8
0
  6
CONTINUOUS
 10
6.151640
 20
2.468400
  0
VERTEX
  8
0
  6
CONTINUOUS
 10
6.151640
 20
2.175360
  0
VERTEX
  8
0
  6
CONTINUOUS
 10
2.158200
 20
2.175360
  0
VERTEX
  8
0
  6
CONTINUOUS
 10
2.156880
 20
2.174040
  0
VERTEX
  8
0
  6
CONTINUOUS
 10
2.156880
 20
2.472360
  0
VERTEX
  8
0
  6
CONTINUOUS
 10
2.242240
 20
2.584560
  0
VERTEX
  8
0
  6
CONTINUOUS
 10
4.063840
 20
2.584560
  0
VERTEX
  8
0
  6
CONTINUOUS
 10
4.154480
 20
2.472360
  0
VERTEX
  8
0
  6
CONTINUOUS
 10
4.155800
 20
2.469720
  0
VERTEX
  8
0
  6
CONTINUOUS
 10
4.241160
 20
2.581920
  0
VERTEX
  8
0
  6
CONTINUOUS
 10
4.246440
 20
2.581920
  0
VERTEX
  8
0
  6
CONTINUOUS
 10
6.062320
 20
2.581920
  0
SEQEND
  8
0
  0
TEXT
  8
0
 10
3.859240
 20
1.910480
 40
0.138149
  1
BA  106
 41
1.000000
  7
SN0
 71
     0
 72
     5
 11
4.448777
 21
1.910480
  0
TEXT
  8
0
 10
3.846480
 20
1.718640
 40
0.138149
  1
3/8" x 4"
 41
1.000000
  7
SN0
 71
     0
 72
     5
 11
4.460521
 21
1.718640
  0
ENDSEC
  0
EOF
