  0
SECTION
  2
HEADER
  9
$ACADVER
  1
AC1006
  9
$EXTMIN
 10
3.065480
 20
4.890160
  9
$EXTMAX
 10
5.434000
 20
6.109400
  9
$LTSCALE
 40
0.044000
  9
$PDMODE
 70
    35
  9
$PDSIZE
 40
0.035200
  0
ENDSEC
  0
SECTION
  2
TABLES
  0
TABLE
  2
LTYPE
 70
     9
  0
LTYPE
  2
CONTINUOUS
 70
    64
  3
Solid line
 72
    65
 73
     0
 40
0.000000
  0
LTYPE
  2
DASHED
 70
    64
  3
__ __ __ __ __ __ __ __ __ __ __ __ __ __ __
 72
    65
 73
     2
 40
0.000330
 49
0.000220
 49
-0.000110
  0
LTYPE
  2
HIDDEN
 70
    64
  3
 _ _ _ _ _ _ _ _ _ _ _ _ _ _ _ _ _ _ _ _ _ _
 72
    65
 73
     2
 40
0.000165
 49
0.000110
 49
-0.000055
  0
LTYPE
  2
CENTER
 70
    64
  3
____ _ ____ _ ____ _ ____ _ ____ _ ____ _ ____
 72
    65
 73
     4
 40
0.000880
 49
0.000550
 49
-0.000110
 49
0.000110
 49
-0.000110
  0
LTYPE
  2
PHANTOM
 70
    64
  3
_____ _ _ _____ _ _ _____ _ _ _____ _ _ ____
 72
    65
 73
     6
 40
0.001100
 49
0.000550
 49
-0.000110
 49
0.000110
 49
-0.000110
 49
0.000110
 49
-0.000110
  0
LTYPE
  2
DOT
 70
    64
  3
...............................................
 72
    65
 73
     2
 40
0.000110
 49
0.000000
 49
-0.000110
  0
LTYPE
  2
DASHDOT
 70
    64
  3
__ . __ . __ . __ . __ . __ . __ . __ . __ . __
 72
    65
 73
     4
 40
0.000440
 49
0.000220
 49
-0.000110
 49
0.000000
 49
-0.000110
  0
LTYPE
  2
BORDER
 70
    64
  3
__ __ . __ __ . __ __ . __ __ . __ __ . __ __
 72
    65
 73
     6
 40
0.000770
 49
0.000220
 49
-0.000110
 49
0.000220
 49
-0.000110
 49
0.000000
 49
-0.000110
  0
LTYPE
  2
DIVIDE
 70
    64
  3
__ . . __ . . __ . . __ . . __ . . __ . . __
 72
    65
 73
     6
 40
0.000550
 49
0.000220
 49
-0.000110
 49
0.000000
 49
-0.000110
 49
0.000000
 49
-0.000110
  0
LTYPE
  2
DOTDOT
 70
    64
  3
 . .  . .  . .  . .  . .  . . 
 72
    65
 73
     5
 40
0.000242
 49
-0.000110
 49
0.000000
 49
-0.000110
 49
0.000000
 49
-0.000110
  0
ENDTAB
  0
TABLE
  2
STYLE
 70
     2
  0
STYLE
 70
     0
  2
SN0
 40
0.000000
 41
0.000440
 50
0.000000
 71
     0
 42
0.000000
  3
ROMAND
  0
STYLE
 70
    68
  2
SV0
 40
0.000000
 41
0.000440
 50
0.000000
 71
     0
 42
0.000000
  3
ROMAND
  0
ENDTAB
  0
TABLE
  2
LAYER
 70
     3
  0
LAYER
  2
FOREGROUND
 70
    64
 62
     7
  6
CONTINUOUS
  0
LAYER
  2
BACKGROUND
 70
    65
 62
    -7
  6
CONTINUOUS
  0
LAYER
  2
0
 70
    64
 62
     7
  6
CONTINUOUS
  0
ENDTAB
  0
ENDSEC
  0
SECTION
  2
ENTITIES
  0
POLYLINE
  8
FOREGROUND
  6
CONTINUOUS
 66
     1
 40
0.000000
 41
0.000000
  0
VERTEX
  8
FOREGROUND
  6
CONTINUOUS
 10
0.000000
 20
10.999560
  0
VERTEX
  8
FOREGROUND
  6
CONTINUOUS
 10
8.499920
 20
10.999560
  0
VERTEX
  8
FOREGROUND
  6
CONTINUOUS
 10
8.499920
 20
-0.000440
  0
VERTEX
  8
FOREGROUND
  6
CONTINUOUS
 10
0.000000
 20
-0.000440
  0
VERTEX
  8
FOREGROUND
  6
CONTINUOUS
 10
0.000000
 20
10.999560
  0
SEQEND
  8
0
  0
POLYLINE
  8
FOREGROUND
  6
CONTINUOUS
 66
     1
 40
0.000000
 41
0.000000
  0
VERTEX
  8
FOREGROUND
  6
CONTINUOUS
 10
0.000000
 20
10.999560
  0
VERTEX
  8
FOREGROUND
  6
CONTINUOUS
 10
8.499920
 20
10.999560
  0
VERTEX
  8
FOREGROUND
  6
CONTINUOUS
 10
8.499920
 20
-0.000440
  0
VERTEX
  8
FOREGROUND
  6
CONTINUOUS
 10
0.000000
 20
-0.000440
  0
VERTEX
  8
FOREGROUND
  6
CONTINUOUS
 10
0.000000
 20
10.999560
  0
SEQEND
  8
0
  0
TEXT
  8
0
 10
3.400760
 20
5.126000
 40
0.138090
  1
BA  105
 41
1.000000
  7
SN0
 71
     0
 72
     5
 11
3.990403
 21
5.126000
  0
TEXT
  8
0
 10
3.318920
 20
4.934600
 40
0.138090
  1
3/8" x 5/8"
 41
1.000000
  7
SN0
 71
     0
 72
     5
 11
4.071517
 21
4.934600
  0
SOLID
  8
0
 62
    15
 10
3.126200
 20
5.738040
 11
3.769040
 21
6.108520
 12
3.375680
 22
5.497800
 13
4.018080
 23
5.868720
  0
POLYLINE
  8
0
  6
CONTINUOUS
 66
     1
 40
0.000000
 41
0.000000
  0
VERTEX
  8
0
  6
CONTINUOUS
 10
3.126200
 20
5.738040
  0
VERTEX
  8
0
  6
CONTINUOUS
 10
3.769040
 20
6.108520
  0
VERTEX
  8
0
  6
CONTINUOUS
 10
4.018080
 20
5.868720
  0
VERTEX
  8
0
  6
CONTINUOUS
 10
3.375680
 20
5.497800
  0
VERTEX
  8
0
  6
CONTINUOUS
 10
3.126200
 20
5.738040
  0
SEQEND
  8
0
  0
SOLID
  8
0
 62
    15
 10
3.625160
 20
5.738040
 11
4.267560
 21
6.108520
 12
3.685000
 22
5.738040
 13
4.327400
 23
6.108520
  0
POLYLINE
  8
0
  6
CONTINUOUS
 66
     1
 40
0.000000
 41
0.000000
  0
VERTEX
  8
0
  6
CONTINUOUS
 10
3.625160
 20
5.738040
  0
VERTEX
  8
0
  6
CONTINUOUS
 10
4.267560
 20
6.108520
  0
VERTEX
  8
0
  6
CONTINUOUS
 10
4.327400
 20
6.108520
  0
VERTEX
  8
0
  6
CONTINUOUS
 10
3.685000
 20
5.738040
  0
VERTEX
  8
0
  6
CONTINUOUS
 10
3.625160
 20
5.738040
  0
SEQEND
  8
0
  0
SOLID
  8
0
 62
    15
 10
3.685000
 20
5.738040
 11
4.327400
 21
6.108520
 12
3.685000
 22
5.361840
 13
4.327400
 23
5.732760
  0
POLYLINE
  8
0
  6
CONTINUOUS
 66
     1
 40
0.000000
 41
0.000000
  0
VERTEX
  8
0
  6
CONTINUOUS
 10
3.685000
 20
5.738040
  0
VERTEX
  8
0
  6
CONTINUOUS
 10
4.327400
 20
6.108520
  0
VERTEX
  8
0
  6
CONTINUOUS
 10
4.327400
 20
5.732760
  0
VERTEX
  8
0
  6
CONTINUOUS
 10
3.685000
 20
5.361840
  0
VERTEX
  8
0
  6
CONTINUOUS
 10
3.685000
 20
5.738040
  0
SEQEND
  8
0
  0
SOLID
  8
0
 62
    15
 10
3.066360
 20
5.738040
 11
3.708760
 21
6.108520
 12
3.124880
 22
5.738040
 13
3.767720
 23
6.108520
  0
POLYLINE
  8
0
  6
CONTINUOUS
 66
     1
 40
0.000000
 41
0.000000
  0
VERTEX
  8
0
  6
CONTINUOUS
 10
3.066360
 20
5.738040
  0
VERTEX
  8
0
  6
CONTINUOUS
 10
3.708760
 20
6.108520
  0
VERTEX
  8
0
  6
CONTINUOUS
 10
3.767720
 20
6.108520
  0
VERTEX
  8
0
  6
CONTINUOUS
 10
3.124880
 20
5.738040
  0
VERTEX
  8
0
  6
CONTINUOUS
 10
3.066360
 20
5.738040
  0
SEQEND
  8
0
  0
SOLID
  8
0
 62
    15
 10
3.124880
 20
5.738040
 11
3.767720
 21
6.108520
 12
3.126200
 22
5.738040
 13
3.769040
 23
6.108520
  0
POLYLINE
  8
0
  6
CONTINUOUS
 66
     1
 40
0.000000
 41
0.000000
  0
VERTEX
  8
0
  6
CONTINUOUS
 10
3.124880
 20
5.738040
  0
VERTEX
  8
0
  6
CONTINUOUS
 10
3.767720
 20
6.108520
  0
VERTEX
  8
0
  6
CONTINUOUS
 10
3.769040
 20
6.108520
  0
VERTEX
  8
0
  6
CONTINUOUS
 10
3.126200
 20
5.738040
  0
VERTEX
  8
0
  6
CONTINUOUS
 10
3.124880
 20
5.738040
  0
SEQEND
  8
0
  0
POLYLINE
  8
0
  6
CONTINUOUS
 66
     1
 40
0.000000
 41
0.000000
  0
VERTEX
  8
0
  6
CONTINUOUS
 10
3.124880
 20
5.738040
  0
VERTEX
  8
0
  6
CONTINUOUS
 10
3.126200
 20
5.738040
  0
VERTEX
  8
0
  6
CONTINUOUS
 10
3.375680
 20
5.497800
  0
VERTEX
  8
0
  6
CONTINUOUS
 10
3.625160
 20
5.738040
  0
VERTEX
  8
0
  6
CONTINUOUS
 10
3.685000
 20
5.738040
  0
VERTEX
  8
0
  6
CONTINUOUS
 10
3.685000
 20
5.361840
  0
VERTEX
  8
0
  6
CONTINUOUS
 10
3.066360
 20
5.361840
  0
VERTEX
  8
0
  6
CONTINUOUS
 10
3.066360
 20
5.738040
  0
VERTEX
  8
0
  6
CONTINUOUS
 10
3.124880
 20
5.738040
  0
SEQEND
  8
0
  0
POLYLINE
  8
0
  6
CONTINUOUS
 66
     1
 40
0.014080
 41
0.014080
  0
VERTEX
  8
0
  6
CONTINUOUS
 10
4.637160
 20
6.091360
  0
VERTEX
  8
0
  6
CONTINUOUS
 10
4.637160
 20
5.715600
  0
VERTEX
  8
0
  6
CONTINUOUS
 10
4.946480
 20
5.715600
  0
VERTEX
  8
0
  6
CONTINUOUS
 10
5.255800
 20
5.715600
  0
VERTEX
  8
0
  6
CONTINUOUS
 10
5.255800
 20
6.091360
  0
VERTEX
  8
0
  6
CONTINUOUS
 10
5.254480
 20
6.091360
  0
VERTEX
  8
0
  6
CONTINUOUS
 10
5.197280
 20
6.091360
  0
VERTEX
  8
0
  6
CONTINUOUS
 10
5.195960
 20
6.091360
  0
VERTEX
  8
0
  6
CONTINUOUS
 10
4.946480
 20
5.851560
  0
VERTEX
  8
0
  6
CONTINUOUS
 10
4.697440
 20
6.091360
  0
VERTEX
  8
0
  6
CONTINUOUS
 10
4.696120
 20
6.091360
  0
VERTEX
  8
0
  6
CONTINUOUS
 10
4.637160
 20
6.091360
  0
SEQEND
  8
0
  0
TEXT
  8
0
 10
4.668400
 20
5.496480
 40
0.138090
  1
BA  105
 41
1.000000
  7
SN0
 71
     0
 72
     5
 11
5.258043
 21
5.496480
  0
TEXT
  8
0
 10
4.586560
 20
5.304640
 40
0.138090
  1
3/8" x 5/8"
 41
1.000000
  7
SN0
 71
     0
 72
     5
 11
5.339157
 21
5.304640
  0
ENDSEC
  0
EOF
