  0
SECTION
  2
HEADER
  9
$ACADVER
  1
AC1006
  9
$EXTMIN
 10
2.177560
 20
1.841840
  9
$EXTMAX
 10
6.176280
 20
4.793360
  9
$LTSCALE
 40
0.044000
  9
$PDMODE
 70
    35
  9
$PDSIZE
 40
0.035200
  0
ENDSEC
  0
SECTION
  2
TABLES
  0
TABLE
  2
LTYPE
 70
     9
  0
LTYPE
  2
CONTINUOUS
 70
    64
  3
Solid line
 72
    65
 73
     0
 40
0.000000
  0
LTYPE
  2
DASHED
 70
    64
  3
__ __ __ __ __ __ __ __ __ __ __ __ __ __ __
 72
    65
 73
     2
 40
0.000330
 49
0.000220
 49
-0.000110
  0
LTYPE
  2
HIDDEN
 70
    64
  3
 _ _ _ _ _ _ _ _ _ _ _ _ _ _ _ _ _ _ _ _ _ _
 72
    65
 73
     2
 40
0.000165
 49
0.000110
 49
-0.000055
  0
LTYPE
  2
CENTER
 70
    64
  3
____ _ ____ _ ____ _ ____ _ ____ _ ____ _ ____
 72
    65
 73
     4
 40
0.000880
 49
0.000550
 49
-0.000110
 49
0.000110
 49
-0.000110
  0
LTYPE
  2
PHANTOM
 70
    64
  3
_____ _ _ _____ _ _ _____ _ _ _____ _ _ ____
 72
    65
 73
     6
 40
0.001100
 49
0.000550
 49
-0.000110
 49
0.000110
 49
-0.000110
 49
0.000110
 49
-0.000110
  0
LTYPE
  2
DOT
 70
    64
  3
...............................................
 72
    65
 73
     2
 40
0.000110
 49
0.000000
 49
-0.000110
  0
LTYPE
  2
DASHDOT
 70
    64
  3
__ . __ . __ . __ . __ . __ . __ . __ . __ . __
 72
    65
 73
     4
 40
0.000440
 49
0.000220
 49
-0.000110
 49
0.000000
 49
-0.000110
  0
LTYPE
  2
BORDER
 70
    64
  3
__ __ . __ __ . __ __ . __ __ . __ __ . __ __
 72
    65
 73
     6
 40
0.000770
 49
0.000220
 49
-0.000110
 49
0.000220
 49
-0.000110
 49
0.000000
 49
-0.000110
  0
LTYPE
  2
DIVIDE
 70
    64
  3
__ . . __ . . __ . . __ . . __ . . __ . . __
 72
    65
 73
     6
 40
0.000550
 49
0.000220
 49
-0.000110
 49
0.000000
 49
-0.000110
 49
0.000000
 49
-0.000110
  0
LTYPE
  2
DOTDOT
 70
    64
  3
 . .  . .  . .  . .  . .  . . 
 72
    65
 73
     5
 40
0.000242
 49
-0.000110
 49
0.000000
 49
-0.000110
 49
0.000000
 49
-0.000110
  0
ENDTAB
  0
TABLE
  2
STYLE
 70
     2
  0
STYLE
 70
     0
  2
SN0
 40
0.000000
 41
0.000440
 50
0.000000
 71
     0
 42
0.000000
  3
ROMAND
  0
STYLE
 70
    68
  2
SV0
 40
0.000000
 41
0.000440
 50
0.000000
 71
     0
 42
0.000000
  3
ROMAND
  0
ENDTAB
  0
TABLE
  2
LAYER
 70
     3
  0
LAYER
  2
FOREGROUND
 70
    64
 62
     7
  6
CONTINUOUS
  0
LAYER
  2
BACKGROUND
 70
    65
 62
    -7
  6
CONTINUOUS
  0
LAYER
  2
0
 70
    64
 62
     7
  6
CONTINUOUS
  0
ENDTAB
  0
ENDSEC
  0
SECTION
  2
ENTITIES
  0
POLYLINE
  8
FOREGROUND
  6
CONTINUOUS
 66
     1
 40
0.000000
 41
0.000000
  0
VERTEX
  8
FOREGROUND
  6
CONTINUOUS
 10
0.000000
 20
6.635200
  0
VERTEX
  8
FOREGROUND
  6
CONTINUOUS
 10
8.499920
 20
6.635200
  0
VERTEX
  8
FOREGROUND
  6
CONTINUOUS
 10
8.499920
 20
-4.364800
  0
VERTEX
  8
FOREGROUND
  6
CONTINUOUS
 10
0.000000
 20
-4.364800
  0
VERTEX
  8
FOREGROUND
  6
CONTINUOUS
 10
0.000000
 20
6.635200
  0
SEQEND
  8
0
  0
POLYLINE
  8
FOREGROUND
  6
CONTINUOUS
 66
     1
 40
0.000000
 41
0.000000
  0
VERTEX
  8
FOREGROUND
  6
CONTINUOUS
 10
0.000000
 20
6.635200
  0
VERTEX
  8
FOREGROUND
  6
CONTINUOUS
 10
8.499920
 20
6.635200
  0
VERTEX
  8
FOREGROUND
  6
CONTINUOUS
 10
8.499920
 20
-4.364800
  0
VERTEX
  8
FOREGROUND
  6
CONTINUOUS
 10
0.000000
 20
-4.364800
  0
VERTEX
  8
FOREGROUND
  6
CONTINUOUS
 10
0.000000
 20
6.635200
  0
SEQEND
  8
0
  0
POLYLINE
  8
0
  6
CONTINUOUS
 66
     1
 40
0.014080
 41
0.014080
  0
VERTEX
  8
0
  6
CONTINUOUS
 10
5.010280
 20
4.781480
  0
VERTEX
  8
0
  6
CONTINUOUS
 10
5.011600
 20
4.755080
  0
VERTEX
  8
0
  6
CONTINUOUS
 10
5.018640
 20
4.716360
  0
VERTEX
  8
0
  6
CONTINUOUS
 10
5.030520
 20
4.680720
  0
VERTEX
  8
0
  6
CONTINUOUS
 10
5.041520
 20
4.657840
  0
VERTEX
  8
0
  6
CONTINUOUS
 10
5.054720
 20
4.636720
  0
VERTEX
  8
0
  6
CONTINUOUS
 10
5.069680
 20
4.616920
  0
VERTEX
  8
0
  6
CONTINUOUS
 10
5.086400
 20
4.598880
  0
VERTEX
  8
0
  6
CONTINUOUS
 10
5.104880
 20
4.582160
  0
VERTEX
  8
0
  6
CONTINUOUS
 10
5.124680
 20
4.567640
  0
VERTEX
  8
0
  6
CONTINUOUS
 10
5.157680
 20
4.549160
  0
VERTEX
  8
0
  6
CONTINUOUS
 10
5.192880
 20
4.535520
  0
VERTEX
  8
0
  6
CONTINUOUS
 10
5.230720
 20
4.527160
  0
VERTEX
  8
0
  6
CONTINUOUS
 10
5.257120
 20
4.524520
  0
VERTEX
  8
0
  6
CONTINUOUS
 10
5.283960
 20
4.524520
  0
VERTEX
  8
0
  6
CONTINUOUS
 10
5.310360
 20
4.527160
  0
VERTEX
  8
0
  6
CONTINUOUS
 10
5.348200
 20
4.535520
  0
VERTEX
  8
0
  6
CONTINUOUS
 10
5.372840
 20
4.543880
  0
VERTEX
  8
0
  6
CONTINUOUS
 10
5.395720
 20
4.554440
  0
VERTEX
  8
0
  6
CONTINUOUS
 10
5.417720
 20
4.567200
  0
VERTEX
  8
0
  6
CONTINUOUS
 10
5.438400
 20
4.581720
  0
VERTEX
  8
0
  6
CONTINUOUS
 10
5.457760
 20
4.598000
  0
VERTEX
  8
0
  6
CONTINUOUS
 10
5.474920
 20
4.616040
  0
VERTEX
  8
0
  6
CONTINUOUS
 10
5.497360
 20
4.646400
  0
VERTEX
  8
0
  6
CONTINUOUS
 10
5.515400
 20
4.679400
  0
VERTEX
  8
0
  6
CONTINUOUS
 10
5.528160
 20
4.715480
  0
VERTEX
  8
0
  6
CONTINUOUS
 10
5.533880
 20
4.740560
  0
VERTEX
  8
0
  6
CONTINUOUS
 10
5.536520
 20
4.766960
  0
VERTEX
  8
0
  6
CONTINUOUS
 10
5.536960
 20
4.780160
  0
VERTEX
  8
0
  6
CONTINUOUS
 10
6.097080
 20
4.780160
  0
VERTEX
  8
0
  6
CONTINUOUS
 10
6.097080
 20
4.076160
  0
VERTEX
  8
0
  6
CONTINUOUS
 10
2.185040
 20
4.076160
  0
VERTEX
  8
0
  6
CONTINUOUS
 10
2.185040
 20
4.785440
  0
VERTEX
  8
0
  6
CONTINUOUS
 10
2.746480
 20
4.785440
  0
VERTEX
  8
0
  6
CONTINUOUS
 10
2.751760
 20
4.780160
  0
VERTEX
  8
0
  6
CONTINUOUS
 10
2.753080
 20
4.753760
  0
VERTEX
  8
0
  6
CONTINUOUS
 10
2.760120
 20
4.715040
  0
VERTEX
  8
0
  6
CONTINUOUS
 10
2.772000
 20
4.679400
  0
VERTEX
  8
0
  6
CONTINUOUS
 10
2.783000
 20
4.656520
  0
VERTEX
  8
0
  6
CONTINUOUS
 10
2.796200
 20
4.635400
  0
VERTEX
  8
0
  6
CONTINUOUS
 10
2.811160
 20
4.615600
  0
VERTEX
  8
0
  6
CONTINUOUS
 10
2.827880
 20
4.597560
  0
VERTEX
  8
0
  6
CONTINUOUS
 10
2.846360
 20
4.580840
  0
VERTEX
  8
0
  6
CONTINUOUS
 10
2.866160
 20
4.566320
  0
VERTEX
  8
0
  6
CONTINUOUS
 10
2.899160
 20
4.547840
  0
VERTEX
  8
0
  6
CONTINUOUS
 10
2.934360
 20
4.534200
  0
VERTEX
  8
0
  6
CONTINUOUS
 10
2.972200
 20
4.525840
  0
VERTEX
  8
0
  6
CONTINUOUS
 10
2.998600
 20
4.523200
  0
VERTEX
  8
0
  6
CONTINUOUS
 10
3.025440
 20
4.523200
  0
VERTEX
  8
0
  6
CONTINUOUS
 10
3.051840
 20
4.525840
  0
VERTEX
  8
0
  6
CONTINUOUS
 10
3.089680
 20
4.534200
  0
VERTEX
  8
0
  6
CONTINUOUS
 10
3.114320
 20
4.542560
  0
VERTEX
  8
0
  6
CONTINUOUS
 10
3.137200
 20
4.553120
  0
VERTEX
  8
0
  6
CONTINUOUS
 10
3.159200
 20
4.565880
  0
VERTEX
  8
0
  6
CONTINUOUS
 10
3.179880
 20
4.580400
  0
VERTEX
  8
0
  6
CONTINUOUS
 10
3.199240
 20
4.596680
  0
VERTEX
  8
0
  6
CONTINUOUS
 10
3.216400
 20
4.614720
  0
VERTEX
  8
0
  6
CONTINUOUS
 10
3.238840
 20
4.645080
  0
VERTEX
  8
0
  6
CONTINUOUS
 10
3.256880
 20
4.678080
  0
VERTEX
  8
0
  6
CONTINUOUS
 10
3.269640
 20
4.714160
  0
VERTEX
  8
0
  6
CONTINUOUS
 10
3.275360
 20
4.739240
  0
VERTEX
  8
0
  6
CONTINUOUS
 10
3.278000
 20
4.765640
  0
VERTEX
  8
0
  6
CONTINUOUS
 10
3.278440
 20
4.778840
  0
VERTEX
  8
0
  6
CONTINUOUS
 10
3.282400
 20
4.785440
  0
VERTEX
  8
0
  6
CONTINUOUS
 10
3.501080
 20
4.785440
  0
VERTEX
  8
0
  6
CONTINUOUS
 10
3.507680
 20
4.781480
  0
VERTEX
  8
0
  6
CONTINUOUS
 10
3.509000
 20
4.755080
  0
VERTEX
  8
0
  6
CONTINUOUS
 10
3.516040
 20
4.716360
  0
VERTEX
  8
0
  6
CONTINUOUS
 10
3.527920
 20
4.680720
  0
VERTEX
  8
0
  6
CONTINUOUS
 10
3.538920
 20
4.657840
  0
VERTEX
  8
0
  6
CONTINUOUS
 10
3.552120
 20
4.636720
  0
VERTEX
  8
0
  6
CONTINUOUS
 10
3.567080
 20
4.616920
  0
VERTEX
  8
0
  6
CONTINUOUS
 10
3.583800
 20
4.598880
  0
VERTEX
  8
0
  6
CONTINUOUS
 10
3.602280
 20
4.582160
  0
VERTEX
  8
0
  6
CONTINUOUS
 10
3.622080
 20
4.567640
  0
VERTEX
  8
0
  6
CONTINUOUS
 10
3.655080
 20
4.549160
  0
VERTEX
  8
0
  6
CONTINUOUS
 10
3.690280
 20
4.535520
  0
VERTEX
  8
0
  6
CONTINUOUS
 10
3.728120
 20
4.527160
  0
VERTEX
  8
0
  6
CONTINUOUS
 10
3.754520
 20
4.524520
  0
VERTEX
  8
0
  6
CONTINUOUS
 10
3.781360
 20
4.524520
  0
VERTEX
  8
0
  6
CONTINUOUS
 10
3.807760
 20
4.527160
  0
VERTEX
  8
0
  6
CONTINUOUS
 10
3.845600
 20
4.535520
  0
VERTEX
  8
0
  6
CONTINUOUS
 10
3.870240
 20
4.543880
  0
VERTEX
  8
0
  6
CONTINUOUS
 10
3.893120
 20
4.554440
  0
VERTEX
  8
0
  6
CONTINUOUS
 10
3.915120
 20
4.567200
  0
VERTEX
  8
0
  6
CONTINUOUS
 10
3.935800
 20
4.581720
  0
VERTEX
  8
0
  6
CONTINUOUS
 10
3.955160
 20
4.598000
  0
VERTEX
  8
0
  6
CONTINUOUS
 10
3.972320
 20
4.616040
  0
VERTEX
  8
0
  6
CONTINUOUS
 10
3.994760
 20
4.646400
  0
VERTEX
  8
0
  6
CONTINUOUS
 10
4.012800
 20
4.679400
  0
VERTEX
  8
0
  6
CONTINUOUS
 10
4.025560
 20
4.715480
  0
VERTEX
  8
0
  6
CONTINUOUS
 10
4.031280
 20
4.740560
  0
VERTEX
  8
0
  6
CONTINUOUS
 10
4.033920
 20
4.766960
  0
VERTEX
  8
0
  6
CONTINUOUS
 10
4.034360
 20
4.780160
  0
VERTEX
  8
0
  6
CONTINUOUS
 10
4.038320
 20
4.785440
  0
VERTEX
  8
0
  6
CONTINUOUS
 10
4.257000
 20
4.785440
  0
VERTEX
  8
0
  6
CONTINUOUS
 10
4.264920
 20
4.781480
  0
VERTEX
  8
0
  6
CONTINUOUS
 10
4.266240
 20
4.755080
  0
VERTEX
  8
0
  6
CONTINUOUS
 10
4.273280
 20
4.716360
  0
VERTEX
  8
0
  6
CONTINUOUS
 10
4.285160
 20
4.680720
  0
VERTEX
  8
0
  6
CONTINUOUS
 10
4.296160
 20
4.657840
  0
VERTEX
  8
0
  6
CONTINUOUS
 10
4.309360
 20
4.636720
  0
VERTEX
  8
0
  6
CONTINUOUS
 10
4.324320
 20
4.616920
  0
VERTEX
  8
0
  6
CONTINUOUS
 10
4.341040
 20
4.598880
  0
VERTEX
  8
0
  6
CONTINUOUS
 10
4.359520
 20
4.582160
  0
VERTEX
  8
0
  6
CONTINUOUS
 10
4.379320
 20
4.567640
  0
VERTEX
  8
0
  6
CONTINUOUS
 10
4.412320
 20
4.549160
  0
VERTEX
  8
0
  6
CONTINUOUS
 10
4.447520
 20
4.535520
  0
VERTEX
  8
0
  6
CONTINUOUS
 10
4.485360
 20
4.527160
  0
VERTEX
  8
0
  6
CONTINUOUS
 10
4.511760
 20
4.524520
  0
VERTEX
  8
0
  6
CONTINUOUS
 10
4.538600
 20
4.524520
  0
VERTEX
  8
0
  6
CONTINUOUS
 10
4.565000
 20
4.527160
  0
VERTEX
  8
0
  6
CONTINUOUS
 10
4.602840
 20
4.535520
  0
VERTEX
  8
0
  6
CONTINUOUS
 10
4.627480
 20
4.543880
  0
VERTEX
  8
0
  6
CONTINUOUS
 10
4.650360
 20
4.554440
  0
VERTEX
  8
0
  6
CONTINUOUS
 10
4.672360
 20
4.567200
  0
VERTEX
  8
0
  6
CONTINUOUS
 10
4.693040
 20
4.581720
  0
VERTEX
  8
0
  6
CONTINUOUS
 10
4.712400
 20
4.598000
  0
VERTEX
  8
0
  6
CONTINUOUS
 10
4.729560
 20
4.616040
  0
VERTEX
  8
0
  6
CONTINUOUS
 10
4.752000
 20
4.646400
  0
VERTEX
  8
0
  6
CONTINUOUS
 10
4.770040
 20
4.679400
  0
VERTEX
  8
0
  6
CONTINUOUS
 10
4.782800
 20
4.715480
  0
VERTEX
  8
0
  6
CONTINUOUS
 10
4.788520
 20
4.740560
  0
VERTEX
  8
0
  6
CONTINUOUS
 10
4.791160
 20
4.766960
  0
VERTEX
  8
0
  6
CONTINUOUS
 10
4.791600
 20
4.780160
  0
VERTEX
  8
0
  6
CONTINUOUS
 10
4.999720
 20
4.780160
  0
VERTEX
  8
0
  6
CONTINUOUS
 10
5.010280
 20
4.781480
  0
SEQEND
  8
0
  0
SOLID
  8
0
 62
    15
 10
3.579840
 20
3.021920
 11
3.573240
 21
3.751440
 12
3.586440
 22
3.017960
 13
3.579840
 23
3.747480
  0
POLYLINE
  8
0
  6
CONTINUOUS
 66
     1
 40
0.000000
 41
0.000000
  0
VERTEX
  8
0
  6
CONTINUOUS
 10
3.579840
 20
3.021920
  0
VERTEX
  8
0
  6
CONTINUOUS
 10
3.573240
 20
3.751440
  0
VERTEX
  8
0
  6
CONTINUOUS
 10
3.579840
 20
3.747480
  0
VERTEX
  8
0
  6
CONTINUOUS
 10
3.586440
 20
3.017960
  0
VERTEX
  8
0
  6
CONTINUOUS
 10
3.579840
 20
3.021920
  0
SEQEND
  8
0
  0
SOLID
  8
0
 62
    15
 10
5.094320
 20
2.965160
 11
5.087720
 21
3.695120
 12
5.109720
 22
2.916760
 13
5.103120
 23
3.646280
  0
POLYLINE
  8
0
  6
CONTINUOUS
 66
     1
 40
0.000000
 41
0.000000
  0
VERTEX
  8
0
  6
CONTINUOUS
 10
5.094320
 20
2.965160
  0
VERTEX
  8
0
  6
CONTINUOUS
 10
5.087720
 20
3.695120
  0
VERTEX
  8
0
  6
CONTINUOUS
 10
5.103120
 20
3.646280
  0
VERTEX
  8
0
  6
CONTINUOUS
 10
5.109720
 20
2.916760
  0
VERTEX
  8
0
  6
CONTINUOUS
 10
5.094320
 20
2.965160
  0
SEQEND
  8
0
  0
SOLID
  8
0
 62
    15
 10
5.109720
 20
2.916760
 11
5.103120
 21
3.646280
 12
5.133480
 22
2.873200
 13
5.126880
 23
3.602720
  0
POLYLINE
  8
0
  6
CONTINUOUS
 66
     1
 40
0.000000
 41
0.000000
  0
VERTEX
  8
0
  6
CONTINUOUS
 10
5.109720
 20
2.916760
  0
VERTEX
  8
0
  6
CONTINUOUS
 10
5.103120
 20
3.646280
  0
VERTEX
  8
0
  6
CONTINUOUS
 10
5.126880
 20
3.602720
  0
VERTEX
  8
0
  6
CONTINUOUS
 10
5.133480
 20
2.873200
  0
VERTEX
  8
0
  6
CONTINUOUS
 10
5.109720
 20
2.916760
  0
SEQEND
  8
0
  0
SOLID
  8
0
 62
    15
 10
5.133480
 20
2.873200
 11
5.126880
 21
3.602720
 12
5.165160
 22
2.834920
 13
5.158560
 23
3.564880
  0
POLYLINE
  8
0
  6
CONTINUOUS
 66
     1
 40
0.000000
 41
0.000000
  0
VERTEX
  8
0
  6
CONTINUOUS
 10
5.133480
 20
2.873200
  0
VERTEX
  8
0
  6
CONTINUOUS
 10
5.126880
 20
3.602720
  0
VERTEX
  8
0
  6
CONTINUOUS
 10
5.158560
 20
3.564880
  0
VERTEX
  8
0
  6
CONTINUOUS
 10
5.165160
 20
2.834920
  0
VERTEX
  8
0
  6
CONTINUOUS
 10
5.133480
 20
2.873200
  0
SEQEND
  8
0
  0
SOLID
  8
0
 62
    15
 10
5.165160
 20
2.834920
 11
5.158560
 21
3.564880
 12
5.203880
 22
2.804120
 13
5.196840
 23
3.533640
  0
POLYLINE
  8
0
  6
CONTINUOUS
 66
     1
 40
0.000000
 41
0.000000
  0
VERTEX
  8
0
  6
CONTINUOUS
 10
5.165160
 20
2.834920
  0
VERTEX
  8
0
  6
CONTINUOUS
 10
5.158560
 20
3.564880
  0
VERTEX
  8
0
  6
CONTINUOUS
 10
5.196840
 20
3.533640
  0
VERTEX
  8
0
  6
CONTINUOUS
 10
5.203880
 20
2.804120
  0
VERTEX
  8
0
  6
CONTINUOUS
 10
5.165160
 20
2.834920
  0
SEQEND
  8
0
  0
SOLID
  8
0
 62
    15
 10
5.203880
 20
2.804120
 11
5.196840
 21
3.533640
 12
5.247880
 22
2.780360
 13
5.241280
 23
3.509880
  0
POLYLINE
  8
0
  6
CONTINUOUS
 66
     1
 40
0.000000
 41
0.000000
  0
VERTEX
  8
0
  6
CONTINUOUS
 10
5.203880
 20
2.804120
  0
VERTEX
  8
0
  6
CONTINUOUS
 10
5.196840
 20
3.533640
  0
VERTEX
  8
0
  6
CONTINUOUS
 10
5.241280
 20
3.509880
  0
VERTEX
  8
0
  6
CONTINUOUS
 10
5.247880
 20
2.780360
  0
VERTEX
  8
0
  6
CONTINUOUS
 10
5.203880
 20
2.804120
  0
SEQEND
  8
0
  0
SOLID
  8
0
 62
    15
 10
5.247880
 20
2.780360
 11
5.241280
 21
3.509880
 12
5.296720
 22
2.765400
 13
5.290120
 23
3.495360
  0
POLYLINE
  8
0
  6
CONTINUOUS
 66
     1
 40
0.000000
 41
0.000000
  0
VERTEX
  8
0
  6
CONTINUOUS
 10
5.247880
 20
2.780360
  0
VERTEX
  8
0
  6
CONTINUOUS
 10
5.241280
 20
3.509880
  0
VERTEX
  8
0
  6
CONTINUOUS
 10
5.290120
 20
3.495360
  0
VERTEX
  8
0
  6
CONTINUOUS
 10
5.296720
 20
2.765400
  0
VERTEX
  8
0
  6
CONTINUOUS
 10
5.247880
 20
2.780360
  0
SEQEND
  8
0
  0
SOLID
  8
0
 62
    15
 10
5.296720
 20
2.765400
 11
5.290120
 21
3.495360
 12
5.349080
 22
2.760560
 13
5.342480
 23
3.490080
  0
POLYLINE
  8
0
  6
CONTINUOUS
 66
     1
 40
0.000000
 41
0.000000
  0
VERTEX
  8
0
  6
CONTINUOUS
 10
5.296720
 20
2.765400
  0
VERTEX
  8
0
  6
CONTINUOUS
 10
5.290120
 20
3.495360
  0
VERTEX
  8
0
  6
CONTINUOUS
 10
5.342480
 20
3.490080
  0
VERTEX
  8
0
  6
CONTINUOUS
 10
5.349080
 20
2.760560
  0
VERTEX
  8
0
  6
CONTINUOUS
 10
5.296720
 20
2.765400
  0
SEQEND
  8
0
  0
SOLID
  8
0
 62
    15
 10
5.349080
 20
2.760560
 11
5.342480
 21
3.490080
 12
5.401880
 22
2.765400
 13
5.395280
 23
3.495360
  0
POLYLINE
  8
0
  6
CONTINUOUS
 66
     1
 40
0.000000
 41
0.000000
  0
VERTEX
  8
0
  6
CONTINUOUS
 10
5.349080
 20
2.760560
  0
VERTEX
  8
0
  6
CONTINUOUS
 10
5.342480
 20
3.490080
  0
VERTEX
  8
0
  6
CONTINUOUS
 10
5.395280
 20
3.495360
  0
VERTEX
  8
0
  6
CONTINUOUS
 10
5.401880
 20
2.765400
  0
VERTEX
  8
0
  6
CONTINUOUS
 10
5.349080
 20
2.760560
  0
SEQEND
  8
0
  0
SOLID
  8
0
 62
    15
 10
5.401880
 20
2.765400
 11
5.395280
 21
3.495360
 12
5.451600
 22
2.780360
 13
5.445000
 23
3.509880
  0
POLYLINE
  8
0
  6
CONTINUOUS
 66
     1
 40
0.000000
 41
0.000000
  0
VERTEX
  8
0
  6
CONTINUOUS
 10
5.401880
 20
2.765400
  0
VERTEX
  8
0
  6
CONTINUOUS
 10
5.395280
 20
3.495360
  0
VERTEX
  8
0
  6
CONTINUOUS
 10
5.445000
 20
3.509880
  0
VERTEX
  8
0
  6
CONTINUOUS
 10
5.451600
 20
2.780360
  0
VERTEX
  8
0
  6
CONTINUOUS
 10
5.401880
 20
2.765400
  0
SEQEND
  8
0
  0
SOLID
  8
0
 62
    15
 10
5.451600
 20
2.780360
 11
5.445000
 21
3.509880
 12
5.496920
 22
2.803680
 13
5.490320
 23
3.533200
  0
POLYLINE
  8
0
  6
CONTINUOUS
 66
     1
 40
0.000000
 41
0.000000
  0
VERTEX
  8
0
  6
CONTINUOUS
 10
5.451600
 20
2.780360
  0
VERTEX
  8
0
  6
CONTINUOUS
 10
5.445000
 20
3.509880
  0
VERTEX
  8
0
  6
CONTINUOUS
 10
5.490320
 20
3.533200
  0
VERTEX
  8
0
  6
CONTINUOUS
 10
5.496920
 20
2.803680
  0
VERTEX
  8
0
  6
CONTINUOUS
 10
5.451600
 20
2.780360
  0
SEQEND
  8
0
  0
SOLID
  8
0
 62
    15
 10
5.496920
 20
2.803680
 11
5.490320
 21
3.533200
 12
5.536520
 22
2.834480
 13
5.529920
 23
3.564000
  0
POLYLINE
  8
0
  6
CONTINUOUS
 66
     1
 40
0.000000
 41
0.000000
  0
VERTEX
  8
0
  6
CONTINUOUS
 10
5.496920
 20
2.803680
  0
VERTEX
  8
0
  6
CONTINUOUS
 10
5.490320
 20
3.533200
  0
VERTEX
  8
0
  6
CONTINUOUS
 10
5.529920
 20
3.564000
  0
VERTEX
  8
0
  6
CONTINUOUS
 10
5.536520
 20
2.834480
  0
VERTEX
  8
0
  6
CONTINUOUS
 10
5.496920
 20
2.803680
  0
SEQEND
  8
0
  0
SOLID
  8
0
 62
    15
 10
5.536520
 20
2.834480
 11
5.529920
 21
3.564000
 12
5.569520
 22
2.872320
 13
5.562920
 23
3.601840
  0
POLYLINE
  8
0
  6
CONTINUOUS
 66
     1
 40
0.000000
 41
0.000000
  0
VERTEX
  8
0
  6
CONTINUOUS
 10
5.536520
 20
2.834480
  0
VERTEX
  8
0
  6
CONTINUOUS
 10
5.529920
 20
3.564000
  0
VERTEX
  8
0
  6
CONTINUOUS
 10
5.562920
 20
3.601840
  0
VERTEX
  8
0
  6
CONTINUOUS
 10
5.569520
 20
2.872320
  0
VERTEX
  8
0
  6
CONTINUOUS
 10
5.536520
 20
2.834480
  0
SEQEND
  8
0
  0
SOLID
  8
0
 62
    15
 10
5.569520
 20
2.872320
 11
5.562920
 21
3.601840
 12
5.594600
 22
2.915880
 13
5.588000
 23
3.645400
  0
POLYLINE
  8
0
  6
CONTINUOUS
 66
     1
 40
0.000000
 41
0.000000
  0
VERTEX
  8
0
  6
CONTINUOUS
 10
5.569520
 20
2.872320
  0
VERTEX
  8
0
  6
CONTINUOUS
 10
5.562920
 20
3.601840
  0
VERTEX
  8
0
  6
CONTINUOUS
 10
5.588000
 20
3.645400
  0
VERTEX
  8
0
  6
CONTINUOUS
 10
5.594600
 20
2.915880
  0
VERTEX
  8
0
  6
CONTINUOUS
 10
5.569520
 20
2.872320
  0
SEQEND
  8
0
  0
SOLID
  8
0
 62
    15
 10
5.594600
 20
2.915880
 11
5.588000
 21
3.645400
 12
5.610440
 22
2.964280
 13
5.603840
 23
3.693800
  0
POLYLINE
  8
0
  6
CONTINUOUS
 66
     1
 40
0.000000
 41
0.000000
  0
VERTEX
  8
0
  6
CONTINUOUS
 10
5.594600
 20
2.915880
  0
VERTEX
  8
0
  6
CONTINUOUS
 10
5.588000
 20
3.645400
  0
VERTEX
  8
0
  6
CONTINUOUS
 10
5.603840
 20
3.693800
  0
VERTEX
  8
0
  6
CONTINUOUS
 10
5.610440
 20
2.964280
  0
VERTEX
  8
0
  6
CONTINUOUS
 10
5.594600
 20
2.915880
  0
SEQEND
  8
0
  0
SOLID
  8
0
 62
    15
 10
5.610440
 20
2.964280
 11
5.603840
 21
3.693800
 12
5.615720
 22
3.016640
 13
5.609120
 23
3.746160
  0
POLYLINE
  8
0
  6
CONTINUOUS
 66
     1
 40
0.000000
 41
0.000000
  0
VERTEX
  8
0
  6
CONTINUOUS
 10
5.610440
 20
2.964280
  0
VERTEX
  8
0
  6
CONTINUOUS
 10
5.603840
 20
3.693800
  0
VERTEX
  8
0
  6
CONTINUOUS
 10
5.609120
 20
3.746160
  0
VERTEX
  8
0
  6
CONTINUOUS
 10
5.615720
 20
3.016640
  0
VERTEX
  8
0
  6
CONTINUOUS
 10
5.610440
 20
2.964280
  0
SEQEND
  8
0
  0
SOLID
  8
0
 62
    15
 10
5.615720
 20
3.016640
 11
5.609120
 21
3.746160
 12
6.175840
 22
3.016640
 13
6.169240
 23
3.746160
  0
POLYLINE
  8
0
  6
CONTINUOUS
 66
     1
 40
0.000000
 41
0.000000
  0
VERTEX
  8
0
  6
CONTINUOUS
 10
5.615720
 20
3.016640
  0
VERTEX
  8
0
  6
CONTINUOUS
 10
5.609120
 20
3.746160
  0
VERTEX
  8
0
  6
CONTINUOUS
 10
6.169240
 20
3.746160
  0
VERTEX
  8
0
  6
CONTINUOUS
 10
6.175840
 20
3.016640
  0
VERTEX
  8
0
  6
CONTINUOUS
 10
5.615720
 20
3.016640
  0
SEQEND
  8
0
  0
SOLID
  8
0
 62
    15
 10
2.263800
 20
2.312640
 11
2.257200
 21
3.042160
 12
2.263800
 22
3.021920
 13
2.257200
 23
3.751440
  0
POLYLINE
  8
0
  6
CONTINUOUS
 66
     1
 40
0.000000
 41
0.000000
  0
VERTEX
  8
0
  6
CONTINUOUS
 10
2.263800
 20
2.312640
  0
VERTEX
  8
0
  6
CONTINUOUS
 10
2.257200
 20
3.042160
  0
VERTEX
  8
0
  6
CONTINUOUS
 10
2.257200
 20
3.751440
  0
VERTEX
  8
0
  6
CONTINUOUS
 10
2.263800
 20
3.021920
  0
VERTEX
  8
0
  6
CONTINUOUS
 10
2.263800
 20
2.312640
  0
SEQEND
  8
0
  0
SOLID
  8
0
 62
    15
 10
2.263800
 20
3.021920
 11
2.257200
 21
3.751440
 12
2.825240
 22
3.021920
 13
2.818640
 23
3.751440
  0
POLYLINE
  8
0
  6
CONTINUOUS
 66
     1
 40
0.000000
 41
0.000000
  0
VERTEX
  8
0
  6
CONTINUOUS
 10
2.263800
 20
3.021920
  0
VERTEX
  8
0
  6
CONTINUOUS
 10
2.257200
 20
3.751440
  0
VERTEX
  8
0
  6
CONTINUOUS
 10
2.818640
 20
3.751440
  0
VERTEX
  8
0
  6
CONTINUOUS
 10
2.825240
 20
3.021920
  0
VERTEX
  8
0
  6
CONTINUOUS
 10
2.263800
 20
3.021920
  0
SEQEND
  8
0
  0
SOLID
  8
0
 62
    15
 10
2.825240
 20
3.021920
 11
2.818640
 21
3.751440
 12
2.830520
 22
3.016640
 13
2.823920
 23
3.746160
  0
POLYLINE
  8
0
  6
CONTINUOUS
 66
     1
 40
0.000000
 41
0.000000
  0
VERTEX
  8
0
  6
CONTINUOUS
 10
2.825240
 20
3.021920
  0
VERTEX
  8
0
  6
CONTINUOUS
 10
2.818640
 20
3.751440
  0
VERTEX
  8
0
  6
CONTINUOUS
 10
2.823920
 20
3.746160
  0
VERTEX
  8
0
  6
CONTINUOUS
 10
2.830520
 20
3.016640
  0
VERTEX
  8
0
  6
CONTINUOUS
 10
2.825240
 20
3.021920
  0
SEQEND
  8
0
  0
SOLID
  8
0
 62
    15
 10
2.830520
 20
3.016640
 11
2.823920
 21
3.746160
 12
2.835800
 22
2.964280
 13
2.829200
 23
3.693800
  0
POLYLINE
  8
0
  6
CONTINUOUS
 66
     1
 40
0.000000
 41
0.000000
  0
VERTEX
  8
0
  6
CONTINUOUS
 10
2.830520
 20
3.016640
  0
VERTEX
  8
0
  6
CONTINUOUS
 10
2.823920
 20
3.746160
  0
VERTEX
  8
0
  6
CONTINUOUS
 10
2.829200
 20
3.693800
  0
VERTEX
  8
0
  6
CONTINUOUS
 10
2.835800
 20
2.964280
  0
VERTEX
  8
0
  6
CONTINUOUS
 10
2.830520
 20
3.016640
  0
SEQEND
  8
0
  0
SOLID
  8
0
 62
    15
 10
2.835800
 20
2.964280
 11
2.829200
 21
3.693800
 12
2.850760
 22
2.915440
 13
2.844160
 23
3.645400
  0
POLYLINE
  8
0
  6
CONTINUOUS
 66
     1
 40
0.000000
 41
0.000000
  0
VERTEX
  8
0
  6
CONTINUOUS
 10
2.835800
 20
2.964280
  0
VERTEX
  8
0
  6
CONTINUOUS
 10
2.829200
 20
3.693800
  0
VERTEX
  8
0
  6
CONTINUOUS
 10
2.844160
 20
3.645400
  0
VERTEX
  8
0
  6
CONTINUOUS
 10
2.850760
 20
2.915440
  0
VERTEX
  8
0
  6
CONTINUOUS
 10
2.835800
 20
2.964280
  0
SEQEND
  8
0
  0
SOLID
  8
0
 62
    15
 10
2.850760
 20
2.915440
 11
2.844160
 21
3.645400
 12
2.874960
 22
2.871880
 13
2.868360
 23
3.601400
  0
POLYLINE
  8
0
  6
CONTINUOUS
 66
     1
 40
0.000000
 41
0.000000
  0
VERTEX
  8
0
  6
CONTINUOUS
 10
2.850760
 20
2.915440
  0
VERTEX
  8
0
  6
CONTINUOUS
 10
2.844160
 20
3.645400
  0
VERTEX
  8
0
  6
CONTINUOUS
 10
2.868360
 20
3.601400
  0
VERTEX
  8
0
  6
CONTINUOUS
 10
2.874960
 20
2.871880
  0
VERTEX
  8
0
  6
CONTINUOUS
 10
2.850760
 20
2.915440
  0
SEQEND
  8
0
  0
SOLID
  8
0
 62
    15
 10
2.874960
 20
2.871880
 11
2.868360
 21
3.601400
 12
2.906640
 22
2.834040
 13
2.900040
 23
3.563560
  0
POLYLINE
  8
0
  6
CONTINUOUS
 66
     1
 40
0.000000
 41
0.000000
  0
VERTEX
  8
0
  6
CONTINUOUS
 10
2.874960
 20
2.871880
  0
VERTEX
  8
0
  6
CONTINUOUS
 10
2.868360
 20
3.601400
  0
VERTEX
  8
0
  6
CONTINUOUS
 10
2.900040
 20
3.563560
  0
VERTEX
  8
0
  6
CONTINUOUS
 10
2.906640
 20
2.834040
  0
VERTEX
  8
0
  6
CONTINUOUS
 10
2.874960
 20
2.871880
  0
SEQEND
  8
0
  0
SOLID
  8
0
 62
    15
 10
2.906640
 20
2.834040
 11
2.900040
 21
3.563560
 12
2.944920
 22
2.802800
 13
2.938320
 23
3.532320
  0
POLYLINE
  8
0
  6
CONTINUOUS
 66
     1
 40
0.000000
 41
0.000000
  0
VERTEX
  8
0
  6
CONTINUOUS
 10
2.906640
 20
2.834040
  0
VERTEX
  8
0
  6
CONTINUOUS
 10
2.900040
 20
3.563560
  0
VERTEX
  8
0
  6
CONTINUOUS
 10
2.938320
 20
3.532320
  0
VERTEX
  8
0
  6
CONTINUOUS
 10
2.944920
 20
2.802800
  0
VERTEX
  8
0
  6
CONTINUOUS
 10
2.906640
 20
2.834040
  0
SEQEND
  8
0
  0
SOLID
  8
0
 62
    15
 10
2.944920
 20
2.802800
 11
2.938320
 21
3.532320
 12
2.989360
 22
2.779040
 13
2.982320
 23
3.509000
  0
POLYLINE
  8
0
  6
CONTINUOUS
 66
     1
 40
0.000000
 41
0.000000
  0
VERTEX
  8
0
  6
CONTINUOUS
 10
2.944920
 20
2.802800
  0
VERTEX
  8
0
  6
CONTINUOUS
 10
2.938320
 20
3.532320
  0
VERTEX
  8
0
  6
CONTINUOUS
 10
2.982320
 20
3.509000
  0
VERTEX
  8
0
  6
CONTINUOUS
 10
2.989360
 20
2.779040
  0
VERTEX
  8
0
  6
CONTINUOUS
 10
2.944920
 20
2.802800
  0
SEQEND
  8
0
  0
SOLID
  8
0
 62
    15
 10
2.989360
 20
2.779040
 11
2.982320
 21
3.509000
 12
3.038200
 22
2.764080
 13
3.031160
 23
3.494040
  0
POLYLINE
  8
0
  6
CONTINUOUS
 66
     1
 40
0.000000
 41
0.000000
  0
VERTEX
  8
0
  6
CONTINUOUS
 10
2.989360
 20
2.779040
  0
VERTEX
  8
0
  6
CONTINUOUS
 10
2.982320
 20
3.509000
  0
VERTEX
  8
0
  6
CONTINUOUS
 10
3.031160
 20
3.494040
  0
VERTEX
  8
0
  6
CONTINUOUS
 10
3.038200
 20
2.764080
  0
VERTEX
  8
0
  6
CONTINUOUS
 10
2.989360
 20
2.779040
  0
SEQEND
  8
0
  0
SOLID
  8
0
 62
    15
 10
3.038200
 20
2.764080
 11
3.031160
 21
3.494040
 12
3.090560
 22
2.759240
 13
3.083960
 23
3.488760
  0
POLYLINE
  8
0
  6
CONTINUOUS
 66
     1
 40
0.000000
 41
0.000000
  0
VERTEX
  8
0
  6
CONTINUOUS
 10
3.038200
 20
2.764080
  0
VERTEX
  8
0
  6
CONTINUOUS
 10
3.031160
 20
3.494040
  0
VERTEX
  8
0
  6
CONTINUOUS
 10
3.083960
 20
3.488760
  0
VERTEX
  8
0
  6
CONTINUOUS
 10
3.090560
 20
2.759240
  0
VERTEX
  8
0
  6
CONTINUOUS
 10
3.038200
 20
2.764080
  0
SEQEND
  8
0
  0
SOLID
  8
0
 62
    15
 10
3.090560
 20
2.759240
 11
3.083960
 21
3.488760
 12
3.143360
 22
2.764080
 13
3.136760
 23
3.494040
  0
POLYLINE
  8
0
  6
CONTINUOUS
 66
     1
 40
0.000000
 41
0.000000
  0
VERTEX
  8
0
  6
CONTINUOUS
 10
3.090560
 20
2.759240
  0
VERTEX
  8
0
  6
CONTINUOUS
 10
3.083960
 20
3.488760
  0
VERTEX
  8
0
  6
CONTINUOUS
 10
3.136760
 20
3.494040
  0
VERTEX
  8
0
  6
CONTINUOUS
 10
3.143360
 20
2.764080
  0
VERTEX
  8
0
  6
CONTINUOUS
 10
3.090560
 20
2.759240
  0
SEQEND
  8
0
  0
SOLID
  8
0
 62
    15
 10
3.143360
 20
2.764080
 11
3.136760
 21
3.494040
 12
3.193080
 22
2.779040
 13
3.186480
 23
3.508560
  0
POLYLINE
  8
0
  6
CONTINUOUS
 66
     1
 40
0.000000
 41
0.000000
  0
VERTEX
  8
0
  6
CONTINUOUS
 10
3.143360
 20
2.764080
  0
VERTEX
  8
0
  6
CONTINUOUS
 10
3.136760
 20
3.494040
  0
VERTEX
  8
0
  6
CONTINUOUS
 10
3.186480
 20
3.508560
  0
VERTEX
  8
0
  6
CONTINUOUS
 10
3.193080
 20
2.779040
  0
VERTEX
  8
0
  6
CONTINUOUS
 10
3.143360
 20
2.764080
  0
SEQEND
  8
0
  0
SOLID
  8
0
 62
    15
 10
3.193080
 20
2.779040
 11
3.186480
 21
3.508560
 12
3.238400
 22
2.802360
 13
3.231360
 23
3.531880
  0
POLYLINE
  8
0
  6
CONTINUOUS
 66
     1
 40
0.000000
 41
0.000000
  0
VERTEX
  8
0
  6
CONTINUOUS
 10
3.193080
 20
2.779040
  0
VERTEX
  8
0
  6
CONTINUOUS
 10
3.186480
 20
3.508560
  0
VERTEX
  8
0
  6
CONTINUOUS
 10
3.231360
 20
3.531880
  0
VERTEX
  8
0
  6
CONTINUOUS
 10
3.238400
 20
2.802360
  0
VERTEX
  8
0
  6
CONTINUOUS
 10
3.193080
 20
2.779040
  0
SEQEND
  8
0
  0
SOLID
  8
0
 62
    15
 10
3.238400
 20
2.802360
 11
3.231360
 21
3.531880
 12
3.278000
 22
2.833160
 13
3.271400
 23
3.562680
  0
POLYLINE
  8
0
  6
CONTINUOUS
 66
     1
 40
0.000000
 41
0.000000
  0
VERTEX
  8
0
  6
CONTINUOUS
 10
3.238400
 20
2.802360
  0
VERTEX
  8
0
  6
CONTINUOUS
 10
3.231360
 20
3.531880
  0
VERTEX
  8
0
  6
CONTINUOUS
 10
3.271400
 20
3.562680
  0
VERTEX
  8
0
  6
CONTINUOUS
 10
3.278000
 20
2.833160
  0
VERTEX
  8
0
  6
CONTINUOUS
 10
3.238400
 20
2.802360
  0
SEQEND
  8
0
  0
SOLID
  8
0
 62
    15
 10
3.278000
 20
2.833160
 11
3.271400
 21
3.562680
 12
3.311000
 22
2.871000
 13
3.303960
 23
3.600520
  0
POLYLINE
  8
0
  6
CONTINUOUS
 66
     1
 40
0.000000
 41
0.000000
  0
VERTEX
  8
0
  6
CONTINUOUS
 10
3.278000
 20
2.833160
  0
VERTEX
  8
0
  6
CONTINUOUS
 10
3.271400
 20
3.562680
  0
VERTEX
  8
0
  6
CONTINUOUS
 10
3.303960
 20
3.600520
  0
VERTEX
  8
0
  6
CONTINUOUS
 10
3.311000
 20
2.871000
  0
VERTEX
  8
0
  6
CONTINUOUS
 10
3.278000
 20
2.833160
  0
SEQEND
  8
0
  0
SOLID
  8
0
 62
    15
 10
3.311000
 20
2.871000
 11
3.303960
 21
3.600520
 12
3.335640
 22
2.914560
 13
3.329040
 23
3.644080
  0
POLYLINE
  8
0
  6
CONTINUOUS
 66
     1
 40
0.000000
 41
0.000000
  0
VERTEX
  8
0
  6
CONTINUOUS
 10
3.311000
 20
2.871000
  0
VERTEX
  8
0
  6
CONTINUOUS
 10
3.303960
 20
3.600520
  0
VERTEX
  8
0
  6
CONTINUOUS
 10
3.329040
 20
3.644080
  0
VERTEX
  8
0
  6
CONTINUOUS
 10
3.335640
 20
2.914560
  0
VERTEX
  8
0
  6
CONTINUOUS
 10
3.311000
 20
2.871000
  0
SEQEND
  8
0
  0
SOLID
  8
0
 62
    15
 10
3.335640
 20
2.914560
 11
3.329040
 21
3.644080
 12
3.351480
 22
2.962960
 13
3.344880
 23
3.692480
  0
POLYLINE
  8
0
  6
CONTINUOUS
 66
     1
 40
0.000000
 41
0.000000
  0
VERTEX
  8
0
  6
CONTINUOUS
 10
3.335640
 20
2.914560
  0
VERTEX
  8
0
  6
CONTINUOUS
 10
3.329040
 20
3.644080
  0
VERTEX
  8
0
  6
CONTINUOUS
 10
3.344880
 20
3.692480
  0
VERTEX
  8
0
  6
CONTINUOUS
 10
3.351480
 20
2.962960
  0
VERTEX
  8
0
  6
CONTINUOUS
 10
3.335640
 20
2.914560
  0
SEQEND
  8
0
  0
SOLID
  8
0
 62
    15
 10
3.351480
 20
2.962960
 11
3.344880
 21
3.692480
 12
3.357200
 22
3.015320
 13
3.350600
 23
3.744840
  0
POLYLINE
  8
0
  6
CONTINUOUS
 66
     1
 40
0.000000
 41
0.000000
  0
VERTEX
  8
0
  6
CONTINUOUS
 10
3.351480
 20
2.962960
  0
VERTEX
  8
0
  6
CONTINUOUS
 10
3.344880
 20
3.692480
  0
VERTEX
  8
0
  6
CONTINUOUS
 10
3.350600
 20
3.744840
  0
VERTEX
  8
0
  6
CONTINUOUS
 10
3.357200
 20
3.015320
  0
VERTEX
  8
0
  6
CONTINUOUS
 10
3.351480
 20
2.962960
  0
SEQEND
  8
0
  0
SOLID
  8
0
 62
    15
 10
3.357200
 20
3.015320
 11
3.350600
 21
3.744840
 12
3.361160
 22
3.021920
 13
3.354560
 23
3.751440
  0
POLYLINE
  8
0
  6
CONTINUOUS
 66
     1
 40
0.000000
 41
0.000000
  0
VERTEX
  8
0
  6
CONTINUOUS
 10
3.357200
 20
3.015320
  0
VERTEX
  8
0
  6
CONTINUOUS
 10
3.350600
 20
3.744840
  0
VERTEX
  8
0
  6
CONTINUOUS
 10
3.354560
 20
3.751440
  0
VERTEX
  8
0
  6
CONTINUOUS
 10
3.361160
 20
3.021920
  0
VERTEX
  8
0
  6
CONTINUOUS
 10
3.357200
 20
3.015320
  0
SEQEND
  8
0
  0
SOLID
  8
0
 62
    15
 10
3.361160
 20
3.021920
 11
3.354560
 21
3.751440
 12
3.579840
 22
3.021920
 13
3.573240
 23
3.751440
  0
POLYLINE
  8
0
  6
CONTINUOUS
 66
     1
 40
0.000000
 41
0.000000
  0
VERTEX
  8
0
  6
CONTINUOUS
 10
3.361160
 20
3.021920
  0
VERTEX
  8
0
  6
CONTINUOUS
 10
3.354560
 20
3.751440
  0
VERTEX
  8
0
  6
CONTINUOUS
 10
3.573240
 20
3.751440
  0
VERTEX
  8
0
  6
CONTINUOUS
 10
3.579840
 20
3.021920
  0
VERTEX
  8
0
  6
CONTINUOUS
 10
3.361160
 20
3.021920
  0
SEQEND
  8
0
  0
SOLID
  8
0
 62
    15
 10
5.089040
 20
3.017960
 11
5.082440
 21
3.747480
 12
5.094320
 22
2.965160
 13
5.087720
 23
3.695120
  0
POLYLINE
  8
0
  6
CONTINUOUS
 66
     1
 40
0.000000
 41
0.000000
  0
VERTEX
  8
0
  6
CONTINUOUS
 10
5.089040
 20
3.017960
  0
VERTEX
  8
0
  6
CONTINUOUS
 10
5.082440
 20
3.747480
  0
VERTEX
  8
0
  6
CONTINUOUS
 10
5.087720
 20
3.695120
  0
VERTEX
  8
0
  6
CONTINUOUS
 10
5.094320
 20
2.965160
  0
VERTEX
  8
0
  6
CONTINUOUS
 10
5.089040
 20
3.017960
  0
SEQEND
  8
0
  0
SOLID
  8
0
 62
    15
 10
3.586440
 20
3.017960
 11
3.579840
 21
3.747480
 12
3.591720
 22
2.965160
 13
3.585120
 23
3.695120
  0
POLYLINE
  8
0
  6
CONTINUOUS
 66
     1
 40
0.000000
 41
0.000000
  0
VERTEX
  8
0
  6
CONTINUOUS
 10
3.586440
 20
3.017960
  0
VERTEX
  8
0
  6
CONTINUOUS
 10
3.579840
 20
3.747480
  0
VERTEX
  8
0
  6
CONTINUOUS
 10
3.585120
 20
3.695120
  0
VERTEX
  8
0
  6
CONTINUOUS
 10
3.591720
 20
2.965160
  0
VERTEX
  8
0
  6
CONTINUOUS
 10
3.586440
 20
3.017960
  0
SEQEND
  8
0
  0
SOLID
  8
0
 62
    15
 10
3.591720
 20
2.965160
 11
3.585120
 21
3.695120
 12
3.607120
 22
2.916760
 13
3.600520
 23
3.646280
  0
POLYLINE
  8
0
  6
CONTINUOUS
 66
     1
 40
0.000000
 41
0.000000
  0
VERTEX
  8
0
  6
CONTINUOUS
 10
3.591720
 20
2.965160
  0
VERTEX
  8
0
  6
CONTINUOUS
 10
3.585120
 20
3.695120
  0
VERTEX
  8
0
  6
CONTINUOUS
 10
3.600520
 20
3.646280
  0
VERTEX
  8
0
  6
CONTINUOUS
 10
3.607120
 20
2.916760
  0
VERTEX
  8
0
  6
CONTINUOUS
 10
3.591720
 20
2.965160
  0
SEQEND
  8
0
  0
SOLID
  8
0
 62
    15
 10
3.607120
 20
2.916760
 11
3.600520
 21
3.646280
 12
3.630880
 22
2.873200
 13
3.624280
 23
3.602720
  0
POLYLINE
  8
0
  6
CONTINUOUS
 66
     1
 40
0.000000
 41
0.000000
  0
VERTEX
  8
0
  6
CONTINUOUS
 10
3.607120
 20
2.916760
  0
VERTEX
  8
0
  6
CONTINUOUS
 10
3.600520
 20
3.646280
  0
VERTEX
  8
0
  6
CONTINUOUS
 10
3.624280
 20
3.602720
  0
VERTEX
  8
0
  6
CONTINUOUS
 10
3.630880
 20
2.873200
  0
VERTEX
  8
0
  6
CONTINUOUS
 10
3.607120
 20
2.916760
  0
SEQEND
  8
0
  0
SOLID
  8
0
 62
    15
 10
3.630880
 20
2.873200
 11
3.624280
 21
3.602720
 12
3.662560
 22
2.834920
 13
3.655960
 23
3.564880
  0
POLYLINE
  8
0
  6
CONTINUOUS
 66
     1
 40
0.000000
 41
0.000000
  0
VERTEX
  8
0
  6
CONTINUOUS
 10
3.630880
 20
2.873200
  0
VERTEX
  8
0
  6
CONTINUOUS
 10
3.624280
 20
3.602720
  0
VERTEX
  8
0
  6
CONTINUOUS
 10
3.655960
 20
3.564880
  0
VERTEX
  8
0
  6
CONTINUOUS
 10
3.662560
 20
2.834920
  0
VERTEX
  8
0
  6
CONTINUOUS
 10
3.630880
 20
2.873200
  0
SEQEND
  8
0
  0
SOLID
  8
0
 62
    15
 10
3.662560
 20
2.834920
 11
3.655960
 21
3.564880
 12
3.701280
 22
2.804120
 13
3.694240
 23
3.533640
  0
POLYLINE
  8
0
  6
CONTINUOUS
 66
     1
 40
0.000000
 41
0.000000
  0
VERTEX
  8
0
  6
CONTINUOUS
 10
3.662560
 20
2.834920
  0
VERTEX
  8
0
  6
CONTINUOUS
 10
3.655960
 20
3.564880
  0
VERTEX
  8
0
  6
CONTINUOUS
 10
3.694240
 20
3.533640
  0
VERTEX
  8
0
  6
CONTINUOUS
 10
3.701280
 20
2.804120
  0
VERTEX
  8
0
  6
CONTINUOUS
 10
3.662560
 20
2.834920
  0
SEQEND
  8
0
  0
SOLID
  8
0
 62
    15
 10
3.701280
 20
2.804120
 11
3.694240
 21
3.533640
 12
3.745280
 22
2.780360
 13
3.738680
 23
3.509880
  0
POLYLINE
  8
0
  6
CONTINUOUS
 66
     1
 40
0.000000
 41
0.000000
  0
VERTEX
  8
0
  6
CONTINUOUS
 10
3.701280
 20
2.804120
  0
VERTEX
  8
0
  6
CONTINUOUS
 10
3.694240
 20
3.533640
  0
VERTEX
  8
0
  6
CONTINUOUS
 10
3.738680
 20
3.509880
  0
VERTEX
  8
0
  6
CONTINUOUS
 10
3.745280
 20
2.780360
  0
VERTEX
  8
0
  6
CONTINUOUS
 10
3.701280
 20
2.804120
  0
SEQEND
  8
0
  0
SOLID
  8
0
 62
    15
 10
3.745280
 20
2.780360
 11
3.738680
 21
3.509880
 12
3.794120
 22
2.765400
 13
3.787520
 23
3.495360
  0
POLYLINE
  8
0
  6
CONTINUOUS
 66
     1
 40
0.000000
 41
0.000000
  0
VERTEX
  8
0
  6
CONTINUOUS
 10
3.745280
 20
2.780360
  0
VERTEX
  8
0
  6
CONTINUOUS
 10
3.738680
 20
3.509880
  0
VERTEX
  8
0
  6
CONTINUOUS
 10
3.787520
 20
3.495360
  0
VERTEX
  8
0
  6
CONTINUOUS
 10
3.794120
 20
2.765400
  0
VERTEX
  8
0
  6
CONTINUOUS
 10
3.745280
 20
2.780360
  0
SEQEND
  8
0
  0
SOLID
  8
0
 62
    15
 10
3.794120
 20
2.765400
 11
3.787520
 21
3.495360
 12
3.846480
 22
2.760560
 13
3.839880
 23
3.490080
  0
POLYLINE
  8
0
  6
CONTINUOUS
 66
     1
 40
0.000000
 41
0.000000
  0
VERTEX
  8
0
  6
CONTINUOUS
 10
3.794120
 20
2.765400
  0
VERTEX
  8
0
  6
CONTINUOUS
 10
3.787520
 20
3.495360
  0
VERTEX
  8
0
  6
CONTINUOUS
 10
3.839880
 20
3.490080
  0
VERTEX
  8
0
  6
CONTINUOUS
 10
3.846480
 20
2.760560
  0
VERTEX
  8
0
  6
CONTINUOUS
 10
3.794120
 20
2.765400
  0
SEQEND
  8
0
  0
SOLID
  8
0
 62
    15
 10
3.846480
 20
2.760560
 11
3.839880
 21
3.490080
 12
3.899280
 22
2.765400
 13
3.892680
 23
3.495360
  0
POLYLINE
  8
0
  6
CONTINUOUS
 66
     1
 40
0.000000
 41
0.000000
  0
VERTEX
  8
0
  6
CONTINUOUS
 10
3.846480
 20
2.760560
  0
VERTEX
  8
0
  6
CONTINUOUS
 10
3.839880
 20
3.490080
  0
VERTEX
  8
0
  6
CONTINUOUS
 10
3.892680
 20
3.495360
  0
VERTEX
  8
0
  6
CONTINUOUS
 10
3.899280
 20
2.765400
  0
VERTEX
  8
0
  6
CONTINUOUS
 10
3.846480
 20
2.760560
  0
SEQEND
  8
0
  0
SOLID
  8
0
 62
    15
 10
3.899280
 20
2.765400
 11
3.892680
 21
3.495360
 12
3.949000
 22
2.780360
 13
3.942400
 23
3.509880
  0
POLYLINE
  8
0
  6
CONTINUOUS
 66
     1
 40
0.000000
 41
0.000000
  0
VERTEX
  8
0
  6
CONTINUOUS
 10
3.899280
 20
2.765400
  0
VERTEX
  8
0
  6
CONTINUOUS
 10
3.892680
 20
3.495360
  0
VERTEX
  8
0
  6
CONTINUOUS
 10
3.942400
 20
3.509880
  0
VERTEX
  8
0
  6
CONTINUOUS
 10
3.949000
 20
2.780360
  0
VERTEX
  8
0
  6
CONTINUOUS
 10
3.899280
 20
2.765400
  0
SEQEND
  8
0
  0
SOLID
  8
0
 62
    15
 10
3.949000
 20
2.780360
 11
3.942400
 21
3.509880
 12
3.994320
 22
2.803680
 13
3.987720
 23
3.533200
  0
POLYLINE
  8
0
  6
CONTINUOUS
 66
     1
 40
0.000000
 41
0.000000
  0
VERTEX
  8
0
  6
CONTINUOUS
 10
3.949000
 20
2.780360
  0
VERTEX
  8
0
  6
CONTINUOUS
 10
3.942400
 20
3.509880
  0
VERTEX
  8
0
  6
CONTINUOUS
 10
3.987720
 20
3.533200
  0
VERTEX
  8
0
  6
CONTINUOUS
 10
3.994320
 20
2.803680
  0
VERTEX
  8
0
  6
CONTINUOUS
 10
3.949000
 20
2.780360
  0
SEQEND
  8
0
  0
SOLID
  8
0
 62
    15
 10
3.994320
 20
2.803680
 11
3.987720
 21
3.533200
 12
4.033920
 22
2.834480
 13
4.027320
 23
3.564000
  0
POLYLINE
  8
0
  6
CONTINUOUS
 66
     1
 40
0.000000
 41
0.000000
  0
VERTEX
  8
0
  6
CONTINUOUS
 10
3.994320
 20
2.803680
  0
VERTEX
  8
0
  6
CONTINUOUS
 10
3.987720
 20
3.533200
  0
VERTEX
  8
0
  6
CONTINUOUS
 10
4.027320
 20
3.564000
  0
VERTEX
  8
0
  6
CONTINUOUS
 10
4.033920
 20
2.834480
  0
VERTEX
  8
0
  6
CONTINUOUS
 10
3.994320
 20
2.803680
  0
SEQEND
  8
0
  0
SOLID
  8
0
 62
    15
 10
4.033920
 20
2.834480
 11
4.027320
 21
3.564000
 12
4.066920
 22
2.872320
 13
4.060320
 23
3.601840
  0
POLYLINE
  8
0
  6
CONTINUOUS
 66
     1
 40
0.000000
 41
0.000000
  0
VERTEX
  8
0
  6
CONTINUOUS
 10
4.033920
 20
2.834480
  0
VERTEX
  8
0
  6
CONTINUOUS
 10
4.027320
 20
3.564000
  0
VERTEX
  8
0
  6
CONTINUOUS
 10
4.060320
 20
3.601840
  0
VERTEX
  8
0
  6
CONTINUOUS
 10
4.066920
 20
2.872320
  0
VERTEX
  8
0
  6
CONTINUOUS
 10
4.033920
 20
2.834480
  0
SEQEND
  8
0
  0
SOLID
  8
0
 62
    15
 10
4.066920
 20
2.872320
 11
4.060320
 21
3.601840
 12
4.092000
 22
2.915880
 13
4.085400
 23
3.645400
  0
POLYLINE
  8
0
  6
CONTINUOUS
 66
     1
 40
0.000000
 41
0.000000
  0
VERTEX
  8
0
  6
CONTINUOUS
 10
4.066920
 20
2.872320
  0
VERTEX
  8
0
  6
CONTINUOUS
 10
4.060320
 20
3.601840
  0
VERTEX
  8
0
  6
CONTINUOUS
 10
4.085400
 20
3.645400
  0
VERTEX
  8
0
  6
CONTINUOUS
 10
4.092000
 20
2.915880
  0
VERTEX
  8
0
  6
CONTINUOUS
 10
4.066920
 20
2.872320
  0
SEQEND
  8
0
  0
SOLID
  8
0
 62
    15
 10
4.092000
 20
2.915880
 11
4.085400
 21
3.645400
 12
4.107840
 22
2.964280
 13
4.101240
 23
3.693800
  0
POLYLINE
  8
0
  6
CONTINUOUS
 66
     1
 40
0.000000
 41
0.000000
  0
VERTEX
  8
0
  6
CONTINUOUS
 10
4.092000
 20
2.915880
  0
VERTEX
  8
0
  6
CONTINUOUS
 10
4.085400
 20
3.645400
  0
VERTEX
  8
0
  6
CONTINUOUS
 10
4.101240
 20
3.693800
  0
VERTEX
  8
0
  6
CONTINUOUS
 10
4.107840
 20
2.964280
  0
VERTEX
  8
0
  6
CONTINUOUS
 10
4.092000
 20
2.915880
  0
SEQEND
  8
0
  0
SOLID
  8
0
 62
    15
 10
4.107840
 20
2.964280
 11
4.101240
 21
3.693800
 12
4.113120
 22
3.016640
 13
4.106520
 23
3.746160
  0
POLYLINE
  8
0
  6
CONTINUOUS
 66
     1
 40
0.000000
 41
0.000000
  0
VERTEX
  8
0
  6
CONTINUOUS
 10
4.107840
 20
2.964280
  0
VERTEX
  8
0
  6
CONTINUOUS
 10
4.101240
 20
3.693800
  0
VERTEX
  8
0
  6
CONTINUOUS
 10
4.106520
 20
3.746160
  0
VERTEX
  8
0
  6
CONTINUOUS
 10
4.113120
 20
3.016640
  0
VERTEX
  8
0
  6
CONTINUOUS
 10
4.107840
 20
2.964280
  0
SEQEND
  8
0
  0
SOLID
  8
0
 62
    15
 10
4.113120
 20
3.016640
 11
4.106520
 21
3.746160
 12
4.117080
 22
3.021920
 13
4.110480
 23
3.751440
  0
POLYLINE
  8
0
  6
CONTINUOUS
 66
     1
 40
0.000000
 41
0.000000
  0
VERTEX
  8
0
  6
CONTINUOUS
 10
4.113120
 20
3.016640
  0
VERTEX
  8
0
  6
CONTINUOUS
 10
4.106520
 20
3.746160
  0
VERTEX
  8
0
  6
CONTINUOUS
 10
4.110480
 20
3.751440
  0
VERTEX
  8
0
  6
CONTINUOUS
 10
4.117080
 20
3.021920
  0
VERTEX
  8
0
  6
CONTINUOUS
 10
4.113120
 20
3.016640
  0
SEQEND
  8
0
  0
SOLID
  8
0
 62
    15
 10
4.117080
 20
3.021920
 11
4.110480
 21
3.751440
 12
4.335760
 22
3.021920
 13
4.329160
 23
3.751440
  0
POLYLINE
  8
0
  6
CONTINUOUS
 66
     1
 40
0.000000
 41
0.000000
  0
VERTEX
  8
0
  6
CONTINUOUS
 10
4.117080
 20
3.021920
  0
VERTEX
  8
0
  6
CONTINUOUS
 10
4.110480
 20
3.751440
  0
VERTEX
  8
0
  6
CONTINUOUS
 10
4.329160
 20
3.751440
  0
VERTEX
  8
0
  6
CONTINUOUS
 10
4.335760
 20
3.021920
  0
VERTEX
  8
0
  6
CONTINUOUS
 10
4.117080
 20
3.021920
  0
SEQEND
  8
0
  0
SOLID
  8
0
 62
    15
 10
4.335760
 20
3.021920
 11
4.329160
 21
3.751440
 12
4.344120
 22
3.017960
 13
4.337080
 23
3.747480
  0
POLYLINE
  8
0
  6
CONTINUOUS
 66
     1
 40
0.000000
 41
0.000000
  0
VERTEX
  8
0
  6
CONTINUOUS
 10
4.335760
 20
3.021920
  0
VERTEX
  8
0
  6
CONTINUOUS
 10
4.329160
 20
3.751440
  0
VERTEX
  8
0
  6
CONTINUOUS
 10
4.337080
 20
3.747480
  0
VERTEX
  8
0
  6
CONTINUOUS
 10
4.344120
 20
3.017960
  0
VERTEX
  8
0
  6
CONTINUOUS
 10
4.335760
 20
3.021920
  0
SEQEND
  8
0
  0
SOLID
  8
0
 62
    15
 10
4.344120
 20
3.017960
 11
4.337080
 21
3.747480
 12
4.349400
 22
2.965160
 13
4.342360
 23
3.695120
  0
POLYLINE
  8
0
  6
CONTINUOUS
 66
     1
 40
0.000000
 41
0.000000
  0
VERTEX
  8
0
  6
CONTINUOUS
 10
4.344120
 20
3.017960
  0
VERTEX
  8
0
  6
CONTINUOUS
 10
4.337080
 20
3.747480
  0
VERTEX
  8
0
  6
CONTINUOUS
 10
4.342360
 20
3.695120
  0
VERTEX
  8
0
  6
CONTINUOUS
 10
4.349400
 20
2.965160
  0
VERTEX
  8
0
  6
CONTINUOUS
 10
4.344120
 20
3.017960
  0
SEQEND
  8
0
  0
SOLID
  8
0
 62
    15
 10
4.349400
 20
2.965160
 11
4.342360
 21
3.695120
 12
4.364360
 22
2.916760
 13
4.357760
 23
3.646280
  0
POLYLINE
  8
0
  6
CONTINUOUS
 66
     1
 40
0.000000
 41
0.000000
  0
VERTEX
  8
0
  6
CONTINUOUS
 10
4.349400
 20
2.965160
  0
VERTEX
  8
0
  6
CONTINUOUS
 10
4.342360
 20
3.695120
  0
VERTEX
  8
0
  6
CONTINUOUS
 10
4.357760
 20
3.646280
  0
VERTEX
  8
0
  6
CONTINUOUS
 10
4.364360
 20
2.916760
  0
VERTEX
  8
0
  6
CONTINUOUS
 10
4.349400
 20
2.965160
  0
SEQEND
  8
0
  0
SOLID
  8
0
 62
    15
 10
4.364360
 20
2.916760
 11
4.357760
 21
3.646280
 12
4.388120
 22
2.873200
 13
4.381520
 23
3.602720
  0
POLYLINE
  8
0
  6
CONTINUOUS
 66
     1
 40
0.000000
 41
0.000000
  0
VERTEX
  8
0
  6
CONTINUOUS
 10
4.364360
 20
2.916760
  0
VERTEX
  8
0
  6
CONTINUOUS
 10
4.357760
 20
3.646280
  0
VERTEX
  8
0
  6
CONTINUOUS
 10
4.381520
 20
3.602720
  0
VERTEX
  8
0
  6
CONTINUOUS
 10
4.388120
 20
2.873200
  0
VERTEX
  8
0
  6
CONTINUOUS
 10
4.364360
 20
2.916760
  0
SEQEND
  8
0
  0
SOLID
  8
0
 62
    15
 10
4.388120
 20
2.873200
 11
4.381520
 21
3.602720
 12
4.419800
 22
2.834920
 13
4.413200
 23
3.564880
  0
POLYLINE
  8
0
  6
CONTINUOUS
 66
     1
 40
0.000000
 41
0.000000
  0
VERTEX
  8
0
  6
CONTINUOUS
 10
4.388120
 20
2.873200
  0
VERTEX
  8
0
  6
CONTINUOUS
 10
4.381520
 20
3.602720
  0
VERTEX
  8
0
  6
CONTINUOUS
 10
4.413200
 20
3.564880
  0
VERTEX
  8
0
  6
CONTINUOUS
 10
4.419800
 20
2.834920
  0
VERTEX
  8
0
  6
CONTINUOUS
 10
4.388120
 20
2.873200
  0
SEQEND
  8
0
  0
SOLID
  8
0
 62
    15
 10
4.419800
 20
2.834920
 11
4.413200
 21
3.564880
 12
4.458520
 22
2.804120
 13
4.451920
 23
3.533640
  0
POLYLINE
  8
0
  6
CONTINUOUS
 66
     1
 40
0.000000
 41
0.000000
  0
VERTEX
  8
0
  6
CONTINUOUS
 10
4.419800
 20
2.834920
  0
VERTEX
  8
0
  6
CONTINUOUS
 10
4.413200
 20
3.564880
  0
VERTEX
  8
0
  6
CONTINUOUS
 10
4.451920
 20
3.533640
  0
VERTEX
  8
0
  6
CONTINUOUS
 10
4.458520
 20
2.804120
  0
VERTEX
  8
0
  6
CONTINUOUS
 10
4.419800
 20
2.834920
  0
SEQEND
  8
0
  0
SOLID
  8
0
 62
    15
 10
4.458520
 20
2.804120
 11
4.451920
 21
3.533640
 12
4.502520
 22
2.780360
 13
4.495920
 23
3.509880
  0
POLYLINE
  8
0
  6
CONTINUOUS
 66
     1
 40
0.000000
 41
0.000000
  0
VERTEX
  8
0
  6
CONTINUOUS
 10
4.458520
 20
2.804120
  0
VERTEX
  8
0
  6
CONTINUOUS
 10
4.451920
 20
3.533640
  0
VERTEX
  8
0
  6
CONTINUOUS
 10
4.495920
 20
3.509880
  0
VERTEX
  8
0
  6
CONTINUOUS
 10
4.502520
 20
2.780360
  0
VERTEX
  8
0
  6
CONTINUOUS
 10
4.458520
 20
2.804120
  0
SEQEND
  8
0
  0
SOLID
  8
0
 62
    15
 10
4.502520
 20
2.780360
 11
4.495920
 21
3.509880
 12
4.551360
 22
2.765400
 13
4.544760
 23
3.495360
  0
POLYLINE
  8
0
  6
CONTINUOUS
 66
     1
 40
0.000000
 41
0.000000
  0
VERTEX
  8
0
  6
CONTINUOUS
 10
4.502520
 20
2.780360
  0
VERTEX
  8
0
  6
CONTINUOUS
 10
4.495920
 20
3.509880
  0
VERTEX
  8
0
  6
CONTINUOUS
 10
4.544760
 20
3.495360
  0
VERTEX
  8
0
  6
CONTINUOUS
 10
4.551360
 20
2.765400
  0
VERTEX
  8
0
  6
CONTINUOUS
 10
4.502520
 20
2.780360
  0
SEQEND
  8
0
  0
SOLID
  8
0
 62
    15
 10
4.551360
 20
2.765400
 11
4.544760
 21
3.495360
 12
4.603720
 22
2.760560
 13
4.597120
 23
3.490080
  0
POLYLINE
  8
0
  6
CONTINUOUS
 66
     1
 40
0.000000
 41
0.000000
  0
VERTEX
  8
0
  6
CONTINUOUS
 10
4.551360
 20
2.765400
  0
VERTEX
  8
0
  6
CONTINUOUS
 10
4.544760
 20
3.495360
  0
VERTEX
  8
0
  6
CONTINUOUS
 10
4.597120
 20
3.490080
  0
VERTEX
  8
0
  6
CONTINUOUS
 10
4.603720
 20
2.760560
  0
VERTEX
  8
0
  6
CONTINUOUS
 10
4.551360
 20
2.765400
  0
SEQEND
  8
0
  0
SOLID
  8
0
 62
    15
 10
4.603720
 20
2.760560
 11
4.597120
 21
3.490080
 12
4.656520
 22
2.765400
 13
4.649920
 23
3.495360
  0
POLYLINE
  8
0
  6
CONTINUOUS
 66
     1
 40
0.000000
 41
0.000000
  0
VERTEX
  8
0
  6
CONTINUOUS
 10
4.603720
 20
2.760560
  0
VERTEX
  8
0
  6
CONTINUOUS
 10
4.597120
 20
3.490080
  0
VERTEX
  8
0
  6
CONTINUOUS
 10
4.649920
 20
3.495360
  0
VERTEX
  8
0
  6
CONTINUOUS
 10
4.656520
 20
2.765400
  0
VERTEX
  8
0
  6
CONTINUOUS
 10
4.603720
 20
2.760560
  0
SEQEND
  8
0
  0
SOLID
  8
0
 62
    15
 10
4.656520
 20
2.765400
 11
4.649920
 21
3.495360
 12
4.706240
 22
2.780360
 13
4.699640
 23
3.509880
  0
POLYLINE
  8
0
  6
CONTINUOUS
 66
     1
 40
0.000000
 41
0.000000
  0
VERTEX
  8
0
  6
CONTINUOUS
 10
4.656520
 20
2.765400
  0
VERTEX
  8
0
  6
CONTINUOUS
 10
4.649920
 20
3.495360
  0
VERTEX
  8
0
  6
CONTINUOUS
 10
4.699640
 20
3.509880
  0
VERTEX
  8
0
  6
CONTINUOUS
 10
4.706240
 20
2.780360
  0
VERTEX
  8
0
  6
CONTINUOUS
 10
4.656520
 20
2.765400
  0
SEQEND
  8
0
  0
SOLID
  8
0
 62
    15
 10
4.706240
 20
2.780360
 11
4.699640
 21
3.509880
 12
4.751560
 22
2.803680
 13
4.744960
 23
3.533200
  0
POLYLINE
  8
0
  6
CONTINUOUS
 66
     1
 40
0.000000
 41
0.000000
  0
VERTEX
  8
0
  6
CONTINUOUS
 10
4.706240
 20
2.780360
  0
VERTEX
  8
0
  6
CONTINUOUS
 10
4.699640
 20
3.509880
  0
VERTEX
  8
0
  6
CONTINUOUS
 10
4.744960
 20
3.533200
  0
VERTEX
  8
0
  6
CONTINUOUS
 10
4.751560
 20
2.803680
  0
VERTEX
  8
0
  6
CONTINUOUS
 10
4.706240
 20
2.780360
  0
SEQEND
  8
0
  0
SOLID
  8
0
 62
    15
 10
4.751560
 20
2.803680
 11
4.744960
 21
3.533200
 12
4.791160
 22
2.834480
 13
4.784560
 23
3.564000
  0
POLYLINE
  8
0
  6
CONTINUOUS
 66
     1
 40
0.000000
 41
0.000000
  0
VERTEX
  8
0
  6
CONTINUOUS
 10
4.751560
 20
2.803680
  0
VERTEX
  8
0
  6
CONTINUOUS
 10
4.744960
 20
3.533200
  0
VERTEX
  8
0
  6
CONTINUOUS
 10
4.784560
 20
3.564000
  0
VERTEX
  8
0
  6
CONTINUOUS
 10
4.791160
 20
2.834480
  0
VERTEX
  8
0
  6
CONTINUOUS
 10
4.751560
 20
2.803680
  0
SEQEND
  8
0
  0
SOLID
  8
0
 62
    15
 10
4.791160
 20
2.834480
 11
4.784560
 21
3.564000
 12
4.824160
 22
2.872320
 13
4.817560
 23
3.601840
  0
POLYLINE
  8
0
  6
CONTINUOUS
 66
     1
 40
0.000000
 41
0.000000
  0
VERTEX
  8
0
  6
CONTINUOUS
 10
4.791160
 20
2.834480
  0
VERTEX
  8
0
  6
CONTINUOUS
 10
4.784560
 20
3.564000
  0
VERTEX
  8
0
  6
CONTINUOUS
 10
4.817560
 20
3.601840
  0
VERTEX
  8
0
  6
CONTINUOUS
 10
4.824160
 20
2.872320
  0
VERTEX
  8
0
  6
CONTINUOUS
 10
4.791160
 20
2.834480
  0
SEQEND
  8
0
  0
SOLID
  8
0
 62
    15
 10
4.824160
 20
2.872320
 11
4.817560
 21
3.601840
 12
4.849240
 22
2.915880
 13
4.842640
 23
3.645400
  0
POLYLINE
  8
0
  6
CONTINUOUS
 66
     1
 40
0.000000
 41
0.000000
  0
VERTEX
  8
0
  6
CONTINUOUS
 10
4.824160
 20
2.872320
  0
VERTEX
  8
0
  6
CONTINUOUS
 10
4.817560
 20
3.601840
  0
VERTEX
  8
0
  6
CONTINUOUS
 10
4.842640
 20
3.645400
  0
VERTEX
  8
0
  6
CONTINUOUS
 10
4.849240
 20
2.915880
  0
VERTEX
  8
0
  6
CONTINUOUS
 10
4.824160
 20
2.872320
  0
SEQEND
  8
0
  0
SOLID
  8
0
 62
    15
 10
4.849240
 20
2.915880
 11
4.842640
 21
3.645400
 12
4.865080
 22
2.964280
 13
4.858480
 23
3.693800
  0
POLYLINE
  8
0
  6
CONTINUOUS
 66
     1
 40
0.000000
 41
0.000000
  0
VERTEX
  8
0
  6
CONTINUOUS
 10
4.849240
 20
2.915880
  0
VERTEX
  8
0
  6
CONTINUOUS
 10
4.842640
 20
3.645400
  0
VERTEX
  8
0
  6
CONTINUOUS
 10
4.858480
 20
3.693800
  0
VERTEX
  8
0
  6
CONTINUOUS
 10
4.865080
 20
2.964280
  0
VERTEX
  8
0
  6
CONTINUOUS
 10
4.849240
 20
2.915880
  0
SEQEND
  8
0
  0
SOLID
  8
0
 62
    15
 10
4.865080
 20
2.964280
 11
4.858480
 21
3.693800
 12
4.870800
 22
3.016640
 13
4.863760
 23
3.746160
  0
POLYLINE
  8
0
  6
CONTINUOUS
 66
     1
 40
0.000000
 41
0.000000
  0
VERTEX
  8
0
  6
CONTINUOUS
 10
4.865080
 20
2.964280
  0
VERTEX
  8
0
  6
CONTINUOUS
 10
4.858480
 20
3.693800
  0
VERTEX
  8
0
  6
CONTINUOUS
 10
4.863760
 20
3.746160
  0
VERTEX
  8
0
  6
CONTINUOUS
 10
4.870800
 20
3.016640
  0
VERTEX
  8
0
  6
CONTINUOUS
 10
4.865080
 20
2.964280
  0
SEQEND
  8
0
  0
SOLID
  8
0
 62
    15
 10
4.870800
 20
3.016640
 11
4.863760
 21
3.746160
 12
5.078480
 22
3.016640
 13
5.071880
 23
3.746160
  0
POLYLINE
  8
0
  6
CONTINUOUS
 66
     1
 40
0.000000
 41
0.000000
  0
VERTEX
  8
0
  6
CONTINUOUS
 10
4.870800
 20
3.016640
  0
VERTEX
  8
0
  6
CONTINUOUS
 10
4.863760
 20
3.746160
  0
VERTEX
  8
0
  6
CONTINUOUS
 10
5.071880
 20
3.746160
  0
VERTEX
  8
0
  6
CONTINUOUS
 10
5.078480
 20
3.016640
  0
VERTEX
  8
0
  6
CONTINUOUS
 10
4.870800
 20
3.016640
  0
SEQEND
  8
0
  0
SOLID
  8
0
 62
    15
 10
5.078480
 20
3.016640
 11
5.071880
 21
3.746160
 12
5.089040
 22
3.017960
 13
5.082440
 23
3.747480
  0
POLYLINE
  8
0
  6
CONTINUOUS
 66
     1
 40
0.000000
 41
0.000000
  0
VERTEX
  8
0
  6
CONTINUOUS
 10
5.078480
 20
3.016640
  0
VERTEX
  8
0
  6
CONTINUOUS
 10
5.071880
 20
3.746160
  0
VERTEX
  8
0
  6
CONTINUOUS
 10
5.082440
 20
3.747480
  0
VERTEX
  8
0
  6
CONTINUOUS
 10
5.089040
 20
3.017960
  0
VERTEX
  8
0
  6
CONTINUOUS
 10
5.078480
 20
3.016640
  0
SEQEND
  8
0
  0
POLYLINE
  8
0
  6
CONTINUOUS
 66
     1
 40
0.000000
 41
0.000000
  0
VERTEX
  8
0
  6
CONTINUOUS
 10
5.089040
 20
3.017960
  0
VERTEX
  8
0
  6
CONTINUOUS
 10
5.094320
 20
2.965160
  0
VERTEX
  8
0
  6
CONTINUOUS
 10
5.109720
 20
2.916760
  0
VERTEX
  8
0
  6
CONTINUOUS
 10
5.133480
 20
2.873200
  0
VERTEX
  8
0
  6
CONTINUOUS
 10
5.165160
 20
2.834920
  0
VERTEX
  8
0
  6
CONTINUOUS
 10
5.203880
 20
2.804120
  0
VERTEX
  8
0
  6
CONTINUOUS
 10
5.247880
 20
2.780360
  0
VERTEX
  8
0
  6
CONTINUOUS
 10
5.296720
 20
2.765400
  0
VERTEX
  8
0
  6
CONTINUOUS
 10
5.349080
 20
2.760560
  0
VERTEX
  8
0
  6
CONTINUOUS
 10
5.401880
 20
2.765400
  0
VERTEX
  8
0
  6
CONTINUOUS
 10
5.451600
 20
2.780360
  0
VERTEX
  8
0
  6
CONTINUOUS
 10
5.496920
 20
2.803680
  0
VERTEX
  8
0
  6
CONTINUOUS
 10
5.536520
 20
2.834480
  0
VERTEX
  8
0
  6
CONTINUOUS
 10
5.569520
 20
2.872320
  0
VERTEX
  8
0
  6
CONTINUOUS
 10
5.594600
 20
2.915880
  0
VERTEX
  8
0
  6
CONTINUOUS
 10
5.610440
 20
2.964280
  0
VERTEX
  8
0
  6
CONTINUOUS
 10
5.615720
 20
3.016640
  0
VERTEX
  8
0
  6
CONTINUOUS
 10
6.175840
 20
3.016640
  0
VERTEX
  8
0
  6
CONTINUOUS
 10
6.175840
 20
2.312640
  0
VERTEX
  8
0
  6
CONTINUOUS
 10
2.263800
 20
2.312640
  0
VERTEX
  8
0
  6
CONTINUOUS
 10
2.263800
 20
3.021920
  0
VERTEX
  8
0
  6
CONTINUOUS
 10
2.825240
 20
3.021920
  0
VERTEX
  8
0
  6
CONTINUOUS
 10
2.830520
 20
3.016640
  0
VERTEX
  8
0
  6
CONTINUOUS
 10
2.835800
 20
2.964280
  0
VERTEX
  8
0
  6
CONTINUOUS
 10
2.850760
 20
2.915440
  0
VERTEX
  8
0
  6
CONTINUOUS
 10
2.874960
 20
2.871880
  0
VERTEX
  8
0
  6
CONTINUOUS
 10
2.906640
 20
2.834040
  0
VERTEX
  8
0
  6
CONTINUOUS
 10
2.944920
 20
2.802800
  0
VERTEX
  8
0
  6
CONTINUOUS
 10
2.989360
 20
2.779040
  0
VERTEX
  8
0
  6
CONTINUOUS
 10
3.038200
 20
2.764080
  0
VERTEX
  8
0
  6
CONTINUOUS
 10
3.090560
 20
2.759240
  0
VERTEX
  8
0
  6
CONTINUOUS
 10
3.143360
 20
2.764080
  0
VERTEX
  8
0
  6
CONTINUOUS
 10
3.193080
 20
2.779040
  0
VERTEX
  8
0
  6
CONTINUOUS
 10
3.238400
 20
2.802360
  0
VERTEX
  8
0
  6
CONTINUOUS
 10
3.278000
 20
2.833160
  0
VERTEX
  8
0
  6
CONTINUOUS
 10
3.311000
 20
2.871000
  0
VERTEX
  8
0
  6
CONTINUOUS
 10
3.335640
 20
2.914560
  0
VERTEX
  8
0
  6
CONTINUOUS
 10
3.351480
 20
2.962960
  0
VERTEX
  8
0
  6
CONTINUOUS
 10
3.357200
 20
3.015320
  0
VERTEX
  8
0
  6
CONTINUOUS
 10
3.361160
 20
3.021920
  0
VERTEX
  8
0
  6
CONTINUOUS
 10
3.579840
 20
3.021920
  0
VERTEX
  8
0
  6
CONTINUOUS
 10
3.586440
 20
3.017960
  0
VERTEX
  8
0
  6
CONTINUOUS
 10
3.591720
 20
2.965160
  0
VERTEX
  8
0
  6
CONTINUOUS
 10
3.607120
 20
2.916760
  0
VERTEX
  8
0
  6
CONTINUOUS
 10
3.630880
 20
2.873200
  0
VERTEX
  8
0
  6
CONTINUOUS
 10
3.662560
 20
2.834920
  0
VERTEX
  8
0
  6
CONTINUOUS
 10
3.701280
 20
2.804120
  0
VERTEX
  8
0
  6
CONTINUOUS
 10
3.745280
 20
2.780360
  0
VERTEX
  8
0
  6
CONTINUOUS
 10
3.794120
 20
2.765400
  0
VERTEX
  8
0
  6
CONTINUOUS
 10
3.846480
 20
2.760560
  0
VERTEX
  8
0
  6
CONTINUOUS
 10
3.899280
 20
2.765400
  0
VERTEX
  8
0
  6
CONTINUOUS
 10
3.949000
 20
2.780360
  0
VERTEX
  8
0
  6
CONTINUOUS
 10
3.994320
 20
2.803680
  0
VERTEX
  8
0
  6
CONTINUOUS
 10
4.033920
 20
2.834480
  0
VERTEX
  8
0
  6
CONTINUOUS
 10
4.066920
 20
2.872320
  0
VERTEX
  8
0
  6
CONTINUOUS
 10
4.092000
 20
2.915880
  0
VERTEX
  8
0
  6
CONTINUOUS
 10
4.107840
 20
2.964280
  0
VERTEX
  8
0
  6
CONTINUOUS
 10
4.113120
 20
3.016640
  0
VERTEX
  8
0
  6
CONTINUOUS
 10
4.117080
 20
3.021920
  0
VERTEX
  8
0
  6
CONTINUOUS
 10
4.335760
 20
3.021920
  0
VERTEX
  8
0
  6
CONTINUOUS
 10
4.344120
 20
3.017960
  0
VERTEX
  8
0
  6
CONTINUOUS
 10
4.349400
 20
2.965160
  0
VERTEX
  8
0
  6
CONTINUOUS
 10
4.364360
 20
2.916760
  0
VERTEX
  8
0
  6
CONTINUOUS
 10
4.388120
 20
2.873200
  0
VERTEX
  8
0
  6
CONTINUOUS
 10
4.419800
 20
2.834920
  0
VERTEX
  8
0
  6
CONTINUOUS
 10
4.458520
 20
2.804120
  0
VERTEX
  8
0
  6
CONTINUOUS
 10
4.502520
 20
2.780360
  0
VERTEX
  8
0
  6
CONTINUOUS
 10
4.551360
 20
2.765400
  0
VERTEX
  8
0
  6
CONTINUOUS
 10
4.603720
 20
2.760560
  0
VERTEX
  8
0
  6
CONTINUOUS
 10
4.656520
 20
2.765400
  0
VERTEX
  8
0
  6
CONTINUOUS
 10
4.706240
 20
2.780360
  0
VERTEX
  8
0
  6
CONTINUOUS
 10
4.751560
 20
2.803680
  0
VERTEX
  8
0
  6
CONTINUOUS
 10
4.791160
 20
2.834480
  0
VERTEX
  8
0
  6
CONTINUOUS
 10
4.824160
 20
2.872320
  0
VERTEX
  8
0
  6
CONTINUOUS
 10
4.849240
 20
2.915880
  0
VERTEX
  8
0
  6
CONTINUOUS
 10
4.865080
 20
2.964280
  0
VERTEX
  8
0
  6
CONTINUOUS
 10
4.870800
 20
3.016640
  0
VERTEX
  8
0
  6
CONTINUOUS
 10
5.078480
 20
3.016640
  0
VERTEX
  8
0
  6
CONTINUOUS
 10
5.089040
 20
3.017960
  0
SEQEND
  8
0
  0
TEXT
  8
0
 10
3.918200
 20
2.077240
 40
0.138011
  1
BA  103
 41
1.000000
  7
SN0
 71
     0
 72
     5
 11
4.507811
 21
2.077240
  0
TEXT
  8
0
 10
3.762000
 20
1.885840
 40
0.138011
  1
3/4" x 3-7/8"
 41
1.000000
  7
SN0
 71
     0
 72
     5
 11
4.661312
 21
1.885840
  0
ENDSEC
  0
EOF
