  0
SECTION
  2
HEADER
  9
$ACADVER
  1
AC1006
  9
$EXTMIN
 10
0.293480
 20
0.330880
  9
$EXTMAX
 10
8.138240
 20
9.683520
  9
$LTSCALE
 40
0.044000
  9
$PDMODE
 70
    35
  9
$PDSIZE
 40
0.035200
  0
ENDSEC
  0
SECTION
  2
TABLES
  0
TABLE
  2
LTYPE
 70
     9
  0
LTYPE
  2
CONTINUOUS
 70
    64
  3
Solid line
 72
    65
 73
     0
 40
0.000000
  0
LTYPE
  2
DASHED
 70
    64
  3
__ __ __ __ __ __ __ __ __ __ __ __ __ __ __
 72
    65
 73
     2
 40
0.000330
 49
0.000220
 49
-0.000110
  0
LTYPE
  2
HIDDEN
 70
    64
  3
 _ _ _ _ _ _ _ _ _ _ _ _ _ _ _ _ _ _ _ _ _ _
 72
    65
 73
     2
 40
0.000165
 49
0.000110
 49
-0.000055
  0
LTYPE
  2
CENTER
 70
    64
  3
____ _ ____ _ ____ _ ____ _ ____ _ ____ _ ____
 72
    65
 73
     4
 40
0.000880
 49
0.000550
 49
-0.000110
 49
0.000110
 49
-0.000110
  0
LTYPE
  2
PHANTOM
 70
    64
  3
_____ _ _ _____ _ _ _____ _ _ _____ _ _ ____
 72
    65
 73
     6
 40
0.001100
 49
0.000550
 49
-0.000110
 49
0.000110
 49
-0.000110
 49
0.000110
 49
-0.000110
  0
LTYPE
  2
DOT
 70
    64
  3
...............................................
 72
    65
 73
     2
 40
0.000110
 49
0.000000
 49
-0.000110
  0
LTYPE
  2
DASHDOT
 70
    64
  3
__ . __ . __ . __ . __ . __ . __ . __ . __ . __
 72
    65
 73
     4
 40
0.000440
 49
0.000220
 49
-0.000110
 49
0.000000
 49
-0.000110
  0
LTYPE
  2
BORDER
 70
    64
  3
__ __ . __ __ . __ __ . __ __ . __ __ . __ __
 72
    65
 73
     6
 40
0.000770
 49
0.000220
 49
-0.000110
 49
0.000220
 49
-0.000110
 49
0.000000
 49
-0.000110
  0
LTYPE
  2
DIVIDE
 70
    64
  3
__ . . __ . . __ . . __ . . __ . . __ . . __
 72
    65
 73
     6
 40
0.000550
 49
0.000220
 49
-0.000110
 49
0.000000
 49
-0.000110
 49
0.000000
 49
-0.000110
  0
LTYPE
  2
DOTDOT
 70
    64
  3
 . .  . .  . .  . .  . .  . . 
 72
    65
 73
     5
 40
0.000242
 49
-0.000110
 49
0.000000
 49
-0.000110
 49
0.000000
 49
-0.000110
  0
ENDTAB
  0
TABLE
  2
STYLE
 70
     2
  0
STYLE
 70
     0
  2
SN0
 40
0.000000
 41
0.000440
 50
0.000000
 71
     0
 42
0.000000
  3
ROMAND
  0
STYLE
 70
    68
  2
SV0
 40
0.000000
 41
0.000440
 50
0.000000
 71
     0
 42
0.000000
  3
ROMAND
  0
ENDTAB
  0
TABLE
  2
LAYER
 70
     3
  0
LAYER
  2
FOREGROUND
 70
    64
 62
     7
  6
CONTINUOUS
  0
LAYER
  2
BACKGROUND
 70
    65
 62
    -7
  6
CONTINUOUS
  0
LAYER
  2
0
 70
    64
 62
     7
  6
CONTINUOUS
  0
ENDTAB
  0
ENDSEC
  0
SECTION
  2
ENTITIES
  0
POLYLINE
  8
FOREGROUND
  6
CONTINUOUS
 66
     1
 40
0.000000
 41
0.000000
  0
VERTEX
  8
FOREGROUND
  6
CONTINUOUS
 10
0.000000
 20
10.014400
  0
VERTEX
  8
FOREGROUND
  6
CONTINUOUS
 10
8.499920
 20
10.014400
  0
VERTEX
  8
FOREGROUND
  6
CONTINUOUS
 10
8.499920
 20
-0.985600
  0
VERTEX
  8
FOREGROUND
  6
CONTINUOUS
 10
0.000000
 20
-0.985600
  0
VERTEX
  8
FOREGROUND
  6
CONTINUOUS
 10
0.000000
 20
10.014400
  0
SEQEND
  8
0
  0
POLYLINE
  8
FOREGROUND
  6
CONTINUOUS
 66
     1
 40
0.000000
 41
0.000000
  0
VERTEX
  8
FOREGROUND
  6
CONTINUOUS
 10
0.000000
 20
10.014400
  0
VERTEX
  8
FOREGROUND
  6
CONTINUOUS
 10
8.499920
 20
10.014400
  0
VERTEX
  8
FOREGROUND
  6
CONTINUOUS
 10
8.499920
 20
-0.985600
  0
VERTEX
  8
FOREGROUND
  6
CONTINUOUS
 10
0.000000
 20
-0.985600
  0
VERTEX
  8
FOREGROUND
  6
CONTINUOUS
 10
0.000000
 20
10.014400
  0
SEQEND
  8
0
  0
POLYLINE
  8
0
  6
CONTINUOUS
 66
     1
 40
0.014080
 41
0.014080
  0
VERTEX
  8
0
  6
CONTINUOUS
 10
7.104680
 20
1.239920
  0
VERTEX
  8
0
  6
CONTINUOUS
 10
7.062880
 20
1.354760
  0
VERTEX
  8
0
  6
CONTINUOUS
 10
7.046600
 20
1.406240
  0
VERTEX
  8
0
  6
CONTINUOUS
 10
7.032520
 20
1.463880
  0
VERTEX
  8
0
  6
CONTINUOUS
 10
7.021080
 20
1.527680
  0
VERTEX
  8
0
  6
CONTINUOUS
 10
7.014920
 20
1.597200
  0
VERTEX
  8
0
  6
CONTINUOUS
 10
7.014040
 20
1.634160
  0
VERTEX
  8
0
  6
CONTINUOUS
 10
7.016240
 20
1.691800
  0
VERTEX
  8
0
  6
CONTINUOUS
 10
7.022840
 20
1.752520
  0
VERTEX
  8
0
  6
CONTINUOUS
 10
7.035160
 20
1.815880
  0
VERTEX
  8
0
  6
CONTINUOUS
 10
7.053640
 20
1.881880
  0
VERTEX
  8
0
  6
CONTINUOUS
 10
7.078720
 20
1.950520
  0
VERTEX
  8
0
  6
CONTINUOUS
 10
7.110840
 20
2.021800
  0
VERTEX
  8
0
  6
CONTINUOUS
 10
7.151320
 20
2.094840
  0
VERTEX
  8
0
  6
CONTINUOUS
 10
7.200600
 20
2.170520
  0
VERTEX
  8
0
  6
CONTINUOUS
 10
7.259560
 20
2.248400
  0
VERTEX
  8
0
  6
CONTINUOUS
 10
7.328200
 20
2.328040
  0
VERTEX
  8
0
  6
CONTINUOUS
 10
7.407400
 20
2.409440
  0
VERTEX
  8
0
  6
CONTINUOUS
 10
7.492760
 20
2.492600
  0
VERTEX
  8
0
  6
CONTINUOUS
 10
7.543360
 20
2.548920
  0
VERTEX
  8
0
  6
CONTINUOUS
 10
7.588680
 20
2.605240
  0
VERTEX
  8
0
  6
CONTINUOUS
 10
7.628720
 20
2.662440
  0
VERTEX
  8
0
  6
CONTINUOUS
 10
7.663920
 20
2.719640
  0
VERTEX
  8
0
  6
CONTINUOUS
 10
7.694280
 20
2.776840
  0
VERTEX
  8
0
  6
CONTINUOUS
 10
7.720240
 20
2.834040
  0
VERTEX
  8
0
  6
CONTINUOUS
 10
7.741800
 20
2.891240
  0
VERTEX
  8
0
  6
CONTINUOUS
 10
7.758960
 20
2.948440
  0
VERTEX
  8
0
  6
CONTINUOUS
 10
7.772160
 20
3.005640
  0
VERTEX
  8
0
  6
CONTINUOUS
 10
7.781840
 20
3.061960
  0
VERTEX
  8
0
  6
CONTINUOUS
 10
7.788000
 20
3.118280
  0
VERTEX
  8
0
  6
CONTINUOUS
 10
7.790640
 20
3.173720
  0
VERTEX
  8
0
  6
CONTINUOUS
 10
7.789760
 20
3.228720
  0
VERTEX
  8
0
  6
CONTINUOUS
 10
7.786240
 20
3.282840
  0
VERTEX
  8
0
  6
CONTINUOUS
 10
7.780080
 20
3.336080
  0
VERTEX
  8
0
  6
CONTINUOUS
 10
7.766000
 20
3.413960
  0
VERTEX
  8
0
  6
CONTINUOUS
 10
7.746640
 20
3.489640
  0
VERTEX
  8
0
  6
CONTINUOUS
 10
7.731240
 20
3.538480
  0
VERTEX
  8
0
  6
CONTINUOUS
 10
7.714080
 20
3.586000
  0
VERTEX
  8
0
  6
CONTINUOUS
 10
7.675360
 20
3.676200
  0
VERTEX
  8
0
  6
CONTINUOUS
 10
7.631800
 20
3.760240
  0
VERTEX
  8
0
  6
CONTINUOUS
 10
7.608920
 20
3.799400
  0
VERTEX
  8
0
  6
CONTINUOUS
 10
7.561400
 20
3.871560
  0
VERTEX
  8
0
  6
CONTINUOUS
 10
7.513000
 20
3.934920
  0
VERTEX
  8
0
  6
CONTINUOUS
 10
7.465920
 20
3.989040
  0
VERTEX
  8
0
  6
CONTINUOUS
 10
7.464600
 20
3.989040
  0
VERTEX
  8
0
  6
CONTINUOUS
 10
7.554360
 20
4.049760
  0
VERTEX
  8
0
  6
CONTINUOUS
 10
7.635760
 20
4.109160
  0
VERTEX
  8
0
  6
CONTINUOUS
 10
7.708800
 20
4.167680
  0
VERTEX
  8
0
  6
CONTINUOUS
 10
7.774360
 20
4.225320
  0
VERTEX
  8
0
  6
CONTINUOUS
 10
7.832000
 20
4.281640
  0
VERTEX
  8
0
  6
CONTINUOUS
 10
7.882160
 20
4.337520
  0
VERTEX
  8
0
  6
CONTINUOUS
 10
7.925280
 20
4.392080
  0
VERTEX
  8
0
  6
CONTINUOUS
 10
7.961800
 20
4.446200
  0
VERTEX
  8
0
  6
CONTINUOUS
 10
7.991720
 20
4.499000
  0
VERTEX
  8
0
  6
CONTINUOUS
 10
8.015480
 20
4.551360
  0
VERTEX
  8
0
  6
CONTINUOUS
 10
8.033080
 20
4.603280
  0
VERTEX
  8
0
  6
CONTINUOUS
 10
8.040120
 20
4.628800
  0
VERTEX
  8
0
  6
CONTINUOUS
 10
8.049360
 20
4.679840
  0
VERTEX
  8
0
  6
CONTINUOUS
 10
8.053320
 20
4.730000
  0
VERTEX
  8
0
  6
CONTINUOUS
 10
8.053320
 20
4.755080
  0
VERTEX
  8
0
  6
CONTINUOUS
 10
8.049800
 20
4.804360
  0
VERTEX
  8
0
  6
CONTINUOUS
 10
8.041880
 20
4.853640
  0
VERTEX
  8
0
  6
CONTINUOUS
 10
8.029560
 20
4.902480
  0
VERTEX
  8
0
  6
CONTINUOUS
 10
8.013280
 20
4.950880
  0
VERTEX
  8
0
  6
CONTINUOUS
 10
7.981600
 20
5.023040
  0
VERTEX
  8
0
  6
CONTINUOUS
 10
7.956520
 20
5.071000
  0
VERTEX
  8
0
  6
CONTINUOUS
 10
7.912520
 20
5.142280
  0
VERTEX
  8
0
  6
CONTINUOUS
 10
7.880400
 20
5.189800
  0
VERTEX
  8
0
  6
CONTINUOUS
 10
7.808680
 20
5.284840
  0
VERTEX
  8
0
  6
CONTINUOUS
 10
7.729480
 20
5.380320
  0
VERTEX
  8
0
  6
CONTINUOUS
 10
7.513880
 20
5.622320
  0
VERTEX
  8
0
  6
CONTINUOUS
 10
7.377040
 20
5.789080
  0
VERTEX
  8
0
  6
CONTINUOUS
 10
7.283320
 20
5.912280
  0
VERTEX
  8
0
  6
CONTINUOUS
 10
7.220400
 20
6.003360
  0
VERTEX
  8
0
  6
CONTINUOUS
 10
7.179920
 20
6.070680
  0
VERTEX
  8
0
  6
CONTINUOUS
 10
7.148680
 20
6.134040
  0
VERTEX
  8
0
  6
CONTINUOUS
 10
7.135920
 20
6.164400
  0
VERTEX
  8
0
  6
CONTINUOUS
 10
7.125360
 20
6.194320
  0
VERTEX
  8
0
  6
CONTINUOUS
 10
7.117000
 20
6.223360
  0
VERTEX
  8
0
  6
CONTINUOUS
 10
7.110400
 20
6.252400
  0
VERTEX
  8
0
  6
CONTINUOUS
 10
7.106000
 20
6.281000
  0
VERTEX
  8
0
  6
CONTINUOUS
 10
7.103360
 20
6.309600
  0
VERTEX
  8
0
  6
CONTINUOUS
 10
7.102920
 20
6.338200
  0
VERTEX
  8
0
  6
CONTINUOUS
 10
7.104240
 20
6.366800
  0
VERTEX
  8
0
  6
CONTINUOUS
 10
7.107760
 20
6.395840
  0
VERTEX
  8
0
  6
CONTINUOUS
 10
7.113040
 20
6.425320
  0
VERTEX
  8
0
  6
CONTINUOUS
 10
7.128880
 20
6.486040
  0
VERTEX
  8
0
  6
CONTINUOUS
 10
7.151760
 20
6.549840
  0
VERTEX
  8
0
  6
CONTINUOUS
 10
7.181680
 20
6.618040
  0
VERTEX
  8
0
  6
CONTINUOUS
 10
7.269240
 20
6.790080
  0
VERTEX
  8
0
  6
CONTINUOUS
 10
7.300480
 20
6.866640
  0
VERTEX
  8
0
  6
CONTINUOUS
 10
7.317640
 20
6.921640
  0
VERTEX
  8
0
  6
CONTINUOUS
 10
7.326440
 20
6.957280
  0
VERTEX
  8
0
  6
CONTINUOUS
 10
7.333040
 20
6.992040
  0
VERTEX
  8
0
  6
CONTINUOUS
 10
7.337880
 20
7.025920
  0
VERTEX
  8
0
  6
CONTINUOUS
 10
7.340960
 20
7.058920
  0
VERTEX
  8
0
  6
CONTINUOUS
 10
7.341400
 20
7.122280
  0
VERTEX
  8
0
  6
CONTINUOUS
 10
7.339640
 20
7.152640
  0
VERTEX
  8
0
  6
CONTINUOUS
 10
7.331720
 20
7.210280
  0
VERTEX
  8
0
  6
CONTINUOUS
 10
7.318960
 20
7.264400
  0
VERTEX
  8
0
  6
CONTINUOUS
 10
7.292560
 20
7.338760
  0
VERTEX
  8
0
  6
CONTINUOUS
 10
7.271440
 20
7.383640
  0
VERTEX
  8
0
  6
CONTINUOUS
 10
7.236680
 20
7.443480
  0
VERTEX
  8
0
  6
CONTINUOUS
 10
7.201040
 20
7.495400
  0
VERTEX
  8
0
  6
CONTINUOUS
 10
7.147360
 20
7.562280
  0
VERTEX
  8
0
  6
CONTINUOUS
 10
7.069480
 20
7.657320
  0
VERTEX
  8
0
  6
CONTINUOUS
 10
7.039120
 20
7.701760
  0
VERTEX
  8
0
  6
CONTINUOUS
 10
7.015800
 20
7.745760
  0
VERTEX
  8
0
  6
CONTINUOUS
 10
7.004800
 20
7.775680
  0
VERTEX
  8
0
  6
CONTINUOUS
 10
6.997320
 20
7.806480
  0
VERTEX
  8
0
  6
CONTINUOUS
 10
6.994680
 20
7.838160
  0
VERTEX
  8
0
  6
CONTINUOUS
 10
6.996000
 20
7.871600
  0
VERTEX
  8
0
  6
CONTINUOUS
 10
7.002600
 20
7.906800
  0
VERTEX
  8
0
  6
CONTINUOUS
 10
7.014040
 20
7.944640
  0
VERTEX
  8
0
  6
CONTINUOUS
 10
7.031200
 20
7.985120
  0
VERTEX
  8
0
  6
CONTINUOUS
 10
7.067280
 20
8.051560
  0
VERTEX
  8
0
  6
CONTINUOUS
 10
7.117880
 20
8.126360
  0
VERTEX
  8
0
  6
CONTINUOUS
 10
7.119200
 20
8.126360
  0
VERTEX
  8
0
  6
CONTINUOUS
 10
6.819120
 20
8.518400
  0
VERTEX
  8
0
  6
CONTINUOUS
 10
6.284520
 20
8.145280
  0
VERTEX
  8
0
  6
CONTINUOUS
 10
6.284520
 20
0.899800
  0
VERTEX
  8
0
  6
CONTINUOUS
 10
6.287160
 20
0.901120
  0
VERTEX
  8
0
  6
CONTINUOUS
 10
6.788320
 20
0.337040
  0
VERTEX
  8
0
  6
CONTINUOUS
 10
6.795360
 20
0.337040
  0
VERTEX
  8
0
  6
CONTINUOUS
 10
6.950240
 20
0.443520
  0
VERTEX
  8
0
  6
CONTINUOUS
 10
7.054960
 20
0.520520
  0
VERTEX
  8
0
  6
CONTINUOUS
 10
7.139880
 20
0.588280
  0
VERTEX
  8
0
  6
CONTINUOUS
 10
7.205440
 20
0.648560
  0
VERTEX
  8
0
  6
CONTINUOUS
 10
7.245480
 20
0.692560
  0
VERTEX
  8
0
  6
CONTINUOUS
 10
7.274960
 20
0.733040
  0
VERTEX
  8
0
  6
CONTINUOUS
 10
7.290800
 20
0.761640
  0
VERTEX
  8
0
  6
CONTINUOUS
 10
7.298280
 20
0.780120
  0
VERTEX
  8
0
  6
CONTINUOUS
 10
7.303560
 20
0.798160
  0
VERTEX
  8
0
  6
CONTINUOUS
 10
7.307080
 20
0.816200
  0
VERTEX
  8
0
  6
CONTINUOUS
 10
7.308400
 20
0.833800
  0
VERTEX
  8
0
  6
CONTINUOUS
 10
7.307520
 20
0.851400
  0
VERTEX
  8
0
  6
CONTINUOUS
 10
7.300920
 20
0.886600
  0
VERTEX
  8
0
  6
CONTINUOUS
 10
7.287280
 20
0.922240
  0
VERTEX
  8
0
  6
CONTINUOUS
 10
7.268360
 20
0.959200
  0
VERTEX
  8
0
  6
CONTINUOUS
 10
7.230080
 20
1.019040
  0
VERTEX
  8
0
  6
CONTINUOUS
 10
7.170680
 20
1.103080
  0
VERTEX
  8
0
  6
CONTINUOUS
 10
7.150000
 20
1.138720
  0
VERTEX
  8
0
  6
CONTINUOUS
 10
7.122720
 20
1.199440
  0
VERTEX
  8
0
  6
CONTINUOUS
 10
7.112600
 20
1.224960
  0
VERTEX
  8
0
  6
CONTINUOUS
 10
7.104680
 20
1.239920
  0
SEQEND
  8
0
  0
SOLID
  8
0
 62
    15
 10
3.279760
 20
4.285600
 11
3.938440
 21
3.930520
 12
3.071200
 22
4.296160
 13
3.729440
 23
3.940640
  0
POLYLINE
  8
0
  6
CONTINUOUS
 66
     1
 40
0.000000
 41
0.000000
  0
VERTEX
  8
0
  6
CONTINUOUS
 10
3.279760
 20
4.285600
  0
VERTEX
  8
0
  6
CONTINUOUS
 10
3.938440
 20
3.930520
  0
VERTEX
  8
0
  6
CONTINUOUS
 10
3.729440
 20
3.940640
  0
VERTEX
  8
0
  6
CONTINUOUS
 10
3.071200
 20
4.296160
  0
VERTEX
  8
0
  6
CONTINUOUS
 10
3.279760
 20
4.285600
  0
SEQEND
  8
0
  0
SOLID
  8
0
 62
    15
 10
5.338960
 20
7.773480
 11
5.997200
 21
7.418400
 12
5.228520
 22
7.735640
 13
5.886760
 23
7.380560
  0
POLYLINE
  8
0
  6
CONTINUOUS
 66
     1
 40
0.000000
 41
0.000000
  0
VERTEX
  8
0
  6
CONTINUOUS
 10
5.338960
 20
7.773480
  0
VERTEX
  8
0
  6
CONTINUOUS
 10
5.997200
 20
7.418400
  0
VERTEX
  8
0
  6
CONTINUOUS
 10
5.886760
 20
7.380560
  0
VERTEX
  8
0
  6
CONTINUOUS
 10
5.228520
 20
7.735640
  0
VERTEX
  8
0
  6
CONTINUOUS
 10
5.338960
 20
7.773480
  0
SEQEND
  8
0
  0
SOLID
  8
0
 62
    15
 10
5.228520
 20
7.735640
 11
5.886760
 21
7.380560
 12
5.145360
 22
7.693840
 13
5.803600
 23
7.338320
  0
POLYLINE
  8
0
  6
CONTINUOUS
 66
     1
 40
0.000000
 41
0.000000
  0
VERTEX
  8
0
  6
CONTINUOUS
 10
5.228520
 20
7.735640
  0
VERTEX
  8
0
  6
CONTINUOUS
 10
5.886760
 20
7.380560
  0
VERTEX
  8
0
  6
CONTINUOUS
 10
5.803600
 20
7.338320
  0
VERTEX
  8
0
  6
CONTINUOUS
 10
5.145360
 20
7.693840
  0
VERTEX
  8
0
  6
CONTINUOUS
 10
5.228520
 20
7.735640
  0
SEQEND
  8
0
  0
SOLID
  8
0
 62
    15
 10
5.145360
 20
7.693840
 11
5.803600
 21
7.338320
 12
5.047680
 22
7.594840
 13
5.705920
 23
7.239760
  0
POLYLINE
  8
0
  6
CONTINUOUS
 66
     1
 40
0.000000
 41
0.000000
  0
VERTEX
  8
0
  6
CONTINUOUS
 10
5.145360
 20
7.693840
  0
VERTEX
  8
0
  6
CONTINUOUS
 10
5.803600
 20
7.338320
  0
VERTEX
  8
0
  6
CONTINUOUS
 10
5.705920
 20
7.239760
  0
VERTEX
  8
0
  6
CONTINUOUS
 10
5.047680
 20
7.594840
  0
VERTEX
  8
0
  6
CONTINUOUS
 10
5.145360
 20
7.693840
  0
SEQEND
  8
0
  0
SOLID
  8
0
 62
    15
 10
5.047680
 20
7.594840
 11
5.705920
 21
7.239760
 12
5.014680
 22
7.469880
 13
5.672920
 23
7.114360
  0
POLYLINE
  8
0
  6
CONTINUOUS
 66
     1
 40
0.000000
 41
0.000000
  0
VERTEX
  8
0
  6
CONTINUOUS
 10
5.047680
 20
7.594840
  0
VERTEX
  8
0
  6
CONTINUOUS
 10
5.705920
 20
7.239760
  0
VERTEX
  8
0
  6
CONTINUOUS
 10
5.672920
 20
7.114360
  0
VERTEX
  8
0
  6
CONTINUOUS
 10
5.014680
 20
7.469880
  0
VERTEX
  8
0
  6
CONTINUOUS
 10
5.047680
 20
7.594840
  0
SEQEND
  8
0
  0
SOLID
  8
0
 62
    15
 10
5.014680
 20
7.469880
 11
5.672920
 21
7.114360
 12
5.015560
 22
7.310600
 13
5.674240
 23
6.955080
  0
POLYLINE
  8
0
  6
CONTINUOUS
 66
     1
 40
0.000000
 41
0.000000
  0
VERTEX
  8
0
  6
CONTINUOUS
 10
5.014680
 20
7.469880
  0
VERTEX
  8
0
  6
CONTINUOUS
 10
5.672920
 20
7.114360
  0
VERTEX
  8
0
  6
CONTINUOUS
 10
5.674240
 20
6.955080
  0
VERTEX
  8
0
  6
CONTINUOUS
 10
5.015560
 20
7.310600
  0
VERTEX
  8
0
  6
CONTINUOUS
 10
5.014680
 20
7.469880
  0
SEQEND
  8
0
  0
SOLID
  8
0
 62
    15
 10
5.015560
 20
7.310600
 11
5.674240
 21
6.955080
 12
5.013360
 22
7.161880
 13
5.671600
 23
6.806360
  0
POLYLINE
  8
0
  6
CONTINUOUS
 66
     1
 40
0.000000
 41
0.000000
  0
VERTEX
  8
0
  6
CONTINUOUS
 10
5.015560
 20
7.310600
  0
VERTEX
  8
0
  6
CONTINUOUS
 10
5.674240
 20
6.955080
  0
VERTEX
  8
0
  6
CONTINUOUS
 10
5.671600
 20
6.806360
  0
VERTEX
  8
0
  6
CONTINUOUS
 10
5.013360
 20
7.161880
  0
VERTEX
  8
0
  6
CONTINUOUS
 10
5.015560
 20
7.310600
  0
SEQEND
  8
0
  0
SOLID
  8
0
 62
    15
 10
5.013360
 20
7.161880
 11
5.671600
 21
6.806360
 12
4.968040
 22
6.970040
 13
5.626280
 23
6.614960
  0
POLYLINE
  8
0
  6
CONTINUOUS
 66
     1
 40
0.000000
 41
0.000000
  0
VERTEX
  8
0
  6
CONTINUOUS
 10
5.013360
 20
7.161880
  0
VERTEX
  8
0
  6
CONTINUOUS
 10
5.671600
 20
6.806360
  0
VERTEX
  8
0
  6
CONTINUOUS
 10
5.626280
 20
6.614960
  0
VERTEX
  8
0
  6
CONTINUOUS
 10
4.968040
 20
6.970040
  0
VERTEX
  8
0
  6
CONTINUOUS
 10
5.013360
 20
7.161880
  0
SEQEND
  8
0
  0
SOLID
  8
0
 62
    15
 10
4.968040
 20
6.970040
 11
5.626280
 21
6.614960
 12
4.915680
 22
6.868840
 13
5.573920
 23
6.513760
  0
POLYLINE
  8
0
  6
CONTINUOUS
 66
     1
 40
0.000000
 41
0.000000
  0
VERTEX
  8
0
  6
CONTINUOUS
 10
4.968040
 20
6.970040
  0
VERTEX
  8
0
  6
CONTINUOUS
 10
5.626280
 20
6.614960
  0
VERTEX
  8
0
  6
CONTINUOUS
 10
5.573920
 20
6.513760
  0
VERTEX
  8
0
  6
CONTINUOUS
 10
4.915680
 20
6.868840
  0
VERTEX
  8
0
  6
CONTINUOUS
 10
4.968040
 20
6.970040
  0
SEQEND
  8
0
  0
SOLID
  8
0
 62
    15
 10
4.915680
 20
6.868840
 11
5.573920
 21
6.513760
 12
4.836920
 22
6.770280
 13
5.495160
 23
6.414760
  0
POLYLINE
  8
0
  6
CONTINUOUS
 66
     1
 40
0.000000
 41
0.000000
  0
VERTEX
  8
0
  6
CONTINUOUS
 10
4.915680
 20
6.868840
  0
VERTEX
  8
0
  6
CONTINUOUS
 10
5.573920
 20
6.513760
  0
VERTEX
  8
0
  6
CONTINUOUS
 10
5.495160
 20
6.414760
  0
VERTEX
  8
0
  6
CONTINUOUS
 10
4.836920
 20
6.770280
  0
VERTEX
  8
0
  6
CONTINUOUS
 10
4.915680
 20
6.868840
  0
SEQEND
  8
0
  0
SOLID
  8
0
 62
    15
 10
4.836920
 20
6.770280
 11
5.495160
 21
6.414760
 12
4.725600
 22
6.678320
 13
5.383840
 23
6.323240
  0
POLYLINE
  8
0
  6
CONTINUOUS
 66
     1
 40
0.000000
 41
0.000000
  0
VERTEX
  8
0
  6
CONTINUOUS
 10
4.836920
 20
6.770280
  0
VERTEX
  8
0
  6
CONTINUOUS
 10
5.495160
 20
6.414760
  0
VERTEX
  8
0
  6
CONTINUOUS
 10
5.383840
 20
6.323240
  0
VERTEX
  8
0
  6
CONTINUOUS
 10
4.725600
 20
6.678320
  0
VERTEX
  8
0
  6
CONTINUOUS
 10
4.836920
 20
6.770280
  0
SEQEND
  8
0
  0
SOLID
  8
0
 62
    15
 10
4.725600
 20
6.678320
 11
5.383840
 21
6.323240
 12
4.577320
 22
6.597360
 13
5.235560
 23
6.242280
  0
POLYLINE
  8
0
  6
CONTINUOUS
 66
     1
 40
0.000000
 41
0.000000
  0
VERTEX
  8
0
  6
CONTINUOUS
 10
4.725600
 20
6.678320
  0
VERTEX
  8
0
  6
CONTINUOUS
 10
5.383840
 20
6.323240
  0
VERTEX
  8
0
  6
CONTINUOUS
 10
5.235560
 20
6.242280
  0
VERTEX
  8
0
  6
CONTINUOUS
 10
4.577320
 20
6.597360
  0
VERTEX
  8
0
  6
CONTINUOUS
 10
4.725600
 20
6.678320
  0
SEQEND
  8
0
  0
SOLID
  8
0
 62
    15
 10
4.577320
 20
6.597360
 11
5.235560
 21
6.242280
 12
4.429040
 22
6.526520
 13
5.087280
 23
6.171000
  0
POLYLINE
  8
0
  6
CONTINUOUS
 66
     1
 40
0.000000
 41
0.000000
  0
VERTEX
  8
0
  6
CONTINUOUS
 10
4.577320
 20
6.597360
  0
VERTEX
  8
0
  6
CONTINUOUS
 10
5.235560
 20
6.242280
  0
VERTEX
  8
0
  6
CONTINUOUS
 10
5.087280
 20
6.171000
  0
VERTEX
  8
0
  6
CONTINUOUS
 10
4.429040
 20
6.526520
  0
VERTEX
  8
0
  6
CONTINUOUS
 10
4.577320
 20
6.597360
  0
SEQEND
  8
0
  0
SOLID
  8
0
 62
    15
 10
4.429040
 20
6.526520
 11
5.087280
 21
6.171000
 12
4.314200
 22
6.453920
 13
4.972440
 23
6.098400
  0
POLYLINE
  8
0
  6
CONTINUOUS
 66
     1
 40
0.000000
 41
0.000000
  0
VERTEX
  8
0
  6
CONTINUOUS
 10
4.429040
 20
6.526520
  0
VERTEX
  8
0
  6
CONTINUOUS
 10
5.087280
 20
6.171000
  0
VERTEX
  8
0
  6
CONTINUOUS
 10
4.972440
 20
6.098400
  0
VERTEX
  8
0
  6
CONTINUOUS
 10
4.314200
 20
6.453920
  0
VERTEX
  8
0
  6
CONTINUOUS
 10
4.429040
 20
6.526520
  0
SEQEND
  8
0
  0
SOLID
  8
0
 62
    15
 10
4.314200
 20
6.453920
 11
4.972440
 21
6.098400
 12
4.228840
 22
6.371640
 13
4.887080
 23
6.016120
  0
POLYLINE
  8
0
  6
CONTINUOUS
 66
     1
 40
0.000000
 41
0.000000
  0
VERTEX
  8
0
  6
CONTINUOUS
 10
4.314200
 20
6.453920
  0
VERTEX
  8
0
  6
CONTINUOUS
 10
4.972440
 20
6.098400
  0
VERTEX
  8
0
  6
CONTINUOUS
 10
4.887080
 20
6.016120
  0
VERTEX
  8
0
  6
CONTINUOUS
 10
4.228840
 20
6.371640
  0
VERTEX
  8
0
  6
CONTINUOUS
 10
4.314200
 20
6.453920
  0
SEQEND
  8
0
  0
SOLID
  8
0
 62
    15
 10
4.228840
 20
6.371640
 11
4.887080
 21
6.016120
 12
4.169440
 22
6.272640
 13
4.827680
 23
5.917120
  0
POLYLINE
  8
0
  6
CONTINUOUS
 66
     1
 40
0.000000
 41
0.000000
  0
VERTEX
  8
0
  6
CONTINUOUS
 10
4.228840
 20
6.371640
  0
VERTEX
  8
0
  6
CONTINUOUS
 10
4.887080
 20
6.016120
  0
VERTEX
  8
0
  6
CONTINUOUS
 10
4.827680
 20
5.917120
  0
VERTEX
  8
0
  6
CONTINUOUS
 10
4.169440
 20
6.272640
  0
VERTEX
  8
0
  6
CONTINUOUS
 10
4.228840
 20
6.371640
  0
SEQEND
  8
0
  0
SOLID
  8
0
 62
    15
 10
4.169440
 20
6.272640
 11
4.827680
 21
5.917120
 12
4.132040
 22
6.149000
 13
4.790280
 23
5.793480
  0
POLYLINE
  8
0
  6
CONTINUOUS
 66
     1
 40
0.000000
 41
0.000000
  0
VERTEX
  8
0
  6
CONTINUOUS
 10
4.169440
 20
6.272640
  0
VERTEX
  8
0
  6
CONTINUOUS
 10
4.827680
 20
5.917120
  0
VERTEX
  8
0
  6
CONTINUOUS
 10
4.790280
 20
5.793480
  0
VERTEX
  8
0
  6
CONTINUOUS
 10
4.132040
 20
6.149000
  0
VERTEX
  8
0
  6
CONTINUOUS
 10
4.169440
 20
6.272640
  0
SEQEND
  8
0
  0
SOLID
  8
0
 62
    15
 10
4.132040
 20
6.149000
 11
4.790280
 21
5.793480
 12
4.112680
 22
5.993240
 13
4.770920
 23
5.637720
  0
POLYLINE
  8
0
  6
CONTINUOUS
 66
     1
 40
0.000000
 41
0.000000
  0
VERTEX
  8
0
  6
CONTINUOUS
 10
4.132040
 20
6.149000
  0
VERTEX
  8
0
  6
CONTINUOUS
 10
4.790280
 20
5.793480
  0
VERTEX
  8
0
  6
CONTINUOUS
 10
4.770920
 20
5.637720
  0
VERTEX
  8
0
  6
CONTINUOUS
 10
4.112680
 20
5.993240
  0
VERTEX
  8
0
  6
CONTINUOUS
 10
4.132040
 20
6.149000
  0
SEQEND
  8
0
  0
SOLID
  8
0
 62
    15
 10
4.112680
 20
5.993240
 11
4.770920
 21
5.637720
 12
4.107840
 22
5.797440
 13
4.766080
 23
5.442360
  0
POLYLINE
  8
0
  6
CONTINUOUS
 66
     1
 40
0.000000
 41
0.000000
  0
VERTEX
  8
0
  6
CONTINUOUS
 10
4.112680
 20
5.993240
  0
VERTEX
  8
0
  6
CONTINUOUS
 10
4.770920
 20
5.637720
  0
VERTEX
  8
0
  6
CONTINUOUS
 10
4.766080
 20
5.442360
  0
VERTEX
  8
0
  6
CONTINUOUS
 10
4.107840
 20
5.797440
  0
VERTEX
  8
0
  6
CONTINUOUS
 10
4.112680
 20
5.993240
  0
SEQEND
  8
0
  0
SOLID
  8
0
 62
    15
 10
4.107840
 20
5.797440
 11
4.766080
 21
5.442360
 12
4.113560
 22
5.554560
 13
4.771800
 23
5.199040
  0
POLYLINE
  8
0
  6
CONTINUOUS
 66
     1
 40
0.000000
 41
0.000000
  0
VERTEX
  8
0
  6
CONTINUOUS
 10
4.107840
 20
5.797440
  0
VERTEX
  8
0
  6
CONTINUOUS
 10
4.766080
 20
5.442360
  0
VERTEX
  8
0
  6
CONTINUOUS
 10
4.771800
 20
5.199040
  0
VERTEX
  8
0
  6
CONTINUOUS
 10
4.113560
 20
5.554560
  0
VERTEX
  8
0
  6
CONTINUOUS
 10
4.107840
 20
5.797440
  0
SEQEND
  8
0
  0
SOLID
  8
0
 62
    15
 10
4.113560
 20
5.554560
 11
4.771800
 21
5.199040
 12
4.138640
 22
5.047240
 13
4.796880
 23
4.691720
  0
POLYLINE
  8
0
  6
CONTINUOUS
 66
     1
 40
0.000000
 41
0.000000
  0
VERTEX
  8
0
  6
CONTINUOUS
 10
4.113560
 20
5.554560
  0
VERTEX
  8
0
  6
CONTINUOUS
 10
4.771800
 20
5.199040
  0
VERTEX
  8
0
  6
CONTINUOUS
 10
4.796880
 20
4.691720
  0
VERTEX
  8
0
  6
CONTINUOUS
 10
4.138640
 20
5.047240
  0
VERTEX
  8
0
  6
CONTINUOUS
 10
4.113560
 20
5.554560
  0
SEQEND
  8
0
  0
SOLID
  8
0
 62
    15
 10
4.138640
 20
5.047240
 11
4.796880
 21
4.691720
 12
4.119280
 22
4.820640
 13
4.777520
 23
4.465560
  0
POLYLINE
  8
0
  6
CONTINUOUS
 66
     1
 40
0.000000
 41
0.000000
  0
VERTEX
  8
0
  6
CONTINUOUS
 10
4.138640
 20
5.047240
  0
VERTEX
  8
0
  6
CONTINUOUS
 10
4.796880
 20
4.691720
  0
VERTEX
  8
0
  6
CONTINUOUS
 10
4.777520
 20
4.465560
  0
VERTEX
  8
0
  6
CONTINUOUS
 10
4.119280
 20
4.820640
  0
VERTEX
  8
0
  6
CONTINUOUS
 10
4.138640
 20
5.047240
  0
SEQEND
  8
0
  0
SOLID
  8
0
 62
    15
 10
4.119280
 20
4.820640
 11
4.777520
 21
4.465560
 12
4.057680
 22
4.623520
 13
4.715920
 23
4.268440
  0
POLYLINE
  8
0
  6
CONTINUOUS
 66
     1
 40
0.000000
 41
0.000000
  0
VERTEX
  8
0
  6
CONTINUOUS
 10
4.119280
 20
4.820640
  0
VERTEX
  8
0
  6
CONTINUOUS
 10
4.777520
 20
4.465560
  0
VERTEX
  8
0
  6
CONTINUOUS
 10
4.715920
 20
4.268440
  0
VERTEX
  8
0
  6
CONTINUOUS
 10
4.057680
 20
4.623520
  0
VERTEX
  8
0
  6
CONTINUOUS
 10
4.119280
 20
4.820640
  0
SEQEND
  8
0
  0
SOLID
  8
0
 62
    15
 10
4.057680
 20
4.623520
 11
4.715920
 21
4.268440
 12
3.938000
 22
4.464240
 13
4.596240
 23
4.109160
  0
POLYLINE
  8
0
  6
CONTINUOUS
 66
     1
 40
0.000000
 41
0.000000
  0
VERTEX
  8
0
  6
CONTINUOUS
 10
4.057680
 20
4.623520
  0
VERTEX
  8
0
  6
CONTINUOUS
 10
4.715920
 20
4.268440
  0
VERTEX
  8
0
  6
CONTINUOUS
 10
4.596240
 20
4.109160
  0
VERTEX
  8
0
  6
CONTINUOUS
 10
3.938000
 20
4.464240
  0
VERTEX
  8
0
  6
CONTINUOUS
 10
4.057680
 20
4.623520
  0
SEQEND
  8
0
  0
SOLID
  8
0
 62
    15
 10
3.938000
 20
4.464240
 11
4.596240
 21
4.109160
 12
3.851320
 22
4.401320
 13
4.509560
 23
4.046240
  0
POLYLINE
  8
0
  6
CONTINUOUS
 66
     1
 40
0.000000
 41
0.000000
  0
VERTEX
  8
0
  6
CONTINUOUS
 10
3.938000
 20
4.464240
  0
VERTEX
  8
0
  6
CONTINUOUS
 10
4.596240
 20
4.109160
  0
VERTEX
  8
0
  6
CONTINUOUS
 10
4.509560
 20
4.046240
  0
VERTEX
  8
0
  6
CONTINUOUS
 10
3.851320
 20
4.401320
  0
VERTEX
  8
0
  6
CONTINUOUS
 10
3.938000
 20
4.464240
  0
SEQEND
  8
0
  0
SOLID
  8
0
 62
    15
 10
3.851320
 20
4.401320
 11
4.509560
 21
4.046240
 12
3.743960
 22
4.351160
 13
4.402640
 23
3.995640
  0
POLYLINE
  8
0
  6
CONTINUOUS
 66
     1
 40
0.000000
 41
0.000000
  0
VERTEX
  8
0
  6
CONTINUOUS
 10
3.851320
 20
4.401320
  0
VERTEX
  8
0
  6
CONTINUOUS
 10
4.509560
 20
4.046240
  0
VERTEX
  8
0
  6
CONTINUOUS
 10
4.402640
 20
3.995640
  0
VERTEX
  8
0
  6
CONTINUOUS
 10
3.743960
 20
4.351160
  0
VERTEX
  8
0
  6
CONTINUOUS
 10
3.851320
 20
4.401320
  0
SEQEND
  8
0
  0
SOLID
  8
0
 62
    15
 10
3.743960
 20
4.351160
 11
4.402640
 21
3.995640
 12
3.614600
 22
4.314200
 13
4.272840
 23
3.959120
  0
POLYLINE
  8
0
  6
CONTINUOUS
 66
     1
 40
0.000000
 41
0.000000
  0
VERTEX
  8
0
  6
CONTINUOUS
 10
3.743960
 20
4.351160
  0
VERTEX
  8
0
  6
CONTINUOUS
 10
4.402640
 20
3.995640
  0
VERTEX
  8
0
  6
CONTINUOUS
 10
4.272840
 20
3.959120
  0
VERTEX
  8
0
  6
CONTINUOUS
 10
3.614600
 20
4.314200
  0
VERTEX
  8
0
  6
CONTINUOUS
 10
3.743960
 20
4.351160
  0
SEQEND
  8
0
  0
SOLID
  8
0
 62
    15
 10
3.614600
 20
4.314200
 11
4.272840
 21
3.959120
 12
3.460600
 22
4.292200
 13
4.118840
 23
3.936680
  0
POLYLINE
  8
0
  6
CONTINUOUS
 66
     1
 40
0.000000
 41
0.000000
  0
VERTEX
  8
0
  6
CONTINUOUS
 10
3.614600
 20
4.314200
  0
VERTEX
  8
0
  6
CONTINUOUS
 10
4.272840
 20
3.959120
  0
VERTEX
  8
0
  6
CONTINUOUS
 10
4.118840
 20
3.936680
  0
VERTEX
  8
0
  6
CONTINUOUS
 10
3.460600
 20
4.292200
  0
VERTEX
  8
0
  6
CONTINUOUS
 10
3.614600
 20
4.314200
  0
SEQEND
  8
0
  0
SOLID
  8
0
 62
    15
 10
3.460600
 20
4.292200
 11
4.118840
 21
3.936680
 12
3.279760
 22
4.285600
 13
3.938440
 23
3.930520
  0
POLYLINE
  8
0
  6
CONTINUOUS
 66
     1
 40
0.000000
 41
0.000000
  0
VERTEX
  8
0
  6
CONTINUOUS
 10
3.460600
 20
4.292200
  0
VERTEX
  8
0
  6
CONTINUOUS
 10
4.118840
 20
3.936680
  0
VERTEX
  8
0
  6
CONTINUOUS
 10
3.938440
 20
3.930520
  0
VERTEX
  8
0
  6
CONTINUOUS
 10
3.279760
 20
4.285600
  0
VERTEX
  8
0
  6
CONTINUOUS
 10
3.460600
 20
4.292200
  0
SEQEND
  8
0
  0
SOLID
  8
0
 62
    15
 10
5.344240
 20
8.266280
 11
6.002480
 21
7.911200
 12
5.340280
 22
7.772600
 13
5.998520
 23
7.417520
  0
POLYLINE
  8
0
  6
CONTINUOUS
 66
     1
 40
0.000000
 41
0.000000
  0
VERTEX
  8
0
  6
CONTINUOUS
 10
5.344240
 20
8.266280
  0
VERTEX
  8
0
  6
CONTINUOUS
 10
6.002480
 20
7.911200
  0
VERTEX
  8
0
  6
CONTINUOUS
 10
5.998520
 20
7.417520
  0
VERTEX
  8
0
  6
CONTINUOUS
 10
5.340280
 20
7.772600
  0
VERTEX
  8
0
  6
CONTINUOUS
 10
5.344240
 20
8.266280
  0
SEQEND
  8
0
  0
SOLID
  8
0
 62
    15
 10
3.071200
 20
4.296160
 11
3.729440
 21
3.940640
 12
3.072080
 22
4.295280
 13
3.730320
 23
3.939760
  0
POLYLINE
  8
0
  6
CONTINUOUS
 66
     1
 40
0.000000
 41
0.000000
  0
VERTEX
  8
0
  6
CONTINUOUS
 10
3.071200
 20
4.296160
  0
VERTEX
  8
0
  6
CONTINUOUS
 10
3.729440
 20
3.940640
  0
VERTEX
  8
0
  6
CONTINUOUS
 10
3.730320
 20
3.939760
  0
VERTEX
  8
0
  6
CONTINUOUS
 10
3.072080
 20
4.295280
  0
VERTEX
  8
0
  6
CONTINUOUS
 10
3.071200
 20
4.296160
  0
SEQEND
  8
0
  0
SOLID
  8
0
 62
    15
 10
3.072080
 20
4.295280
 11
3.730320
 21
3.939760
 12
3.075160
 22
4.143920
 13
3.733400
 23
3.788400
  0
POLYLINE
  8
0
  6
CONTINUOUS
 66
     1
 40
0.000000
 41
0.000000
  0
VERTEX
  8
0
  6
CONTINUOUS
 10
3.072080
 20
4.295280
  0
VERTEX
  8
0
  6
CONTINUOUS
 10
3.730320
 20
3.939760
  0
VERTEX
  8
0
  6
CONTINUOUS
 10
3.733400
 20
3.788400
  0
VERTEX
  8
0
  6
CONTINUOUS
 10
3.075160
 20
4.143920
  0
VERTEX
  8
0
  6
CONTINUOUS
 10
3.072080
 20
4.295280
  0
SEQEND
  8
0
  0
SOLID
  8
0
 62
    15
 10
3.075160
 20
4.143920
 11
3.733400
 21
3.788400
 12
3.054920
 22
3.966600
 13
3.713160
 23
3.611080
  0
POLYLINE
  8
0
  6
CONTINUOUS
 66
     1
 40
0.000000
 41
0.000000
  0
VERTEX
  8
0
  6
CONTINUOUS
 10
3.075160
 20
4.143920
  0
VERTEX
  8
0
  6
CONTINUOUS
 10
3.733400
 20
3.788400
  0
VERTEX
  8
0
  6
CONTINUOUS
 10
3.713160
 20
3.611080
  0
VERTEX
  8
0
  6
CONTINUOUS
 10
3.054920
 20
3.966600
  0
VERTEX
  8
0
  6
CONTINUOUS
 10
3.075160
 20
4.143920
  0
SEQEND
  8
0
  0
SOLID
  8
0
 62
    15
 10
3.054920
 20
3.966600
 11
3.713160
 21
3.611080
 12
3.004760
 22
3.776520
 13
3.663000
 23
3.421440
  0
POLYLINE
  8
0
  6
CONTINUOUS
 66
     1
 40
0.000000
 41
0.000000
  0
VERTEX
  8
0
  6
CONTINUOUS
 10
3.054920
 20
3.966600
  0
VERTEX
  8
0
  6
CONTINUOUS
 10
3.713160
 20
3.611080
  0
VERTEX
  8
0
  6
CONTINUOUS
 10
3.663000
 20
3.421440
  0
VERTEX
  8
0
  6
CONTINUOUS
 10
3.004760
 20
3.776520
  0
VERTEX
  8
0
  6
CONTINUOUS
 10
3.054920
 20
3.966600
  0
SEQEND
  8
0
  0
SOLID
  8
0
 62
    15
 10
3.004760
 20
3.776520
 11
3.663000
 21
3.421440
 12
2.918960
 22
3.586880
 13
3.577200
 23
3.231360
  0
POLYLINE
  8
0
  6
CONTINUOUS
 66
     1
 40
0.000000
 41
0.000000
  0
VERTEX
  8
0
  6
CONTINUOUS
 10
3.004760
 20
3.776520
  0
VERTEX
  8
0
  6
CONTINUOUS
 10
3.663000
 20
3.421440
  0
VERTEX
  8
0
  6
CONTINUOUS
 10
3.577200
 20
3.231360
  0
VERTEX
  8
0
  6
CONTINUOUS
 10
2.918960
 20
3.586880
  0
VERTEX
  8
0
  6
CONTINUOUS
 10
3.004760
 20
3.776520
  0
SEQEND
  8
0
  0
SOLID
  8
0
 62
    15
 10
2.918960
 20
3.586880
 11
3.577200
 21
3.231360
 12
2.791360
 22
3.410000
 13
3.449600
 23
3.054920
  0
POLYLINE
  8
0
  6
CONTINUOUS
 66
     1
 40
0.000000
 41
0.000000
  0
VERTEX
  8
0
  6
CONTINUOUS
 10
2.918960
 20
3.586880
  0
VERTEX
  8
0
  6
CONTINUOUS
 10
3.577200
 20
3.231360
  0
VERTEX
  8
0
  6
CONTINUOUS
 10
3.449600
 20
3.054920
  0
VERTEX
  8
0
  6
CONTINUOUS
 10
2.791360
 20
3.410000
  0
VERTEX
  8
0
  6
CONTINUOUS
 10
2.918960
 20
3.586880
  0
SEQEND
  8
0
  0
SOLID
  8
0
 62
    15
 10
2.791360
 20
3.410000
 11
3.449600
 21
3.054920
 12
2.615800
 22
3.259520
 13
3.274040
 23
2.904000
  0
POLYLINE
  8
0
  6
CONTINUOUS
 66
     1
 40
0.000000
 41
0.000000
  0
VERTEX
  8
0
  6
CONTINUOUS
 10
2.791360
 20
3.410000
  0
VERTEX
  8
0
  6
CONTINUOUS
 10
3.449600
 20
3.054920
  0
VERTEX
  8
0
  6
CONTINUOUS
 10
3.274040
 20
2.904000
  0
VERTEX
  8
0
  6
CONTINUOUS
 10
2.615800
 20
3.259520
  0
VERTEX
  8
0
  6
CONTINUOUS
 10
2.791360
 20
3.410000
  0
SEQEND
  8
0
  0
SOLID
  8
0
 62
    15
 10
2.615800
 20
3.259520
 11
3.274040
 21
2.904000
 12
2.385680
 22
3.148200
 13
3.043920
 23
2.792680
  0
POLYLINE
  8
0
  6
CONTINUOUS
 66
     1
 40
0.000000
 41
0.000000
  0
VERTEX
  8
0
  6
CONTINUOUS
 10
2.615800
 20
3.259520
  0
VERTEX
  8
0
  6
CONTINUOUS
 10
3.274040
 20
2.904000
  0
VERTEX
  8
0
  6
CONTINUOUS
 10
3.043920
 20
2.792680
  0
VERTEX
  8
0
  6
CONTINUOUS
 10
2.385680
 20
3.148200
  0
VERTEX
  8
0
  6
CONTINUOUS
 10
2.615800
 20
3.259520
  0
SEQEND
  8
0
  0
SOLID
  8
0
 62
    15
 10
2.385680
 20
3.148200
 11
3.043920
 21
2.792680
 12
2.095720
 22
3.088360
 13
2.753960
 23
2.733280
  0
POLYLINE
  8
0
  6
CONTINUOUS
 66
     1
 40
0.000000
 41
0.000000
  0
VERTEX
  8
0
  6
CONTINUOUS
 10
2.385680
 20
3.148200
  0
VERTEX
  8
0
  6
CONTINUOUS
 10
3.043920
 20
2.792680
  0
VERTEX
  8
0
  6
CONTINUOUS
 10
2.753960
 20
2.733280
  0
VERTEX
  8
0
  6
CONTINUOUS
 10
2.095720
 20
3.088360
  0
VERTEX
  8
0
  6
CONTINUOUS
 10
2.385680
 20
3.148200
  0
SEQEND
  8
0
  0
SOLID
  8
0
 62
    15
 10
2.095720
 20
3.088360
 11
2.753960
 21
2.733280
 12
1.807520
 22
3.040400
 13
2.465760
 23
2.684880
  0
POLYLINE
  8
0
  6
CONTINUOUS
 66
     1
 40
0.000000
 41
0.000000
  0
VERTEX
  8
0
  6
CONTINUOUS
 10
2.095720
 20
3.088360
  0
VERTEX
  8
0
  6
CONTINUOUS
 10
2.753960
 20
2.733280
  0
VERTEX
  8
0
  6
CONTINUOUS
 10
2.465760
 20
2.684880
  0
VERTEX
  8
0
  6
CONTINUOUS
 10
1.807520
 20
3.040400
  0
VERTEX
  8
0
  6
CONTINUOUS
 10
2.095720
 20
3.088360
  0
SEQEND
  8
0
  0
SOLID
  8
0
 62
    15
 10
1.807520
 20
3.040400
 11
2.465760
 21
2.684880
 12
1.583560
 22
2.960760
 13
2.241800
 23
2.605240
  0
POLYLINE
  8
0
  6
CONTINUOUS
 66
     1
 40
0.000000
 41
0.000000
  0
VERTEX
  8
0
  6
CONTINUOUS
 10
1.807520
 20
3.040400
  0
VERTEX
  8
0
  6
CONTINUOUS
 10
2.465760
 20
2.684880
  0
VERTEX
  8
0
  6
CONTINUOUS
 10
2.241800
 20
2.605240
  0
VERTEX
  8
0
  6
CONTINUOUS
 10
1.583560
 20
2.960760
  0
VERTEX
  8
0
  6
CONTINUOUS
 10
1.807520
 20
3.040400
  0
SEQEND
  8
0
  0
SOLID
  8
0
 62
    15
 10
1.583560
 20
2.960760
 11
2.241800
 21
2.605240
 12
1.415040
 22
2.858680
 13
2.073280
 23
2.503160
  0
POLYLINE
  8
0
  6
CONTINUOUS
 66
     1
 40
0.000000
 41
0.000000
  0
VERTEX
  8
0
  6
CONTINUOUS
 10
1.583560
 20
2.960760
  0
VERTEX
  8
0
  6
CONTINUOUS
 10
2.241800
 20
2.605240
  0
VERTEX
  8
0
  6
CONTINUOUS
 10
2.073280
 20
2.503160
  0
VERTEX
  8
0
  6
CONTINUOUS
 10
1.415040
 20
2.858680
  0
VERTEX
  8
0
  6
CONTINUOUS
 10
1.583560
 20
2.960760
  0
SEQEND
  8
0
  0
SOLID
  8
0
 62
    15
 10
1.415040
 20
2.858680
 11
2.073280
 21
2.503160
 12
1.293160
 22
2.744280
 13
1.951400
 23
2.388760
  0
POLYLINE
  8
0
  6
CONTINUOUS
 66
     1
 40
0.000000
 41
0.000000
  0
VERTEX
  8
0
  6
CONTINUOUS
 10
1.415040
 20
2.858680
  0
VERTEX
  8
0
  6
CONTINUOUS
 10
2.073280
 20
2.503160
  0
VERTEX
  8
0
  6
CONTINUOUS
 10
1.951400
 20
2.388760
  0
VERTEX
  8
0
  6
CONTINUOUS
 10
1.293160
 20
2.744280
  0
VERTEX
  8
0
  6
CONTINUOUS
 10
1.415040
 20
2.858680
  0
SEQEND
  8
0
  0
SOLID
  8
0
 62
    15
 10
1.293160
 20
2.744280
 11
1.951400
 21
2.388760
 12
1.209120
 22
2.626360
 13
1.867800
 23
2.270840
  0
POLYLINE
  8
0
  6
CONTINUOUS
 66
     1
 40
0.000000
 41
0.000000
  0
VERTEX
  8
0
  6
CONTINUOUS
 10
1.293160
 20
2.744280
  0
VERTEX
  8
0
  6
CONTINUOUS
 10
1.951400
 20
2.388760
  0
VERTEX
  8
0
  6
CONTINUOUS
 10
1.867800
 20
2.270840
  0
VERTEX
  8
0
  6
CONTINUOUS
 10
1.209120
 20
2.626360
  0
VERTEX
  8
0
  6
CONTINUOUS
 10
1.293160
 20
2.744280
  0
SEQEND
  8
0
  0
SOLID
  8
0
 62
    15
 10
1.209120
 20
2.626360
 11
1.867800
 21
2.270840
 12
1.154560
 22
2.514600
 13
1.813240
 23
2.159080
  0
POLYLINE
  8
0
  6
CONTINUOUS
 66
     1
 40
0.000000
 41
0.000000
  0
VERTEX
  8
0
  6
CONTINUOUS
 10
1.209120
 20
2.626360
  0
VERTEX
  8
0
  6
CONTINUOUS
 10
1.867800
 20
2.270840
  0
VERTEX
  8
0
  6
CONTINUOUS
 10
1.813240
 20
2.159080
  0
VERTEX
  8
0
  6
CONTINUOUS
 10
1.154560
 20
2.514600
  0
VERTEX
  8
0
  6
CONTINUOUS
 10
1.209120
 20
2.626360
  0
SEQEND
  8
0
  0
SOLID
  8
0
 62
    15
 10
1.154560
 20
2.514600
 11
1.813240
 21
2.159080
 12
1.120680
 22
2.418680
 13
1.778920
 23
2.063160
  0
POLYLINE
  8
0
  6
CONTINUOUS
 66
     1
 40
0.000000
 41
0.000000
  0
VERTEX
  8
0
  6
CONTINUOUS
 10
1.154560
 20
2.514600
  0
VERTEX
  8
0
  6
CONTINUOUS
 10
1.813240
 20
2.159080
  0
VERTEX
  8
0
  6
CONTINUOUS
 10
1.778920
 20
2.063160
  0
VERTEX
  8
0
  6
CONTINUOUS
 10
1.120680
 20
2.418680
  0
VERTEX
  8
0
  6
CONTINUOUS
 10
1.154560
 20
2.514600
  0
SEQEND
  8
0
  0
SOLID
  8
0
 62
    15
 10
1.120680
 20
2.418680
 11
1.778920
 21
2.063160
 12
1.098240
 22
2.347840
 13
1.756480
 23
1.992320
  0
POLYLINE
  8
0
  6
CONTINUOUS
 66
     1
 40
0.000000
 41
0.000000
  0
VERTEX
  8
0
  6
CONTINUOUS
 10
1.120680
 20
2.418680
  0
VERTEX
  8
0
  6
CONTINUOUS
 10
1.778920
 20
2.063160
  0
VERTEX
  8
0
  6
CONTINUOUS
 10
1.756480
 20
1.992320
  0
VERTEX
  8
0
  6
CONTINUOUS
 10
1.098240
 20
2.347840
  0
VERTEX
  8
0
  6
CONTINUOUS
 10
1.120680
 20
2.418680
  0
SEQEND
  8
0
  0
SOLID
  8
0
 62
    15
 10
1.098240
 20
2.347840
 11
1.756480
 21
1.992320
 12
1.095600
 22
2.331120
 13
1.753840
 23
1.975600
  0
POLYLINE
  8
0
  6
CONTINUOUS
 66
     1
 40
0.000000
 41
0.000000
  0
VERTEX
  8
0
  6
CONTINUOUS
 10
1.098240
 20
2.347840
  0
VERTEX
  8
0
  6
CONTINUOUS
 10
1.756480
 20
1.992320
  0
VERTEX
  8
0
  6
CONTINUOUS
 10
1.753840
 20
1.975600
  0
VERTEX
  8
0
  6
CONTINUOUS
 10
1.095600
 20
2.331120
  0
VERTEX
  8
0
  6
CONTINUOUS
 10
1.098240
 20
2.347840
  0
SEQEND
  8
0
  0
SOLID
  8
0
 62
    15
 10
1.095600
 20
2.331120
 11
1.753840
 21
1.975600
 12
1.063920
 22
2.149400
 13
1.722160
 23
1.794320
  0
POLYLINE
  8
0
  6
CONTINUOUS
 66
     1
 40
0.000000
 41
0.000000
  0
VERTEX
  8
0
  6
CONTINUOUS
 10
1.095600
 20
2.331120
  0
VERTEX
  8
0
  6
CONTINUOUS
 10
1.753840
 20
1.975600
  0
VERTEX
  8
0
  6
CONTINUOUS
 10
1.722160
 20
1.794320
  0
VERTEX
  8
0
  6
CONTINUOUS
 10
1.063920
 20
2.149400
  0
VERTEX
  8
0
  6
CONTINUOUS
 10
1.095600
 20
2.331120
  0
SEQEND
  8
0
  0
SOLID
  8
0
 62
    15
 10
1.063920
 20
2.149400
 11
1.722160
 21
1.794320
 12
1.041920
 22
1.965920
 13
1.700600
 23
1.610400
  0
POLYLINE
  8
0
  6
CONTINUOUS
 66
     1
 40
0.000000
 41
0.000000
  0
VERTEX
  8
0
  6
CONTINUOUS
 10
1.063920
 20
2.149400
  0
VERTEX
  8
0
  6
CONTINUOUS
 10
1.722160
 20
1.794320
  0
VERTEX
  8
0
  6
CONTINUOUS
 10
1.700600
 20
1.610400
  0
VERTEX
  8
0
  6
CONTINUOUS
 10
1.041920
 20
1.965920
  0
VERTEX
  8
0
  6
CONTINUOUS
 10
1.063920
 20
2.149400
  0
SEQEND
  8
0
  0
SOLID
  8
0
 62
    15
 10
1.041920
 20
1.965920
 11
1.700600
 21
1.610400
 12
1.009360
 22
1.902560
 13
1.667600
 23
1.547040
  0
POLYLINE
  8
0
  6
CONTINUOUS
 66
     1
 40
0.000000
 41
0.000000
  0
VERTEX
  8
0
  6
CONTINUOUS
 10
1.041920
 20
1.965920
  0
VERTEX
  8
0
  6
CONTINUOUS
 10
1.700600
 20
1.610400
  0
VERTEX
  8
0
  6
CONTINUOUS
 10
1.667600
 20
1.547040
  0
VERTEX
  8
0
  6
CONTINUOUS
 10
1.009360
 20
1.902560
  0
VERTEX
  8
0
  6
CONTINUOUS
 10
1.041920
 20
1.965920
  0
SEQEND
  8
0
  0
SOLID
  8
0
 62
    15
 10
1.009360
 20
1.902560
 11
1.667600
 21
1.547040
 12
0.951280
 22
1.855920
 13
1.609520
 23
1.500840
  0
POLYLINE
  8
0
  6
CONTINUOUS
 66
     1
 40
0.000000
 41
0.000000
  0
VERTEX
  8
0
  6
CONTINUOUS
 10
1.009360
 20
1.902560
  0
VERTEX
  8
0
  6
CONTINUOUS
 10
1.667600
 20
1.547040
  0
VERTEX
  8
0
  6
CONTINUOUS
 10
1.609520
 20
1.500840
  0
VERTEX
  8
0
  6
CONTINUOUS
 10
0.951280
 20
1.855920
  0
VERTEX
  8
0
  6
CONTINUOUS
 10
1.009360
 20
1.902560
  0
SEQEND
  8
0
  0
SOLID
  8
0
 62
    15
 10
0.859320
 20
1.826440
 11
1.518000
 21
1.470920
 12
0.726000
 22
1.811920
 13
1.384240
 23
1.456840
  0
POLYLINE
  8
0
  6
CONTINUOUS
 66
     1
 40
0.000000
 41
0.000000
  0
VERTEX
  8
0
  6
CONTINUOUS
 10
0.859320
 20
1.826440
  0
VERTEX
  8
0
  6
CONTINUOUS
 10
1.518000
 20
1.470920
  0
VERTEX
  8
0
  6
CONTINUOUS
 10
1.384240
 20
1.456840
  0
VERTEX
  8
0
  6
CONTINUOUS
 10
0.726000
 20
1.811920
  0
VERTEX
  8
0
  6
CONTINUOUS
 10
0.859320
 20
1.826440
  0
SEQEND
  8
0
  0
SOLID
  8
0
 62
    15
 10
0.951280
 20
1.855920
 11
1.609520
 21
1.500840
 12
0.859320
 22
1.826440
 13
1.518000
 23
1.470920
  0
POLYLINE
  8
0
  6
CONTINUOUS
 66
     1
 40
0.000000
 41
0.000000
  0
VERTEX
  8
0
  6
CONTINUOUS
 10
0.951280
 20
1.855920
  0
VERTEX
  8
0
  6
CONTINUOUS
 10
1.609520
 20
1.500840
  0
VERTEX
  8
0
  6
CONTINUOUS
 10
1.518000
 20
1.470920
  0
VERTEX
  8
0
  6
CONTINUOUS
 10
0.859320
 20
1.826440
  0
VERTEX
  8
0
  6
CONTINUOUS
 10
0.951280
 20
1.855920
  0
SEQEND
  8
0
  0
SOLID
  8
0
 62
    15
 10
0.726000
 20
1.811920
 11
1.384240
 21
1.456840
 12
0.541640
 22
1.811920
 13
1.200320
 23
1.456840
  0
POLYLINE
  8
0
  6
CONTINUOUS
 66
     1
 40
0.000000
 41
0.000000
  0
VERTEX
  8
0
  6
CONTINUOUS
 10
0.726000
 20
1.811920
  0
VERTEX
  8
0
  6
CONTINUOUS
 10
1.384240
 20
1.456840
  0
VERTEX
  8
0
  6
CONTINUOUS
 10
1.200320
 20
1.456840
  0
VERTEX
  8
0
  6
CONTINUOUS
 10
0.541640
 20
1.811920
  0
VERTEX
  8
0
  6
CONTINUOUS
 10
0.726000
 20
1.811920
  0
SEQEND
  8
0
  0
SOLID
  8
0
 62
    15
 10
0.541640
 20
1.811920
 11
1.200320
 21
1.456840
 12
0.299640
 22
1.825560
 13
0.957880
 23
1.470040
  0
POLYLINE
  8
0
  6
CONTINUOUS
 66
     1
 40
0.000000
 41
0.000000
  0
VERTEX
  8
0
  6
CONTINUOUS
 10
0.541640
 20
1.811920
  0
VERTEX
  8
0
  6
CONTINUOUS
 10
1.200320
 20
1.456840
  0
VERTEX
  8
0
  6
CONTINUOUS
 10
0.957880
 20
1.470040
  0
VERTEX
  8
0
  6
CONTINUOUS
 10
0.299640
 20
1.825560
  0
VERTEX
  8
0
  6
CONTINUOUS
 10
0.541640
 20
1.811920
  0
SEQEND
  8
0
  0
SOLID
  8
0
 62
    15
 10
0.294360
 20
1.829520
 11
0.952600
 21
1.474000
 12
0.295240
 22
1.826880
 13
0.953480
 23
1.471360
  0
POLYLINE
  8
0
  6
CONTINUOUS
 66
     1
 40
0.000000
 41
0.000000
  0
VERTEX
  8
0
  6
CONTINUOUS
 10
0.294360
 20
1.829520
  0
VERTEX
  8
0
  6
CONTINUOUS
 10
0.952600
 20
1.474000
  0
VERTEX
  8
0
  6
CONTINUOUS
 10
0.953480
 20
1.471360
  0
VERTEX
  8
0
  6
CONTINUOUS
 10
0.295240
 20
1.826880
  0
VERTEX
  8
0
  6
CONTINUOUS
 10
0.294360
 20
1.829520
  0
SEQEND
  8
0
  0
SOLID
  8
0
 62
    15
 10
0.295240
 20
2.653640
 11
0.953480
 21
2.298120
 12
0.295240
 22
2.647920
 13
0.953480
 23
2.292840
  0
POLYLINE
  8
0
  6
CONTINUOUS
 66
     1
 40
0.000000
 41
0.000000
  0
VERTEX
  8
0
  6
CONTINUOUS
 10
0.295240
 20
2.653640
  0
VERTEX
  8
0
  6
CONTINUOUS
 10
0.953480
 20
2.298120
  0
VERTEX
  8
0
  6
CONTINUOUS
 10
0.953480
 20
2.292840
  0
VERTEX
  8
0
  6
CONTINUOUS
 10
0.295240
 20
2.647920
  0
VERTEX
  8
0
  6
CONTINUOUS
 10
0.295240
 20
2.653640
  0
SEQEND
  8
0
  0
POLYLINE
  8
0
  6
CONTINUOUS
 66
     1
 40
0.000000
 41
0.000000
  0
VERTEX
  8
0
  6
CONTINUOUS
 10
0.295240
 20
2.647920
  0
VERTEX
  8
0
  6
CONTINUOUS
 10
4.672360
 20
8.264080
  0
VERTEX
  8
0
  6
CONTINUOUS
 10
5.346000
 20
8.264080
  0
VERTEX
  8
0
  6
CONTINUOUS
 10
5.344240
 20
8.266280
  0
VERTEX
  8
0
  6
CONTINUOUS
 10
5.340280
 20
7.772600
  0
VERTEX
  8
0
  6
CONTINUOUS
 10
5.338960
 20
7.773480
  0
VERTEX
  8
0
  6
CONTINUOUS
 10
5.228520
 20
7.735640
  0
VERTEX
  8
0
  6
CONTINUOUS
 10
5.145360
 20
7.693840
  0
VERTEX
  8
0
  6
CONTINUOUS
 10
5.047680
 20
7.594840
  0
VERTEX
  8
0
  6
CONTINUOUS
 10
5.014680
 20
7.469880
  0
VERTEX
  8
0
  6
CONTINUOUS
 10
5.015560
 20
7.310600
  0
VERTEX
  8
0
  6
CONTINUOUS
 10
5.013360
 20
7.161880
  0
VERTEX
  8
0
  6
CONTINUOUS
 10
4.968040
 20
6.970040
  0
VERTEX
  8
0
  6
CONTINUOUS
 10
4.915680
 20
6.868840
  0
VERTEX
  8
0
  6
CONTINUOUS
 10
4.836920
 20
6.770280
  0
VERTEX
  8
0
  6
CONTINUOUS
 10
4.725600
 20
6.678320
  0
VERTEX
  8
0
  6
CONTINUOUS
 10
4.577320
 20
6.597360
  0
VERTEX
  8
0
  6
CONTINUOUS
 10
4.429040
 20
6.526520
  0
VERTEX
  8
0
  6
CONTINUOUS
 10
4.314200
 20
6.453920
  0
VERTEX
  8
0
  6
CONTINUOUS
 10
4.228840
 20
6.371640
  0
VERTEX
  8
0
  6
CONTINUOUS
 10
4.169440
 20
6.272640
  0
VERTEX
  8
0
  6
CONTINUOUS
 10
4.132040
 20
6.149000
  0
VERTEX
  8
0
  6
CONTINUOUS
 10
4.112680
 20
5.993240
  0
VERTEX
  8
0
  6
CONTINUOUS
 10
4.107840
 20
5.797440
  0
VERTEX
  8
0
  6
CONTINUOUS
 10
4.113560
 20
5.554560
  0
VERTEX
  8
0
  6
CONTINUOUS
 10
4.138640
 20
5.047240
  0
VERTEX
  8
0
  6
CONTINUOUS
 10
4.119280
 20
4.820640
  0
VERTEX
  8
0
  6
CONTINUOUS
 10
4.057680
 20
4.623520
  0
VERTEX
  8
0
  6
CONTINUOUS
 10
3.938000
 20
4.464240
  0
VERTEX
  8
0
  6
CONTINUOUS
 10
3.851320
 20
4.401320
  0
VERTEX
  8
0
  6
CONTINUOUS
 10
3.743960
 20
4.351160
  0
VERTEX
  8
0
  6
CONTINUOUS
 10
3.614600
 20
4.314200
  0
VERTEX
  8
0
  6
CONTINUOUS
 10
3.460600
 20
4.292200
  0
VERTEX
  8
0
  6
CONTINUOUS
 10
3.279760
 20
4.285600
  0
VERTEX
  8
0
  6
CONTINUOUS
 10
3.071200
 20
4.296160
  0
VERTEX
  8
0
  6
CONTINUOUS
 10
3.072080
 20
4.295280
  0
VERTEX
  8
0
  6
CONTINUOUS
 10
3.075160
 20
4.143920
  0
VERTEX
  8
0
  6
CONTINUOUS
 10
3.054920
 20
3.966600
  0
VERTEX
  8
0
  6
CONTINUOUS
 10
3.004760
 20
3.776520
  0
VERTEX
  8
0
  6
CONTINUOUS
 10
2.918960
 20
3.586880
  0
VERTEX
  8
0
  6
CONTINUOUS
 10
2.791360
 20
3.410000
  0
VERTEX
  8
0
  6
CONTINUOUS
 10
2.615800
 20
3.259520
  0
VERTEX
  8
0
  6
CONTINUOUS
 10
2.385680
 20
3.148200
  0
VERTEX
  8
0
  6
CONTINUOUS
 10
2.095720
 20
3.088360
  0
VERTEX
  8
0
  6
CONTINUOUS
 10
1.807520
 20
3.040400
  0
VERTEX
  8
0
  6
CONTINUOUS
 10
1.583560
 20
2.960760
  0
VERTEX
  8
0
  6
CONTINUOUS
 10
1.415040
 20
2.858680
  0
VERTEX
  8
0
  6
CONTINUOUS
 10
1.293160
 20
2.744280
  0
VERTEX
  8
0
  6
CONTINUOUS
 10
1.209120
 20
2.626360
  0
VERTEX
  8
0
  6
CONTINUOUS
 10
1.154560
 20
2.514600
  0
VERTEX
  8
0
  6
CONTINUOUS
 10
1.120680
 20
2.418680
  0
VERTEX
  8
0
  6
CONTINUOUS
 10
1.098240
 20
2.347840
  0
VERTEX
  8
0
  6
CONTINUOUS
 10
1.063920
 20
2.149400
  0
VERTEX
  8
0
  6
CONTINUOUS
 10
1.041920
 20
1.965920
  0
VERTEX
  8
0
  6
CONTINUOUS
 10
1.009360
 20
1.902560
  0
VERTEX
  8
0
  6
CONTINUOUS
 10
0.951280
 20
1.855920
  0
VERTEX
  8
0
  6
CONTINUOUS
 10
0.859320
 20
1.826440
  0
VERTEX
  8
0
  6
CONTINUOUS
 10
0.726000
 20
1.811920
  0
VERTEX
  8
0
  6
CONTINUOUS
 10
0.541640
 20
1.811920
  0
VERTEX
  8
0
  6
CONTINUOUS
 10
0.299640
 20
1.825560
  0
VERTEX
  8
0
  6
CONTINUOUS
 10
0.294360
 20
1.829520
  0
VERTEX
  8
0
  6
CONTINUOUS
 10
0.295240
 20
1.826880
  0
VERTEX
  8
0
  6
CONTINUOUS
 10
0.295240
 20
2.653640
  0
VERTEX
  8
0
  6
CONTINUOUS
 10
0.295240
 20
2.647920
  0
SEQEND
  8
0
  0
TEXT
  8
0
 10
2.088240
 20
1.623160
 40
0.138034
  1
BA  101
 41
1.000000
  7
SN0
 71
     0
 72
     5
 11
2.680262
 21
1.623160
  0
TEXT
  8
0
 10
1.858560
 20
1.431760
 40
0.138034
  1
1-3/4" x 8-1/4"
 41
1.000000
  7
SN0
 71
     0
 72
     5
 11
2.911667
 21
1.431760
  0
TEXT
  8
0
 10
7.693840
 20
9.531280
 40
0.138034
  1
crown
 41
1.000000
  7
SN0
 71
     0
 72
     5
 11
8.138090
 21
9.531280
  0
TEXT
  8
0
 10
7.777000
 20
9.339880
 40
0.138034
  1
101
 41
1.000000
  7
SN0
 71
     0
 72
     5
 11
8.054773
 21
9.339880
  0
ENDSEC
  0
EOF
