  0
SECTION
  2
HEADER
  9
$ACADVER
  1
AC1006
  9
$EXTMIN
 10
1.870000
 20
1.576080
  9
$EXTMAX
 10
6.399800
 20
4.544760
  9
$LTSCALE
 40
0.044000
  9
$PDMODE
 70
    35
  9
$PDSIZE
 40
0.035200
  0
ENDSEC
  0
SECTION
  2
TABLES
  0
TABLE
  2
LTYPE
 70
     9
  0
LTYPE
  2
CONTINUOUS
 70
    64
  3
Solid line
 72
    65
 73
     0
 40
0.000000
  0
LTYPE
  2
DASHED
 70
    64
  3
__ __ __ __ __ __ __ __ __ __ __ __ __ __ __
 72
    65
 73
     2
 40
0.000330
 49
0.000220
 49
-0.000110
  0
LTYPE
  2
HIDDEN
 70
    64
  3
 _ _ _ _ _ _ _ _ _ _ _ _ _ _ _ _ _ _ _ _ _ _
 72
    65
 73
     2
 40
0.000165
 49
0.000110
 49
-0.000055
  0
LTYPE
  2
CENTER
 70
    64
  3
____ _ ____ _ ____ _ ____ _ ____ _ ____ _ ____
 72
    65
 73
     4
 40
0.000880
 49
0.000550
 49
-0.000110
 49
0.000110
 49
-0.000110
  0
LTYPE
  2
PHANTOM
 70
    64
  3
_____ _ _ _____ _ _ _____ _ _ _____ _ _ ____
 72
    65
 73
     6
 40
0.001100
 49
0.000550
 49
-0.000110
 49
0.000110
 49
-0.000110
 49
0.000110
 49
-0.000110
  0
LTYPE
  2
DOT
 70
    64
  3
...............................................
 72
    65
 73
     2
 40
0.000110
 49
0.000000
 49
-0.000110
  0
LTYPE
  2
DASHDOT
 70
    64
  3
__ . __ . __ . __ . __ . __ . __ . __ . __ . __
 72
    65
 73
     4
 40
0.000440
 49
0.000220
 49
-0.000110
 49
0.000000
 49
-0.000110
  0
LTYPE
  2
BORDER
 70
    64
  3
__ __ . __ __ . __ __ . __ __ . __ __ . __ __
 72
    65
 73
     6
 40
0.000770
 49
0.000220
 49
-0.000110
 49
0.000220
 49
-0.000110
 49
0.000000
 49
-0.000110
  0
LTYPE
  2
DIVIDE
 70
    64
  3
__ . . __ . . __ . . __ . . __ . . __ . . __
 72
    65
 73
     6
 40
0.000550
 49
0.000220
 49
-0.000110
 49
0.000000
 49
-0.000110
 49
0.000000
 49
-0.000110
  0
LTYPE
  2
DOTDOT
 70
    64
  3
 . .  . .  . .  . .  . .  . . 
 72
    65
 73
     5
 40
0.000242
 49
-0.000110
 49
0.000000
 49
-0.000110
 49
0.000000
 49
-0.000110
  0
ENDTAB
  0
TABLE
  2
STYLE
 70
     2
  0
STYLE
 70
     0
  2
SN0
 40
0.000000
 41
0.000440
 50
0.000000
 71
     0
 42
0.000000
  3
ROMAND
  0
STYLE
 70
    68
  2
SV0
 40
0.000000
 41
0.000440
 50
0.000000
 71
     0
 42
0.000000
  3
ROMAND
  0
ENDTAB
  0
TABLE
  2
LAYER
 70
     3
  0
LAYER
  2
FOREGROUND
 70
    64
 62
     7
  6
CONTINUOUS
  0
LAYER
  2
BACKGROUND
 70
    65
 62
    -7
  6
CONTINUOUS
  0
LAYER
  2
0
 70
    64
 62
     7
  6
CONTINUOUS
  0
ENDTAB
  0
ENDSEC
  0
SECTION
  2
ENTITIES
  0
POLYLINE
  8
FOREGROUND
  6
CONTINUOUS
 66
     1
 40
0.000000
 41
0.000000
  0
VERTEX
  8
FOREGROUND
  6
CONTINUOUS
 10
0.000000
 20
6.120840
  0
VERTEX
  8
FOREGROUND
  6
CONTINUOUS
 10
8.499920
 20
6.120840
  0
VERTEX
  8
FOREGROUND
  6
CONTINUOUS
 10
8.499920
 20
-4.879160
  0
VERTEX
  8
FOREGROUND
  6
CONTINUOUS
 10
0.000000
 20
-4.879160
  0
VERTEX
  8
FOREGROUND
  6
CONTINUOUS
 10
0.000000
 20
6.120840
  0
SEQEND
  8
0
  0
POLYLINE
  8
FOREGROUND
  6
CONTINUOUS
 66
     1
 40
0.000000
 41
0.000000
  0
VERTEX
  8
FOREGROUND
  6
CONTINUOUS
 10
0.000000
 20
6.120840
  0
VERTEX
  8
FOREGROUND
  6
CONTINUOUS
 10
8.499920
 20
6.120840
  0
VERTEX
  8
FOREGROUND
  6
CONTINUOUS
 10
8.499920
 20
-4.879160
  0
VERTEX
  8
FOREGROUND
  6
CONTINUOUS
 10
0.000000
 20
-4.879160
  0
VERTEX
  8
FOREGROUND
  6
CONTINUOUS
 10
0.000000
 20
6.120840
  0
SEQEND
  8
0
  0
POLYLINE
  8
0
  6
CONTINUOUS
 66
     1
 40
0.014080
 41
0.014080
  0
VERTEX
  8
0
  6
CONTINUOUS
 10
1.877920
 20
3.750560
  0
VERTEX
  8
0
  6
CONTINUOUS
 10
1.877920
 20
4.537280
  0
VERTEX
  8
0
  6
CONTINUOUS
 10
2.478960
 20
4.537280
  0
VERTEX
  8
0
  6
CONTINUOUS
 10
2.508440
 20
4.419800
  0
VERTEX
  8
0
  6
CONTINUOUS
 10
2.525600
 20
4.419800
  0
VERTEX
  8
0
  6
CONTINUOUS
 10
2.563440
 20
4.459840
  0
VERTEX
  8
0
  6
CONTINUOUS
 10
2.598200
 20
4.484920
  0
VERTEX
  8
0
  6
CONTINUOUS
 10
2.619760
 20
4.494600
  0
VERTEX
  8
0
  6
CONTINUOUS
 10
2.640440
 20
4.498560
  0
VERTEX
  8
0
  6
CONTINUOUS
 10
2.659800
 20
4.497680
  0
VERTEX
  8
0
  6
CONTINUOUS
 10
2.678720
 20
4.492840
  0
VERTEX
  8
0
  6
CONTINUOUS
 10
2.696760
 20
4.483600
  0
VERTEX
  8
0
  6
CONTINUOUS
 10
2.723160
 20
4.463800
  0
VERTEX
  8
0
  6
CONTINUOUS
 10
2.748680
 20
4.437840
  0
VERTEX
  8
0
  6
CONTINUOUS
 10
2.800160
 20
4.374040
  0
VERTEX
  8
0
  6
CONTINUOUS
 10
2.855160
 20
4.304960
  0
VERTEX
  8
0
  6
CONTINUOUS
 10
2.895200
 20
4.262280
  0
VERTEX
  8
0
  6
CONTINUOUS
 10
2.928200
 20
4.234560
  0
VERTEX
  8
0
  6
CONTINUOUS
 10
2.964280
 20
4.212560
  0
VERTEX
  8
0
  6
CONTINUOUS
 10
2.990240
 20
4.202000
  0
VERTEX
  8
0
  6
CONTINUOUS
 10
3.017960
 20
4.194960
  0
VERTEX
  8
0
  6
CONTINUOUS
 10
3.047000
 20
4.191880
  0
VERTEX
  8
0
  6
CONTINUOUS
 10
3.078680
 20
4.193640
  0
VERTEX
  8
0
  6
CONTINUOUS
 10
3.112120
 20
4.200680
  0
VERTEX
  8
0
  6
CONTINUOUS
 10
3.147760
 20
4.213000
  0
VERTEX
  8
0
  6
CONTINUOUS
 10
3.186040
 20
4.231480
  0
VERTEX
  8
0
  6
CONTINUOUS
 10
3.226520
 20
4.256560
  0
VERTEX
  8
0
  6
CONTINUOUS
 10
3.270080
 20
4.288240
  0
VERTEX
  8
0
  6
CONTINUOUS
 10
3.316280
 20
4.327840
  0
VERTEX
  8
0
  6
CONTINUOUS
 10
3.418800
 20
4.238520
  0
VERTEX
  8
0
  6
CONTINUOUS
 10
3.454000
 20
4.269760
  0
VERTEX
  8
0
  6
CONTINUOUS
 10
3.489640
 20
4.298800
  0
VERTEX
  8
0
  6
CONTINUOUS
 10
3.564000
 20
4.349840
  0
VERTEX
  8
0
  6
CONTINUOUS
 10
3.601840
 20
4.372280
  0
VERTEX
  8
0
  6
CONTINUOUS
 10
3.640560
 20
4.392520
  0
VERTEX
  8
0
  6
CONTINUOUS
 10
3.679720
 20
4.411000
  0
VERTEX
  8
0
  6
CONTINUOUS
 10
3.719320
 20
4.426840
  0
VERTEX
  8
0
  6
CONTINUOUS
 10
3.759360
 20
4.440920
  0
VERTEX
  8
0
  6
CONTINUOUS
 10
3.799840
 20
4.452800
  0
VERTEX
  8
0
  6
CONTINUOUS
 10
3.840760
 20
4.462920
  0
VERTEX
  8
0
  6
CONTINUOUS
 10
3.882120
 20
4.470840
  0
VERTEX
  8
0
  6
CONTINUOUS
 10
3.923480
 20
4.477000
  0
VERTEX
  8
0
  6
CONTINUOUS
 10
3.964840
 20
4.480960
  0
VERTEX
  8
0
  6
CONTINUOUS
 10
4.006640
 20
4.483160
  0
VERTEX
  8
0
  6
CONTINUOUS
 10
4.048440
 20
4.483600
  0
VERTEX
  8
0
  6
CONTINUOUS
 10
4.090240
 20
4.481840
  0
VERTEX
  8
0
  6
CONTINUOUS
 10
4.132040
 20
4.478320
  0
VERTEX
  8
0
  6
CONTINUOUS
 10
4.173840
 20
4.473040
  0
VERTEX
  8
0
  6
CONTINUOUS
 10
4.215200
 20
4.466000
  0
VERTEX
  8
0
  6
CONTINUOUS
 10
4.256560
 20
4.457200
  0
VERTEX
  8
0
  6
CONTINUOUS
 10
4.338840
 20
4.433880
  0
VERTEX
  8
0
  6
CONTINUOUS
 10
4.379320
 20
4.419800
  0
VERTEX
  8
0
  6
CONTINUOUS
 10
4.458960
 20
4.385920
  0
VERTEX
  8
0
  6
CONTINUOUS
 10
4.498120
 20
4.367000
  0
VERTEX
  8
0
  6
CONTINUOUS
 10
4.574680
 20
4.323440
  0
VERTEX
  8
0
  6
CONTINUOUS
 10
4.648600
 20
4.273720
  0
VERTEX
  8
0
  6
CONTINUOUS
 10
4.685560
 20
4.245120
  0
VERTEX
  8
0
  6
CONTINUOUS
 10
4.784120
 20
4.319920
  0
VERTEX
  8
0
  6
CONTINUOUS
 10
4.829000
 20
4.275920
  0
VERTEX
  8
0
  6
CONTINUOUS
 10
4.871240
 20
4.239840
  0
VERTEX
  8
0
  6
CONTINUOUS
 10
4.911280
 20
4.211240
  0
VERTEX
  8
0
  6
CONTINUOUS
 10
4.949120
 20
4.189680
  0
VERTEX
  8
0
  6
CONTINUOUS
 10
4.985200
 20
4.174720
  0
VERTEX
  8
0
  6
CONTINUOUS
 10
5.002360
 20
4.169000
  0
VERTEX
  8
0
  6
CONTINUOUS
 10
5.035360
 20
4.162840
  0
VERTEX
  8
0
  6
CONTINUOUS
 10
5.066600
 20
4.161520
  0
VERTEX
  8
0
  6
CONTINUOUS
 10
5.096080
 20
4.165040
  0
VERTEX
  8
0
  6
CONTINUOUS
 10
5.124240
 20
4.172520
  0
VERTEX
  8
0
  6
CONTINUOUS
 10
5.150640
 20
4.183960
  0
VERTEX
  8
0
  6
CONTINUOUS
 10
5.188040
 20
4.206840
  0
VERTEX
  8
0
  6
CONTINUOUS
 10
5.211360
 20
4.225320
  0
VERTEX
  8
0
  6
CONTINUOUS
 10
5.254920
 20
4.267560
  0
VERTEX
  8
0
  6
CONTINUOUS
 10
5.368880
 20
4.400000
  0
VERTEX
  8
0
  6
CONTINUOUS
 10
5.404080
 20
4.433000
  0
VERTEX
  8
0
  6
CONTINUOUS
 10
5.421680
 20
4.444880
  0
VERTEX
  8
0
  6
CONTINUOUS
 10
5.439720
 20
4.453680
  0
VERTEX
  8
0
  6
CONTINUOUS
 10
5.457760
 20
4.458080
  0
VERTEX
  8
0
  6
CONTINUOUS
 10
5.467000
 20
4.458520
  0
VERTEX
  8
0
  6
CONTINUOUS
 10
5.485480
 20
4.455880
  0
VERTEX
  8
0
  6
CONTINUOUS
 10
5.504840
 20
4.447960
  0
VERTEX
  8
0
  6
CONTINUOUS
 10
5.524640
 20
4.433880
  0
VERTEX
  8
0
  6
CONTINUOUS
 10
5.544880
 20
4.413640
  0
VERTEX
  8
0
  6
CONTINUOUS
 10
5.566440
 20
4.386800
  0
VERTEX
  8
0
  6
CONTINUOUS
 10
5.578760
 20
4.367880
  0
VERTEX
  8
0
  6
CONTINUOUS
 10
5.596360
 20
4.367880
  0
VERTEX
  8
0
  6
CONTINUOUS
 10
5.643000
 20
4.501200
  0
VERTEX
  8
0
  6
CONTINUOUS
 10
6.336000
 20
4.501200
  0
VERTEX
  8
0
  6
CONTINUOUS
 10
6.336000
 20
3.741320
  0
VERTEX
  8
0
  6
CONTINUOUS
 10
1.880560
 20
3.741320
  0
VERTEX
  8
0
  6
CONTINUOUS
 10
1.877920
 20
3.750560
  0
SEQEND
  8
0
  0
SOLID
  8
0
 62
    15
 10
4.195400
 20
2.787400
 11
4.195400
 21
3.513840
 12
4.278560
 22
2.775080
 13
4.279000
 23
3.501520
  0
POLYLINE
  8
0
  6
CONTINUOUS
 66
     1
 40
0.000000
 41
0.000000
  0
VERTEX
  8
0
  6
CONTINUOUS
 10
4.195400
 20
2.787400
  0
VERTEX
  8
0
  6
CONTINUOUS
 10
4.195400
 20
3.513840
  0
VERTEX
  8
0
  6
CONTINUOUS
 10
4.279000
 20
3.501520
  0
VERTEX
  8
0
  6
CONTINUOUS
 10
4.278560
 20
2.775080
  0
VERTEX
  8
0
  6
CONTINUOUS
 10
4.195400
 20
2.787400
  0
SEQEND
  8
0
  0
SOLID
  8
0
 62
    15
 10
2.542320
 20
2.846360
 11
2.542320
 21
3.572800
 12
2.571800
 22
2.728880
 13
2.571800
 23
3.455320
  0
POLYLINE
  8
0
  6
CONTINUOUS
 66
     1
 40
0.000000
 41
0.000000
  0
VERTEX
  8
0
  6
CONTINUOUS
 10
2.542320
 20
2.846360
  0
VERTEX
  8
0
  6
CONTINUOUS
 10
2.542320
 20
3.572800
  0
VERTEX
  8
0
  6
CONTINUOUS
 10
2.571800
 20
3.455320
  0
VERTEX
  8
0
  6
CONTINUOUS
 10
2.571800
 20
2.728880
  0
VERTEX
  8
0
  6
CONTINUOUS
 10
2.542320
 20
2.846360
  0
SEQEND
  8
0
  0
SOLID
  8
0
 62
    15
 10
2.571800
 20
2.728880
 11
2.571800
 21
3.455320
 12
2.588960
 22
2.728880
 13
2.588960
 23
3.455320
  0
POLYLINE
  8
0
  6
CONTINUOUS
 66
     1
 40
0.000000
 41
0.000000
  0
VERTEX
  8
0
  6
CONTINUOUS
 10
2.571800
 20
2.728880
  0
VERTEX
  8
0
  6
CONTINUOUS
 10
2.571800
 20
3.455320
  0
VERTEX
  8
0
  6
CONTINUOUS
 10
2.588960
 20
3.455320
  0
VERTEX
  8
0
  6
CONTINUOUS
 10
2.588960
 20
2.728880
  0
VERTEX
  8
0
  6
CONTINUOUS
 10
2.571800
 20
2.728880
  0
SEQEND
  8
0
  0
SOLID
  8
0
 62
    15
 10
2.588960
 20
2.728880
 11
2.588960
 21
3.455320
 12
2.614480
 22
2.757480
 13
2.614920
 23
3.483920
  0
POLYLINE
  8
0
  6
CONTINUOUS
 66
     1
 40
0.000000
 41
0.000000
  0
VERTEX
  8
0
  6
CONTINUOUS
 10
2.588960
 20
2.728880
  0
VERTEX
  8
0
  6
CONTINUOUS
 10
2.588960
 20
3.455320
  0
VERTEX
  8
0
  6
CONTINUOUS
 10
2.614920
 20
3.483920
  0
VERTEX
  8
0
  6
CONTINUOUS
 10
2.614480
 20
2.757480
  0
VERTEX
  8
0
  6
CONTINUOUS
 10
2.588960
 20
2.728880
  0
SEQEND
  8
0
  0
SOLID
  8
0
 62
    15
 10
2.614480
 20
2.757480
 11
2.614920
 21
3.483920
 12
2.638680
 22
2.779040
 13
2.638680
 23
3.505480
  0
POLYLINE
  8
0
  6
CONTINUOUS
 66
     1
 40
0.000000
 41
0.000000
  0
VERTEX
  8
0
  6
CONTINUOUS
 10
2.614480
 20
2.757480
  0
VERTEX
  8
0
  6
CONTINUOUS
 10
2.614920
 20
3.483920
  0
VERTEX
  8
0
  6
CONTINUOUS
 10
2.638680
 20
3.505480
  0
VERTEX
  8
0
  6
CONTINUOUS
 10
2.638680
 20
2.779040
  0
VERTEX
  8
0
  6
CONTINUOUS
 10
2.614480
 20
2.757480
  0
SEQEND
  8
0
  0
SOLID
  8
0
 62
    15
 10
2.638680
 20
2.779040
 11
2.638680
 21
3.505480
 12
2.661560
 22
2.794440
 13
2.661560
 23
3.520880
  0
POLYLINE
  8
0
  6
CONTINUOUS
 66
     1
 40
0.000000
 41
0.000000
  0
VERTEX
  8
0
  6
CONTINUOUS
 10
2.638680
 20
2.779040
  0
VERTEX
  8
0
  6
CONTINUOUS
 10
2.638680
 20
3.505480
  0
VERTEX
  8
0
  6
CONTINUOUS
 10
2.661560
 20
3.520880
  0
VERTEX
  8
0
  6
CONTINUOUS
 10
2.661560
 20
2.794440
  0
VERTEX
  8
0
  6
CONTINUOUS
 10
2.638680
 20
2.779040
  0
SEQEND
  8
0
  0
SOLID
  8
0
 62
    15
 10
2.661560
 20
2.794440
 11
2.661560
 21
3.520880
 12
2.683120
 22
2.803680
 13
2.683120
 23
3.530120
  0
POLYLINE
  8
0
  6
CONTINUOUS
 66
     1
 40
0.000000
 41
0.000000
  0
VERTEX
  8
0
  6
CONTINUOUS
 10
2.661560
 20
2.794440
  0
VERTEX
  8
0
  6
CONTINUOUS
 10
2.661560
 20
3.520880
  0
VERTEX
  8
0
  6
CONTINUOUS
 10
2.683120
 20
3.530120
  0
VERTEX
  8
0
  6
CONTINUOUS
 10
2.683120
 20
2.803680
  0
VERTEX
  8
0
  6
CONTINUOUS
 10
2.661560
 20
2.794440
  0
SEQEND
  8
0
  0
SOLID
  8
0
 62
    15
 10
2.683120
 20
2.803680
 11
2.683120
 21
3.530120
 12
2.703800
 22
2.808080
 13
2.703800
 23
3.534520
  0
POLYLINE
  8
0
  6
CONTINUOUS
 66
     1
 40
0.000000
 41
0.000000
  0
VERTEX
  8
0
  6
CONTINUOUS
 10
2.683120
 20
2.803680
  0
VERTEX
  8
0
  6
CONTINUOUS
 10
2.683120
 20
3.530120
  0
VERTEX
  8
0
  6
CONTINUOUS
 10
2.703800
 20
3.534520
  0
VERTEX
  8
0
  6
CONTINUOUS
 10
2.703800
 20
2.808080
  0
VERTEX
  8
0
  6
CONTINUOUS
 10
2.683120
 20
2.803680
  0
SEQEND
  8
0
  0
SOLID
  8
0
 62
    15
 10
2.703800
 20
2.808080
 11
2.703800
 21
3.534520
 12
2.723160
 22
2.807200
 13
2.723160
 23
3.533640
  0
POLYLINE
  8
0
  6
CONTINUOUS
 66
     1
 40
0.000000
 41
0.000000
  0
VERTEX
  8
0
  6
CONTINUOUS
 10
2.703800
 20
2.808080
  0
VERTEX
  8
0
  6
CONTINUOUS
 10
2.703800
 20
3.534520
  0
VERTEX
  8
0
  6
CONTINUOUS
 10
2.723160
 20
3.533640
  0
VERTEX
  8
0
  6
CONTINUOUS
 10
2.723160
 20
2.807200
  0
VERTEX
  8
0
  6
CONTINUOUS
 10
2.703800
 20
2.808080
  0
SEQEND
  8
0
  0
SOLID
  8
0
 62
    15
 10
2.723160
 20
2.807200
 11
2.723160
 21
3.533640
 12
2.742080
 22
2.801920
 13
2.742080
 23
3.528360
  0
POLYLINE
  8
0
  6
CONTINUOUS
 66
     1
 40
0.000000
 41
0.000000
  0
VERTEX
  8
0
  6
CONTINUOUS
 10
2.723160
 20
2.807200
  0
VERTEX
  8
0
  6
CONTINUOUS
 10
2.723160
 20
3.533640
  0
VERTEX
  8
0
  6
CONTINUOUS
 10
2.742080
 20
3.528360
  0
VERTEX
  8
0
  6
CONTINUOUS
 10
2.742080
 20
2.801920
  0
VERTEX
  8
0
  6
CONTINUOUS
 10
2.723160
 20
2.807200
  0
SEQEND
  8
0
  0
SOLID
  8
0
 62
    15
 10
2.742080
 20
2.801920
 11
2.742080
 21
3.528360
 12
2.760120
 22
2.793120
 13
2.760120
 23
3.519560
  0
POLYLINE
  8
0
  6
CONTINUOUS
 66
     1
 40
0.000000
 41
0.000000
  0
VERTEX
  8
0
  6
CONTINUOUS
 10
2.742080
 20
2.801920
  0
VERTEX
  8
0
  6
CONTINUOUS
 10
2.742080
 20
3.528360
  0
VERTEX
  8
0
  6
CONTINUOUS
 10
2.760120
 20
3.519560
  0
VERTEX
  8
0
  6
CONTINUOUS
 10
2.760120
 20
2.793120
  0
VERTEX
  8
0
  6
CONTINUOUS
 10
2.742080
 20
2.801920
  0
SEQEND
  8
0
  0
SOLID
  8
0
 62
    15
 10
2.760120
 20
2.793120
 11
2.760120
 21
3.519560
 12
2.794880
 22
2.764960
 13
2.794880
 23
3.491400
  0
POLYLINE
  8
0
  6
CONTINUOUS
 66
     1
 40
0.000000
 41
0.000000
  0
VERTEX
  8
0
  6
CONTINUOUS
 10
2.760120
 20
2.793120
  0
VERTEX
  8
0
  6
CONTINUOUS
 10
2.760120
 20
3.519560
  0
VERTEX
  8
0
  6
CONTINUOUS
 10
2.794880
 20
3.491400
  0
VERTEX
  8
0
  6
CONTINUOUS
 10
2.794880
 20
2.764960
  0
VERTEX
  8
0
  6
CONTINUOUS
 10
2.760120
 20
2.793120
  0
SEQEND
  8
0
  0
SOLID
  8
0
 62
    15
 10
2.794880
 20
2.764960
 11
2.794880
 21
3.491400
 12
2.829200
 22
2.727560
 13
2.829200
 23
3.454000
  0
POLYLINE
  8
0
  6
CONTINUOUS
 66
     1
 40
0.000000
 41
0.000000
  0
VERTEX
  8
0
  6
CONTINUOUS
 10
2.794880
 20
2.764960
  0
VERTEX
  8
0
  6
CONTINUOUS
 10
2.794880
 20
3.491400
  0
VERTEX
  8
0
  6
CONTINUOUS
 10
2.829200
 20
3.454000
  0
VERTEX
  8
0
  6
CONTINUOUS
 10
2.829200
 20
2.727560
  0
VERTEX
  8
0
  6
CONTINUOUS
 10
2.794880
 20
2.764960
  0
SEQEND
  8
0
  0
SOLID
  8
0
 62
    15
 10
2.829200
 20
2.727560
 11
2.829200
 21
3.454000
 12
2.899160
 22
2.636920
 13
2.899160
 23
3.363360
  0
POLYLINE
  8
0
  6
CONTINUOUS
 66
     1
 40
0.000000
 41
0.000000
  0
VERTEX
  8
0
  6
CONTINUOUS
 10
2.829200
 20
2.727560
  0
VERTEX
  8
0
  6
CONTINUOUS
 10
2.829200
 20
3.454000
  0
VERTEX
  8
0
  6
CONTINUOUS
 10
2.899160
 20
3.363360
  0
VERTEX
  8
0
  6
CONTINUOUS
 10
2.899160
 20
2.636920
  0
VERTEX
  8
0
  6
CONTINUOUS
 10
2.829200
 20
2.727560
  0
SEQEND
  8
0
  0
SOLID
  8
0
 62
    15
 10
2.899160
 20
2.636920
 11
2.899160
 21
3.363360
 12
2.937880
 22
2.592040
 13
2.937880
 23
3.318480
  0
POLYLINE
  8
0
  6
CONTINUOUS
 66
     1
 40
0.000000
 41
0.000000
  0
VERTEX
  8
0
  6
CONTINUOUS
 10
2.899160
 20
2.636920
  0
VERTEX
  8
0
  6
CONTINUOUS
 10
2.899160
 20
3.363360
  0
VERTEX
  8
0
  6
CONTINUOUS
 10
2.937880
 20
3.318480
  0
VERTEX
  8
0
  6
CONTINUOUS
 10
2.937880
 20
2.592040
  0
VERTEX
  8
0
  6
CONTINUOUS
 10
2.899160
 20
2.636920
  0
SEQEND
  8
0
  0
SOLID
  8
0
 62
    15
 10
2.937880
 20
2.592040
 11
2.937880
 21
3.318480
 12
2.980120
 22
2.552440
 13
2.980120
 23
3.278880
  0
POLYLINE
  8
0
  6
CONTINUOUS
 66
     1
 40
0.000000
 41
0.000000
  0
VERTEX
  8
0
  6
CONTINUOUS
 10
2.937880
 20
2.592040
  0
VERTEX
  8
0
  6
CONTINUOUS
 10
2.937880
 20
3.318480
  0
VERTEX
  8
0
  6
CONTINUOUS
 10
2.980120
 20
3.278880
  0
VERTEX
  8
0
  6
CONTINUOUS
 10
2.980120
 20
2.552440
  0
VERTEX
  8
0
  6
CONTINUOUS
 10
2.937880
 20
2.592040
  0
SEQEND
  8
0
  0
SOLID
  8
0
 62
    15
 10
2.980120
 20
2.552440
 11
2.980120
 21
3.278880
 12
3.027640
 22
2.522080
 13
3.027640
 23
3.248520
  0
POLYLINE
  8
0
  6
CONTINUOUS
 66
     1
 40
0.000000
 41
0.000000
  0
VERTEX
  8
0
  6
CONTINUOUS
 10
2.980120
 20
2.552440
  0
VERTEX
  8
0
  6
CONTINUOUS
 10
2.980120
 20
3.278880
  0
VERTEX
  8
0
  6
CONTINUOUS
 10
3.027640
 20
3.248520
  0
VERTEX
  8
0
  6
CONTINUOUS
 10
3.027640
 20
2.522080
  0
VERTEX
  8
0
  6
CONTINUOUS
 10
2.980120
 20
2.552440
  0
SEQEND
  8
0
  0
SOLID
  8
0
 62
    15
 10
3.027640
 20
2.522080
 11
3.027640
 21
3.248520
 12
3.053160
 22
2.511080
 13
3.053600
 23
3.237520
  0
POLYLINE
  8
0
  6
CONTINUOUS
 66
     1
 40
0.000000
 41
0.000000
  0
VERTEX
  8
0
  6
CONTINUOUS
 10
3.027640
 20
2.522080
  0
VERTEX
  8
0
  6
CONTINUOUS
 10
3.027640
 20
3.248520
  0
VERTEX
  8
0
  6
CONTINUOUS
 10
3.053600
 20
3.237520
  0
VERTEX
  8
0
  6
CONTINUOUS
 10
3.053160
 20
2.511080
  0
VERTEX
  8
0
  6
CONTINUOUS
 10
3.027640
 20
2.522080
  0
SEQEND
  8
0
  0
SOLID
  8
0
 62
    15
 10
3.053160
 20
2.511080
 11
3.053600
 21
3.237520
 12
3.080880
 22
2.504040
 13
3.080880
 23
3.230480
  0
POLYLINE
  8
0
  6
CONTINUOUS
 66
     1
 40
0.000000
 41
0.000000
  0
VERTEX
  8
0
  6
CONTINUOUS
 10
3.053160
 20
2.511080
  0
VERTEX
  8
0
  6
CONTINUOUS
 10
3.053600
 20
3.237520
  0
VERTEX
  8
0
  6
CONTINUOUS
 10
3.080880
 20
3.230480
  0
VERTEX
  8
0
  6
CONTINUOUS
 10
3.080880
 20
2.504040
  0
VERTEX
  8
0
  6
CONTINUOUS
 10
3.053160
 20
2.511080
  0
SEQEND
  8
0
  0
SOLID
  8
0
 62
    15
 10
3.080880
 20
2.504040
 11
3.080880
 21
3.230480
 12
3.110360
 22
2.501400
 13
3.110360
 23
3.227840
  0
POLYLINE
  8
0
  6
CONTINUOUS
 66
     1
 40
0.000000
 41
0.000000
  0
VERTEX
  8
0
  6
CONTINUOUS
 10
3.080880
 20
2.504040
  0
VERTEX
  8
0
  6
CONTINUOUS
 10
3.080880
 20
3.230480
  0
VERTEX
  8
0
  6
CONTINUOUS
 10
3.110360
 20
3.227840
  0
VERTEX
  8
0
  6
CONTINUOUS
 10
3.110360
 20
2.501400
  0
VERTEX
  8
0
  6
CONTINUOUS
 10
3.080880
 20
2.504040
  0
SEQEND
  8
0
  0
SOLID
  8
0
 62
    15
 10
3.110360
 20
2.501400
 11
3.110360
 21
3.227840
 12
3.141600
 22
2.503160
 13
3.141600
 23
3.229600
  0
POLYLINE
  8
0
  6
CONTINUOUS
 66
     1
 40
0.000000
 41
0.000000
  0
VERTEX
  8
0
  6
CONTINUOUS
 10
3.110360
 20
2.501400
  0
VERTEX
  8
0
  6
CONTINUOUS
 10
3.110360
 20
3.227840
  0
VERTEX
  8
0
  6
CONTINUOUS
 10
3.141600
 20
3.229600
  0
VERTEX
  8
0
  6
CONTINUOUS
 10
3.141600
 20
2.503160
  0
VERTEX
  8
0
  6
CONTINUOUS
 10
3.110360
 20
2.501400
  0
SEQEND
  8
0
  0
SOLID
  8
0
 62
    15
 10
3.141600
 20
2.503160
 11
3.141600
 21
3.229600
 12
3.175040
 22
2.509760
 13
3.175040
 23
3.236200
  0
POLYLINE
  8
0
  6
CONTINUOUS
 66
     1
 40
0.000000
 41
0.000000
  0
VERTEX
  8
0
  6
CONTINUOUS
 10
3.141600
 20
2.503160
  0
VERTEX
  8
0
  6
CONTINUOUS
 10
3.141600
 20
3.229600
  0
VERTEX
  8
0
  6
CONTINUOUS
 10
3.175040
 20
3.236200
  0
VERTEX
  8
0
  6
CONTINUOUS
 10
3.175040
 20
2.509760
  0
VERTEX
  8
0
  6
CONTINUOUS
 10
3.141600
 20
2.503160
  0
SEQEND
  8
0
  0
SOLID
  8
0
 62
    15
 10
3.175040
 20
2.509760
 11
3.175040
 21
3.236200
 12
3.211120
 22
2.522080
 13
3.211120
 23
3.248520
  0
POLYLINE
  8
0
  6
CONTINUOUS
 66
     1
 40
0.000000
 41
0.000000
  0
VERTEX
  8
0
  6
CONTINUOUS
 10
3.175040
 20
2.509760
  0
VERTEX
  8
0
  6
CONTINUOUS
 10
3.175040
 20
3.236200
  0
VERTEX
  8
0
  6
CONTINUOUS
 10
3.211120
 20
3.248520
  0
VERTEX
  8
0
  6
CONTINUOUS
 10
3.211120
 20
2.522080
  0
VERTEX
  8
0
  6
CONTINUOUS
 10
3.175040
 20
2.509760
  0
SEQEND
  8
0
  0
SOLID
  8
0
 62
    15
 10
3.211120
 20
2.522080
 11
3.211120
 21
3.248520
 12
3.248960
 22
2.540560
 13
3.248960
 23
3.267000
  0
POLYLINE
  8
0
  6
CONTINUOUS
 66
     1
 40
0.000000
 41
0.000000
  0
VERTEX
  8
0
  6
CONTINUOUS
 10
3.211120
 20
2.522080
  0
VERTEX
  8
0
  6
CONTINUOUS
 10
3.211120
 20
3.248520
  0
VERTEX
  8
0
  6
CONTINUOUS
 10
3.248960
 20
3.267000
  0
VERTEX
  8
0
  6
CONTINUOUS
 10
3.248960
 20
2.540560
  0
VERTEX
  8
0
  6
CONTINUOUS
 10
3.211120
 20
2.522080
  0
SEQEND
  8
0
  0
SOLID
  8
0
 62
    15
 10
3.248960
 20
2.540560
 11
3.248960
 21
3.267000
 12
3.289880
 22
2.565640
 13
3.289880
 23
3.292080
  0
POLYLINE
  8
0
  6
CONTINUOUS
 66
     1
 40
0.000000
 41
0.000000
  0
VERTEX
  8
0
  6
CONTINUOUS
 10
3.248960
 20
2.540560
  0
VERTEX
  8
0
  6
CONTINUOUS
 10
3.248960
 20
3.267000
  0
VERTEX
  8
0
  6
CONTINUOUS
 10
3.289880
 20
3.292080
  0
VERTEX
  8
0
  6
CONTINUOUS
 10
3.289880
 20
2.565640
  0
VERTEX
  8
0
  6
CONTINUOUS
 10
3.248960
 20
2.540560
  0
SEQEND
  8
0
  0
SOLID
  8
0
 62
    15
 10
3.289880
 20
2.565640
 11
3.289880
 21
3.292080
 12
3.333440
 22
2.597760
 13
3.333440
 23
3.324200
  0
POLYLINE
  8
0
  6
CONTINUOUS
 66
     1
 40
0.000000
 41
0.000000
  0
VERTEX
  8
0
  6
CONTINUOUS
 10
3.289880
 20
2.565640
  0
VERTEX
  8
0
  6
CONTINUOUS
 10
3.289880
 20
3.292080
  0
VERTEX
  8
0
  6
CONTINUOUS
 10
3.333440
 20
3.324200
  0
VERTEX
  8
0
  6
CONTINUOUS
 10
3.333440
 20
2.597760
  0
VERTEX
  8
0
  6
CONTINUOUS
 10
3.289880
 20
2.565640
  0
SEQEND
  8
0
  0
SOLID
  8
0
 62
    15
 10
3.333440
 20
2.597760
 11
3.333440
 21
3.324200
 12
3.379640
 22
2.636920
 13
3.379640
 23
3.363360
  0
POLYLINE
  8
0
  6
CONTINUOUS
 66
     1
 40
0.000000
 41
0.000000
  0
VERTEX
  8
0
  6
CONTINUOUS
 10
3.333440
 20
2.597760
  0
VERTEX
  8
0
  6
CONTINUOUS
 10
3.333440
 20
3.324200
  0
VERTEX
  8
0
  6
CONTINUOUS
 10
3.379640
 20
3.363360
  0
VERTEX
  8
0
  6
CONTINUOUS
 10
3.379640
 20
2.636920
  0
VERTEX
  8
0
  6
CONTINUOUS
 10
3.333440
 20
2.597760
  0
SEQEND
  8
0
  0
SOLID
  8
0
 62
    15
 10
3.379640
 20
2.636920
 11
3.379640
 21
3.363360
 12
3.480840
 22
2.547600
 13
3.480840
 23
3.274040
  0
POLYLINE
  8
0
  6
CONTINUOUS
 66
     1
 40
0.000000
 41
0.000000
  0
VERTEX
  8
0
  6
CONTINUOUS
 10
3.379640
 20
2.636920
  0
VERTEX
  8
0
  6
CONTINUOUS
 10
3.379640
 20
3.363360
  0
VERTEX
  8
0
  6
CONTINUOUS
 10
3.480840
 20
3.274040
  0
VERTEX
  8
0
  6
CONTINUOUS
 10
3.480840
 20
2.547600
  0
VERTEX
  8
0
  6
CONTINUOUS
 10
3.379640
 20
2.636920
  0
SEQEND
  8
0
  0
SOLID
  8
0
 62
    15
 10
3.480840
 20
2.547600
 11
3.480840
 21
3.274040
 12
3.482160
 22
2.547600
 13
3.482160
 23
3.274040
  0
POLYLINE
  8
0
  6
CONTINUOUS
 66
     1
 40
0.000000
 41
0.000000
  0
VERTEX
  8
0
  6
CONTINUOUS
 10
3.480840
 20
2.547600
  0
VERTEX
  8
0
  6
CONTINUOUS
 10
3.480840
 20
3.274040
  0
VERTEX
  8
0
  6
CONTINUOUS
 10
3.482160
 20
3.274040
  0
VERTEX
  8
0
  6
CONTINUOUS
 10
3.482160
 20
2.547600
  0
VERTEX
  8
0
  6
CONTINUOUS
 10
3.480840
 20
2.547600
  0
SEQEND
  8
0
  0
SOLID
  8
0
 62
    15
 10
3.482160
 20
2.547600
 11
3.482160
 21
3.274040
 12
3.553000
 22
2.607880
 13
3.553440
 23
3.334320
  0
POLYLINE
  8
0
  6
CONTINUOUS
 66
     1
 40
0.000000
 41
0.000000
  0
VERTEX
  8
0
  6
CONTINUOUS
 10
3.482160
 20
2.547600
  0
VERTEX
  8
0
  6
CONTINUOUS
 10
3.482160
 20
3.274040
  0
VERTEX
  8
0
  6
CONTINUOUS
 10
3.553440
 20
3.334320
  0
VERTEX
  8
0
  6
CONTINUOUS
 10
3.553000
 20
2.607880
  0
VERTEX
  8
0
  6
CONTINUOUS
 10
3.482160
 20
2.547600
  0
SEQEND
  8
0
  0
SOLID
  8
0
 62
    15
 10
3.553000
 20
2.607880
 11
3.553440
 21
3.334320
 12
3.627360
 22
2.658920
 13
3.627360
 23
3.385360
  0
POLYLINE
  8
0
  6
CONTINUOUS
 66
     1
 40
0.000000
 41
0.000000
  0
VERTEX
  8
0
  6
CONTINUOUS
 10
3.553000
 20
2.607880
  0
VERTEX
  8
0
  6
CONTINUOUS
 10
3.553440
 20
3.334320
  0
VERTEX
  8
0
  6
CONTINUOUS
 10
3.627360
 20
3.385360
  0
VERTEX
  8
0
  6
CONTINUOUS
 10
3.627360
 20
2.658920
  0
VERTEX
  8
0
  6
CONTINUOUS
 10
3.553000
 20
2.607880
  0
SEQEND
  8
0
  0
SOLID
  8
0
 62
    15
 10
3.627360
 20
2.658920
 11
3.627360
 21
3.385360
 12
3.703920
 22
2.701600
 13
3.703920
 23
3.428040
  0
POLYLINE
  8
0
  6
CONTINUOUS
 66
     1
 40
0.000000
 41
0.000000
  0
VERTEX
  8
0
  6
CONTINUOUS
 10
3.627360
 20
2.658920
  0
VERTEX
  8
0
  6
CONTINUOUS
 10
3.627360
 20
3.385360
  0
VERTEX
  8
0
  6
CONTINUOUS
 10
3.703920
 20
3.428040
  0
VERTEX
  8
0
  6
CONTINUOUS
 10
3.703920
 20
2.701600
  0
VERTEX
  8
0
  6
CONTINUOUS
 10
3.627360
 20
2.658920
  0
SEQEND
  8
0
  0
SOLID
  8
0
 62
    15
 10
3.703920
 20
2.701600
 11
3.703920
 21
3.428040
 12
3.782680
 22
2.735920
 13
3.782680
 23
3.462360
  0
POLYLINE
  8
0
  6
CONTINUOUS
 66
     1
 40
0.000000
 41
0.000000
  0
VERTEX
  8
0
  6
CONTINUOUS
 10
3.703920
 20
2.701600
  0
VERTEX
  8
0
  6
CONTINUOUS
 10
3.703920
 20
3.428040
  0
VERTEX
  8
0
  6
CONTINUOUS
 10
3.782680
 20
3.462360
  0
VERTEX
  8
0
  6
CONTINUOUS
 10
3.782680
 20
2.735920
  0
VERTEX
  8
0
  6
CONTINUOUS
 10
3.703920
 20
2.701600
  0
SEQEND
  8
0
  0
SOLID
  8
0
 62
    15
 10
3.782680
 20
2.735920
 11
3.782680
 21
3.462360
 12
3.863200
 22
2.761880
 13
3.863640
 23
3.488320
  0
POLYLINE
  8
0
  6
CONTINUOUS
 66
     1
 40
0.000000
 41
0.000000
  0
VERTEX
  8
0
  6
CONTINUOUS
 10
3.782680
 20
2.735920
  0
VERTEX
  8
0
  6
CONTINUOUS
 10
3.782680
 20
3.462360
  0
VERTEX
  8
0
  6
CONTINUOUS
 10
3.863640
 20
3.488320
  0
VERTEX
  8
0
  6
CONTINUOUS
 10
3.863200
 20
2.761880
  0
VERTEX
  8
0
  6
CONTINUOUS
 10
3.782680
 20
2.735920
  0
SEQEND
  8
0
  0
SOLID
  8
0
 62
    15
 10
3.863200
 20
2.761880
 11
3.863640
 21
3.488320
 12
3.945480
 22
2.779920
 13
3.945480
 23
3.506360
  0
POLYLINE
  8
0
  6
CONTINUOUS
 66
     1
 40
0.000000
 41
0.000000
  0
VERTEX
  8
0
  6
CONTINUOUS
 10
3.863200
 20
2.761880
  0
VERTEX
  8
0
  6
CONTINUOUS
 10
3.863640
 20
3.488320
  0
VERTEX
  8
0
  6
CONTINUOUS
 10
3.945480
 20
3.506360
  0
VERTEX
  8
0
  6
CONTINUOUS
 10
3.945480
 20
2.779920
  0
VERTEX
  8
0
  6
CONTINUOUS
 10
3.863200
 20
2.761880
  0
SEQEND
  8
0
  0
SOLID
  8
0
 62
    15
 10
3.945480
 20
2.779920
 11
3.945480
 21
3.506360
 12
4.028200
 22
2.790040
 13
4.028640
 23
3.516480
  0
POLYLINE
  8
0
  6
CONTINUOUS
 66
     1
 40
0.000000
 41
0.000000
  0
VERTEX
  8
0
  6
CONTINUOUS
 10
3.945480
 20
2.779920
  0
VERTEX
  8
0
  6
CONTINUOUS
 10
3.945480
 20
3.506360
  0
VERTEX
  8
0
  6
CONTINUOUS
 10
4.028640
 20
3.516480
  0
VERTEX
  8
0
  6
CONTINUOUS
 10
4.028200
 20
2.790040
  0
VERTEX
  8
0
  6
CONTINUOUS
 10
3.945480
 20
2.779920
  0
SEQEND
  8
0
  0
SOLID
  8
0
 62
    15
 10
4.028200
 20
2.790040
 11
4.028640
 21
3.516480
 12
4.111800
 22
2.792680
 13
4.111800
 23
3.519120
  0
POLYLINE
  8
0
  6
CONTINUOUS
 66
     1
 40
0.000000
 41
0.000000
  0
VERTEX
  8
0
  6
CONTINUOUS
 10
4.028200
 20
2.790040
  0
VERTEX
  8
0
  6
CONTINUOUS
 10
4.028640
 20
3.516480
  0
VERTEX
  8
0
  6
CONTINUOUS
 10
4.111800
 20
3.519120
  0
VERTEX
  8
0
  6
CONTINUOUS
 10
4.111800
 20
2.792680
  0
VERTEX
  8
0
  6
CONTINUOUS
 10
4.028200
 20
2.790040
  0
SEQEND
  8
0
  0
SOLID
  8
0
 62
    15
 10
4.111800
 20
2.792680
 11
4.111800
 21
3.519120
 12
4.195400
 22
2.787400
 13
4.195400
 23
3.513840
  0
POLYLINE
  8
0
  6
CONTINUOUS
 66
     1
 40
0.000000
 41
0.000000
  0
VERTEX
  8
0
  6
CONTINUOUS
 10
4.111800
 20
2.792680
  0
VERTEX
  8
0
  6
CONTINUOUS
 10
4.111800
 20
3.519120
  0
VERTEX
  8
0
  6
CONTINUOUS
 10
4.195400
 20
3.513840
  0
VERTEX
  8
0
  6
CONTINUOUS
 10
4.195400
 20
2.787400
  0
VERTEX
  8
0
  6
CONTINUOUS
 10
4.111800
 20
2.792680
  0
SEQEND
  8
0
  0
SOLID
  8
0
 62
    15
 10
1.941280
 20
2.846360
 11
1.941280
 21
3.572800
 12
2.542320
 22
2.846360
 13
2.542320
 23
3.572800
  0
POLYLINE
  8
0
  6
CONTINUOUS
 66
     1
 40
0.000000
 41
0.000000
  0
VERTEX
  8
0
  6
CONTINUOUS
 10
1.941280
 20
2.846360
  0
VERTEX
  8
0
  6
CONTINUOUS
 10
1.941280
 20
3.572800
  0
VERTEX
  8
0
  6
CONTINUOUS
 10
2.542320
 20
3.572800
  0
VERTEX
  8
0
  6
CONTINUOUS
 10
2.542320
 20
2.846360
  0
VERTEX
  8
0
  6
CONTINUOUS
 10
1.941280
 20
2.846360
  0
SEQEND
  8
0
  0
SOLID
  8
0
 62
    15
 10
4.278560
 20
2.775080
 11
4.279000
 21
3.501520
 12
4.361280
 22
2.755280
 13
4.361280
 23
3.481720
  0
POLYLINE
  8
0
  6
CONTINUOUS
 66
     1
 40
0.000000
 41
0.000000
  0
VERTEX
  8
0
  6
CONTINUOUS
 10
4.278560
 20
2.775080
  0
VERTEX
  8
0
  6
CONTINUOUS
 10
4.279000
 20
3.501520
  0
VERTEX
  8
0
  6
CONTINUOUS
 10
4.361280
 20
3.481720
  0
VERTEX
  8
0
  6
CONTINUOUS
 10
4.361280
 20
2.755280
  0
VERTEX
  8
0
  6
CONTINUOUS
 10
4.278560
 20
2.775080
  0
SEQEND
  8
0
  0
SOLID
  8
0
 62
    15
 10
4.361280
 20
2.755280
 11
4.361280
 21
3.481720
 12
4.442680
 22
2.728880
 13
4.442680
 23
3.455320
  0
POLYLINE
  8
0
  6
CONTINUOUS
 66
     1
 40
0.000000
 41
0.000000
  0
VERTEX
  8
0
  6
CONTINUOUS
 10
4.361280
 20
2.755280
  0
VERTEX
  8
0
  6
CONTINUOUS
 10
4.361280
 20
3.481720
  0
VERTEX
  8
0
  6
CONTINUOUS
 10
4.442680
 20
3.455320
  0
VERTEX
  8
0
  6
CONTINUOUS
 10
4.442680
 20
2.728880
  0
VERTEX
  8
0
  6
CONTINUOUS
 10
4.361280
 20
2.755280
  0
SEQEND
  8
0
  0
SOLID
  8
0
 62
    15
 10
4.442680
 20
2.728880
 11
4.442680
 21
3.455320
 12
4.522320
 22
2.695440
 13
4.522320
 23
3.421880
  0
POLYLINE
  8
0
  6
CONTINUOUS
 66
     1
 40
0.000000
 41
0.000000
  0
VERTEX
  8
0
  6
CONTINUOUS
 10
4.442680
 20
2.728880
  0
VERTEX
  8
0
  6
CONTINUOUS
 10
4.442680
 20
3.455320
  0
VERTEX
  8
0
  6
CONTINUOUS
 10
4.522320
 20
3.421880
  0
VERTEX
  8
0
  6
CONTINUOUS
 10
4.522320
 20
2.695440
  0
VERTEX
  8
0
  6
CONTINUOUS
 10
4.442680
 20
2.728880
  0
SEQEND
  8
0
  0
SOLID
  8
0
 62
    15
 10
4.522320
 20
2.695440
 11
4.522320
 21
3.421880
 12
4.599760
 22
2.654960
 13
4.600200
 23
3.381400
  0
POLYLINE
  8
0
  6
CONTINUOUS
 66
     1
 40
0.000000
 41
0.000000
  0
VERTEX
  8
0
  6
CONTINUOUS
 10
4.522320
 20
2.695440
  0
VERTEX
  8
0
  6
CONTINUOUS
 10
4.522320
 20
3.421880
  0
VERTEX
  8
0
  6
CONTINUOUS
 10
4.600200
 20
3.381400
  0
VERTEX
  8
0
  6
CONTINUOUS
 10
4.599760
 20
2.654960
  0
VERTEX
  8
0
  6
CONTINUOUS
 10
4.522320
 20
2.695440
  0
SEQEND
  8
0
  0
SOLID
  8
0
 62
    15
 10
4.599760
 20
2.654960
 11
4.600200
 21
3.381400
 12
4.675000
 22
2.608760
 13
4.675440
 23
3.335200
  0
POLYLINE
  8
0
  6
CONTINUOUS
 66
     1
 40
0.000000
 41
0.000000
  0
VERTEX
  8
0
  6
CONTINUOUS
 10
4.599760
 20
2.654960
  0
VERTEX
  8
0
  6
CONTINUOUS
 10
4.600200
 20
3.381400
  0
VERTEX
  8
0
  6
CONTINUOUS
 10
4.675440
 20
3.335200
  0
VERTEX
  8
0
  6
CONTINUOUS
 10
4.675000
 20
2.608760
  0
VERTEX
  8
0
  6
CONTINUOUS
 10
4.599760
 20
2.654960
  0
SEQEND
  8
0
  0
SOLID
  8
0
 62
    15
 10
4.675000
 20
2.608760
 11
4.675440
 21
3.335200
 12
4.747600
 22
2.555520
 13
4.747600
 23
3.281960
  0
POLYLINE
  8
0
  6
CONTINUOUS
 66
     1
 40
0.000000
 41
0.000000
  0
VERTEX
  8
0
  6
CONTINUOUS
 10
4.675000
 20
2.608760
  0
VERTEX
  8
0
  6
CONTINUOUS
 10
4.675440
 20
3.335200
  0
VERTEX
  8
0
  6
CONTINUOUS
 10
4.747600
 20
3.281960
  0
VERTEX
  8
0
  6
CONTINUOUS
 10
4.747600
 20
2.555520
  0
VERTEX
  8
0
  6
CONTINUOUS
 10
4.675000
 20
2.608760
  0
SEQEND
  8
0
  0
SOLID
  8
0
 62
    15
 10
4.747600
 20
2.555520
 11
4.747600
 21
3.281960
 12
4.748920
 22
2.554200
 13
4.748920
 23
3.280640
  0
POLYLINE
  8
0
  6
CONTINUOUS
 66
     1
 40
0.000000
 41
0.000000
  0
VERTEX
  8
0
  6
CONTINUOUS
 10
4.747600
 20
2.555520
  0
VERTEX
  8
0
  6
CONTINUOUS
 10
4.747600
 20
3.281960
  0
VERTEX
  8
0
  6
CONTINUOUS
 10
4.748920
 20
3.280640
  0
VERTEX
  8
0
  6
CONTINUOUS
 10
4.748920
 20
2.554200
  0
VERTEX
  8
0
  6
CONTINUOUS
 10
4.747600
 20
2.555520
  0
SEQEND
  8
0
  0
SOLID
  8
0
 62
    15
 10
4.748920
 20
2.554200
 11
4.748920
 21
3.280640
 12
4.846160
 22
2.629000
 13
4.846160
 23
3.355440
  0
POLYLINE
  8
0
  6
CONTINUOUS
 66
     1
 40
0.000000
 41
0.000000
  0
VERTEX
  8
0
  6
CONTINUOUS
 10
4.748920
 20
2.554200
  0
VERTEX
  8
0
  6
CONTINUOUS
 10
4.748920
 20
3.280640
  0
VERTEX
  8
0
  6
CONTINUOUS
 10
4.846160
 20
3.355440
  0
VERTEX
  8
0
  6
CONTINUOUS
 10
4.846160
 20
2.629000
  0
VERTEX
  8
0
  6
CONTINUOUS
 10
4.748920
 20
2.554200
  0
SEQEND
  8
0
  0
SOLID
  8
0
 62
    15
 10
4.846160
 20
2.629000
 11
4.846160
 21
3.355440
 12
4.847480
 22
2.629000
 13
4.847480
 23
3.355440
  0
POLYLINE
  8
0
  6
CONTINUOUS
 66
     1
 40
0.000000
 41
0.000000
  0
VERTEX
  8
0
  6
CONTINUOUS
 10
4.846160
 20
2.629000
  0
VERTEX
  8
0
  6
CONTINUOUS
 10
4.846160
 20
3.355440
  0
VERTEX
  8
0
  6
CONTINUOUS
 10
4.847480
 20
3.355440
  0
VERTEX
  8
0
  6
CONTINUOUS
 10
4.847480
 20
2.629000
  0
VERTEX
  8
0
  6
CONTINUOUS
 10
4.846160
 20
2.629000
  0
SEQEND
  8
0
  0
SOLID
  8
0
 62
    15
 10
4.847480
 20
2.629000
 11
4.847480
 21
3.355440
 12
4.892360
 22
2.585000
 13
4.892360
 23
3.311440
  0
POLYLINE
  8
0
  6
CONTINUOUS
 66
     1
 40
0.000000
 41
0.000000
  0
VERTEX
  8
0
  6
CONTINUOUS
 10
4.847480
 20
2.629000
  0
VERTEX
  8
0
  6
CONTINUOUS
 10
4.847480
 20
3.355440
  0
VERTEX
  8
0
  6
CONTINUOUS
 10
4.892360
 20
3.311440
  0
VERTEX
  8
0
  6
CONTINUOUS
 10
4.892360
 20
2.585000
  0
VERTEX
  8
0
  6
CONTINUOUS
 10
4.847480
 20
2.629000
  0
SEQEND
  8
0
  0
SOLID
  8
0
 62
    15
 10
4.892360
 20
2.585000
 11
4.892360
 21
3.311440
 12
4.934600
 22
2.548920
 13
4.934600
 23
3.275360
  0
POLYLINE
  8
0
  6
CONTINUOUS
 66
     1
 40
0.000000
 41
0.000000
  0
VERTEX
  8
0
  6
CONTINUOUS
 10
4.892360
 20
2.585000
  0
VERTEX
  8
0
  6
CONTINUOUS
 10
4.892360
 20
3.311440
  0
VERTEX
  8
0
  6
CONTINUOUS
 10
4.934600
 20
3.275360
  0
VERTEX
  8
0
  6
CONTINUOUS
 10
4.934600
 20
2.548920
  0
VERTEX
  8
0
  6
CONTINUOUS
 10
4.892360
 20
2.585000
  0
SEQEND
  8
0
  0
SOLID
  8
0
 62
    15
 10
4.934600
 20
2.548920
 11
4.934600
 21
3.275360
 12
4.974640
 22
2.520760
 13
4.974640
 23
3.247200
  0
POLYLINE
  8
0
  6
CONTINUOUS
 66
     1
 40
0.000000
 41
0.000000
  0
VERTEX
  8
0
  6
CONTINUOUS
 10
4.934600
 20
2.548920
  0
VERTEX
  8
0
  6
CONTINUOUS
 10
4.934600
 20
3.275360
  0
VERTEX
  8
0
  6
CONTINUOUS
 10
4.974640
 20
3.247200
  0
VERTEX
  8
0
  6
CONTINUOUS
 10
4.974640
 20
2.520760
  0
VERTEX
  8
0
  6
CONTINUOUS
 10
4.934600
 20
2.548920
  0
SEQEND
  8
0
  0
SOLID
  8
0
 62
    15
 10
4.974640
 20
2.520760
 11
4.974640
 21
3.247200
 12
5.012480
 22
2.498760
 13
5.012480
 23
3.225200
  0
POLYLINE
  8
0
  6
CONTINUOUS
 66
     1
 40
0.000000
 41
0.000000
  0
VERTEX
  8
0
  6
CONTINUOUS
 10
4.974640
 20
2.520760
  0
VERTEX
  8
0
  6
CONTINUOUS
 10
4.974640
 20
3.247200
  0
VERTEX
  8
0
  6
CONTINUOUS
 10
5.012480
 20
3.225200
  0
VERTEX
  8
0
  6
CONTINUOUS
 10
5.012480
 20
2.498760
  0
VERTEX
  8
0
  6
CONTINUOUS
 10
4.974640
 20
2.520760
  0
SEQEND
  8
0
  0
SOLID
  8
0
 62
    15
 10
5.012480
 20
2.498760
 11
5.012480
 21
3.225200
 12
5.048560
 22
2.483800
 13
5.048560
 23
3.210240
  0
POLYLINE
  8
0
  6
CONTINUOUS
 66
     1
 40
0.000000
 41
0.000000
  0
VERTEX
  8
0
  6
CONTINUOUS
 10
5.012480
 20
2.498760
  0
VERTEX
  8
0
  6
CONTINUOUS
 10
5.012480
 20
3.225200
  0
VERTEX
  8
0
  6
CONTINUOUS
 10
5.048560
 20
3.210240
  0
VERTEX
  8
0
  6
CONTINUOUS
 10
5.048560
 20
2.483800
  0
VERTEX
  8
0
  6
CONTINUOUS
 10
5.012480
 20
2.498760
  0
SEQEND
  8
0
  0
SOLID
  8
0
 62
    15
 10
5.048560
 20
2.483800
 11
5.048560
 21
3.210240
 12
5.082440
 22
2.474560
 13
5.082440
 23
3.201000
  0
POLYLINE
  8
0
  6
CONTINUOUS
 66
     1
 40
0.000000
 41
0.000000
  0
VERTEX
  8
0
  6
CONTINUOUS
 10
5.048560
 20
2.483800
  0
VERTEX
  8
0
  6
CONTINUOUS
 10
5.048560
 20
3.210240
  0
VERTEX
  8
0
  6
CONTINUOUS
 10
5.082440
 20
3.201000
  0
VERTEX
  8
0
  6
CONTINUOUS
 10
5.082440
 20
2.474560
  0
VERTEX
  8
0
  6
CONTINUOUS
 10
5.048560
 20
2.483800
  0
SEQEND
  8
0
  0
SOLID
  8
0
 62
    15
 10
5.082440
 20
2.474560
 11
5.082440
 21
3.201000
 12
5.114560
 22
2.471040
 13
5.114560
 23
3.197480
  0
POLYLINE
  8
0
  6
CONTINUOUS
 66
     1
 40
0.000000
 41
0.000000
  0
VERTEX
  8
0
  6
CONTINUOUS
 10
5.082440
 20
2.474560
  0
VERTEX
  8
0
  6
CONTINUOUS
 10
5.082440
 20
3.201000
  0
VERTEX
  8
0
  6
CONTINUOUS
 10
5.114560
 20
3.197480
  0
VERTEX
  8
0
  6
CONTINUOUS
 10
5.114560
 20
2.471040
  0
VERTEX
  8
0
  6
CONTINUOUS
 10
5.082440
 20
2.474560
  0
SEQEND
  8
0
  0
SOLID
  8
0
 62
    15
 10
5.114560
 20
2.471040
 11
5.114560
 21
3.197480
 12
5.144920
 22
2.471920
 13
5.144920
 23
3.198360
  0
POLYLINE
  8
0
  6
CONTINUOUS
 66
     1
 40
0.000000
 41
0.000000
  0
VERTEX
  8
0
  6
CONTINUOUS
 10
5.114560
 20
2.471040
  0
VERTEX
  8
0
  6
CONTINUOUS
 10
5.114560
 20
3.197480
  0
VERTEX
  8
0
  6
CONTINUOUS
 10
5.144920
 20
3.198360
  0
VERTEX
  8
0
  6
CONTINUOUS
 10
5.144920
 20
2.471920
  0
VERTEX
  8
0
  6
CONTINUOUS
 10
5.114560
 20
2.471040
  0
SEQEND
  8
0
  0
SOLID
  8
0
 62
    15
 10
5.144920
 20
2.471920
 11
5.144920
 21
3.198360
 12
5.173520
 22
2.477640
 13
5.173520
 23
3.204080
  0
POLYLINE
  8
0
  6
CONTINUOUS
 66
     1
 40
0.000000
 41
0.000000
  0
VERTEX
  8
0
  6
CONTINUOUS
 10
5.144920
 20
2.471920
  0
VERTEX
  8
0
  6
CONTINUOUS
 10
5.144920
 20
3.198360
  0
VERTEX
  8
0
  6
CONTINUOUS
 10
5.173520
 20
3.204080
  0
VERTEX
  8
0
  6
CONTINUOUS
 10
5.173520
 20
2.477640
  0
VERTEX
  8
0
  6
CONTINUOUS
 10
5.144920
 20
2.471920
  0
SEQEND
  8
0
  0
SOLID
  8
0
 62
    15
 10
5.173520
 20
2.477640
 11
5.173520
 21
3.204080
 12
5.200800
 22
2.487320
 13
5.200800
 23
3.213760
  0
POLYLINE
  8
0
  6
CONTINUOUS
 66
     1
 40
0.000000
 41
0.000000
  0
VERTEX
  8
0
  6
CONTINUOUS
 10
5.173520
 20
2.477640
  0
VERTEX
  8
0
  6
CONTINUOUS
 10
5.173520
 20
3.204080
  0
VERTEX
  8
0
  6
CONTINUOUS
 10
5.200800
 20
3.213760
  0
VERTEX
  8
0
  6
CONTINUOUS
 10
5.200800
 20
2.487320
  0
VERTEX
  8
0
  6
CONTINUOUS
 10
5.173520
 20
2.477640
  0
SEQEND
  8
0
  0
SOLID
  8
0
 62
    15
 10
5.200800
 20
2.487320
 11
5.200800
 21
3.213760
 12
5.250960
 22
2.516360
 13
5.251400
 23
3.242800
  0
POLYLINE
  8
0
  6
CONTINUOUS
 66
     1
 40
0.000000
 41
0.000000
  0
VERTEX
  8
0
  6
CONTINUOUS
 10
5.200800
 20
2.487320
  0
VERTEX
  8
0
  6
CONTINUOUS
 10
5.200800
 20
3.213760
  0
VERTEX
  8
0
  6
CONTINUOUS
 10
5.251400
 20
3.242800
  0
VERTEX
  8
0
  6
CONTINUOUS
 10
5.250960
 20
2.516360
  0
VERTEX
  8
0
  6
CONTINUOUS
 10
5.200800
 20
2.487320
  0
SEQEND
  8
0
  0
SOLID
  8
0
 62
    15
 10
5.250960
 20
2.516360
 11
5.251400
 21
3.242800
 12
5.296720
 22
2.555080
 13
5.296720
 23
3.281520
  0
POLYLINE
  8
0
  6
CONTINUOUS
 66
     1
 40
0.000000
 41
0.000000
  0
VERTEX
  8
0
  6
CONTINUOUS
 10
5.250960
 20
2.516360
  0
VERTEX
  8
0
  6
CONTINUOUS
 10
5.251400
 20
3.242800
  0
VERTEX
  8
0
  6
CONTINUOUS
 10
5.296720
 20
3.281520
  0
VERTEX
  8
0
  6
CONTINUOUS
 10
5.296720
 20
2.555080
  0
VERTEX
  8
0
  6
CONTINUOUS
 10
5.250960
 20
2.516360
  0
SEQEND
  8
0
  0
SOLID
  8
0
 62
    15
 10
5.296720
 20
2.555080
 11
5.296720
 21
3.281520
 12
5.338520
 22
2.599520
 13
5.338520
 23
3.325960
  0
POLYLINE
  8
0
  6
CONTINUOUS
 66
     1
 40
0.000000
 41
0.000000
  0
VERTEX
  8
0
  6
CONTINUOUS
 10
5.296720
 20
2.555080
  0
VERTEX
  8
0
  6
CONTINUOUS
 10
5.296720
 20
3.281520
  0
VERTEX
  8
0
  6
CONTINUOUS
 10
5.338520
 20
3.325960
  0
VERTEX
  8
0
  6
CONTINUOUS
 10
5.338520
 20
2.599520
  0
VERTEX
  8
0
  6
CONTINUOUS
 10
5.296720
 20
2.555080
  0
SEQEND
  8
0
  0
SOLID
  8
0
 62
    15
 10
5.338520
 20
2.599520
 11
5.338520
 21
3.325960
 12
5.414200
 22
2.689720
 13
5.414200
 23
3.415720
  0
POLYLINE
  8
0
  6
CONTINUOUS
 66
     1
 40
0.000000
 41
0.000000
  0
VERTEX
  8
0
  6
CONTINUOUS
 10
5.338520
 20
2.599520
  0
VERTEX
  8
0
  6
CONTINUOUS
 10
5.338520
 20
3.325960
  0
VERTEX
  8
0
  6
CONTINUOUS
 10
5.414200
 20
3.415720
  0
VERTEX
  8
0
  6
CONTINUOUS
 10
5.414200
 20
2.689720
  0
VERTEX
  8
0
  6
CONTINUOUS
 10
5.338520
 20
2.599520
  0
SEQEND
  8
0
  0
SOLID
  8
0
 62
    15
 10
5.414200
 20
2.689720
 11
5.414200
 21
3.415720
 12
5.449840
 22
2.727120
 13
5.449840
 23
3.453560
  0
POLYLINE
  8
0
  6
CONTINUOUS
 66
     1
 40
0.000000
 41
0.000000
  0
VERTEX
  8
0
  6
CONTINUOUS
 10
5.414200
 20
2.689720
  0
VERTEX
  8
0
  6
CONTINUOUS
 10
5.414200
 20
3.415720
  0
VERTEX
  8
0
  6
CONTINUOUS
 10
5.449840
 20
3.453560
  0
VERTEX
  8
0
  6
CONTINUOUS
 10
5.449840
 20
2.727120
  0
VERTEX
  8
0
  6
CONTINUOUS
 10
5.414200
 20
2.689720
  0
SEQEND
  8
0
  0
SOLID
  8
0
 62
    15
 10
5.449840
 20
2.727120
 11
5.449840
 21
3.453560
 12
5.485040
 22
2.754400
 13
5.485040
 23
3.480840
  0
POLYLINE
  8
0
  6
CONTINUOUS
 66
     1
 40
0.000000
 41
0.000000
  0
VERTEX
  8
0
  6
CONTINUOUS
 10
5.449840
 20
2.727120
  0
VERTEX
  8
0
  6
CONTINUOUS
 10
5.449840
 20
3.453560
  0
VERTEX
  8
0
  6
CONTINUOUS
 10
5.485040
 20
3.480840
  0
VERTEX
  8
0
  6
CONTINUOUS
 10
5.485040
 20
2.754400
  0
VERTEX
  8
0
  6
CONTINUOUS
 10
5.449840
 20
2.727120
  0
SEQEND
  8
0
  0
SOLID
  8
0
 62
    15
 10
5.485040
 20
2.754400
 11
5.485040
 21
3.480840
 12
5.503080
 22
2.762760
 13
5.503080
 23
3.489200
  0
POLYLINE
  8
0
  6
CONTINUOUS
 66
     1
 40
0.000000
 41
0.000000
  0
VERTEX
  8
0
  6
CONTINUOUS
 10
5.485040
 20
2.754400
  0
VERTEX
  8
0
  6
CONTINUOUS
 10
5.485040
 20
3.480840
  0
VERTEX
  8
0
  6
CONTINUOUS
 10
5.503080
 20
3.489200
  0
VERTEX
  8
0
  6
CONTINUOUS
 10
5.503080
 20
2.762760
  0
VERTEX
  8
0
  6
CONTINUOUS
 10
5.485040
 20
2.754400
  0
SEQEND
  8
0
  0
SOLID
  8
0
 62
    15
 10
5.503080
 20
2.762760
 11
5.503080
 21
3.489200
 12
5.521120
 22
2.767160
 13
5.521120
 23
3.493600
  0
POLYLINE
  8
0
  6
CONTINUOUS
 66
     1
 40
0.000000
 41
0.000000
  0
VERTEX
  8
0
  6
CONTINUOUS
 10
5.503080
 20
2.762760
  0
VERTEX
  8
0
  6
CONTINUOUS
 10
5.503080
 20
3.489200
  0
VERTEX
  8
0
  6
CONTINUOUS
 10
5.521120
 20
3.493600
  0
VERTEX
  8
0
  6
CONTINUOUS
 10
5.521120
 20
2.767160
  0
VERTEX
  8
0
  6
CONTINUOUS
 10
5.503080
 20
2.762760
  0
SEQEND
  8
0
  0
SOLID
  8
0
 62
    15
 10
5.521120
 20
2.767160
 11
5.521120
 21
3.493600
 12
5.539160
 22
2.767160
 13
5.539160
 23
3.493600
  0
POLYLINE
  8
0
  6
CONTINUOUS
 66
     1
 40
0.000000
 41
0.000000
  0
VERTEX
  8
0
  6
CONTINUOUS
 10
5.521120
 20
2.767160
  0
VERTEX
  8
0
  6
CONTINUOUS
 10
5.521120
 20
3.493600
  0
VERTEX
  8
0
  6
CONTINUOUS
 10
5.539160
 20
3.493600
  0
VERTEX
  8
0
  6
CONTINUOUS
 10
5.539160
 20
2.767160
  0
VERTEX
  8
0
  6
CONTINUOUS
 10
5.521120
 20
2.767160
  0
SEQEND
  8
0
  0
SOLID
  8
0
 62
    15
 10
5.539160
 20
2.767160
 11
5.539160
 21
3.493600
 12
5.558080
 22
2.761880
 13
5.558520
 23
3.488320
  0
POLYLINE
  8
0
  6
CONTINUOUS
 66
     1
 40
0.000000
 41
0.000000
  0
VERTEX
  8
0
  6
CONTINUOUS
 10
5.539160
 20
2.767160
  0
VERTEX
  8
0
  6
CONTINUOUS
 10
5.539160
 20
3.493600
  0
VERTEX
  8
0
  6
CONTINUOUS
 10
5.558520
 20
3.488320
  0
VERTEX
  8
0
  6
CONTINUOUS
 10
5.558080
 20
2.761880
  0
VERTEX
  8
0
  6
CONTINUOUS
 10
5.539160
 20
2.767160
  0
SEQEND
  8
0
  0
SOLID
  8
0
 62
    15
 10
5.558080
 20
2.761880
 11
5.558520
 21
3.488320
 12
5.577880
 22
2.750880
 13
5.577880
 23
3.477320
  0
POLYLINE
  8
0
  6
CONTINUOUS
 66
     1
 40
0.000000
 41
0.000000
  0
VERTEX
  8
0
  6
CONTINUOUS
 10
5.558080
 20
2.761880
  0
VERTEX
  8
0
  6
CONTINUOUS
 10
5.558520
 20
3.488320
  0
VERTEX
  8
0
  6
CONTINUOUS
 10
5.577880
 20
3.477320
  0
VERTEX
  8
0
  6
CONTINUOUS
 10
5.577880
 20
2.750880
  0
VERTEX
  8
0
  6
CONTINUOUS
 10
5.558080
 20
2.761880
  0
SEQEND
  8
0
  0
SOLID
  8
0
 62
    15
 10
5.577880
 20
2.750880
 11
5.577880
 21
3.477320
 12
5.597680
 22
2.733720
 13
5.598120
 23
3.460160
  0
POLYLINE
  8
0
  6
CONTINUOUS
 66
     1
 40
0.000000
 41
0.000000
  0
VERTEX
  8
0
  6
CONTINUOUS
 10
5.577880
 20
2.750880
  0
VERTEX
  8
0
  6
CONTINUOUS
 10
5.577880
 20
3.477320
  0
VERTEX
  8
0
  6
CONTINUOUS
 10
5.598120
 20
3.460160
  0
VERTEX
  8
0
  6
CONTINUOUS
 10
5.597680
 20
2.733720
  0
VERTEX
  8
0
  6
CONTINUOUS
 10
5.577880
 20
2.750880
  0
SEQEND
  8
0
  0
SOLID
  8
0
 62
    15
 10
5.597680
 20
2.733720
 11
5.598120
 21
3.460160
 12
5.618800
 22
2.710400
 13
5.618800
 23
3.436840
  0
POLYLINE
  8
0
  6
CONTINUOUS
 66
     1
 40
0.000000
 41
0.000000
  0
VERTEX
  8
0
  6
CONTINUOUS
 10
5.597680
 20
2.733720
  0
VERTEX
  8
0
  6
CONTINUOUS
 10
5.598120
 20
3.460160
  0
VERTEX
  8
0
  6
CONTINUOUS
 10
5.618800
 20
3.436840
  0
VERTEX
  8
0
  6
CONTINUOUS
 10
5.618800
 20
2.710400
  0
VERTEX
  8
0
  6
CONTINUOUS
 10
5.597680
 20
2.733720
  0
SEQEND
  8
0
  0
SOLID
  8
0
 62
    15
 10
5.618800
 20
2.710400
 11
5.618800
 21
3.436840
 12
5.640800
 22
2.679600
 13
5.640800
 23
3.406040
  0
POLYLINE
  8
0
  6
CONTINUOUS
 66
     1
 40
0.000000
 41
0.000000
  0
VERTEX
  8
0
  6
CONTINUOUS
 10
5.618800
 20
2.710400
  0
VERTEX
  8
0
  6
CONTINUOUS
 10
5.618800
 20
3.436840
  0
VERTEX
  8
0
  6
CONTINUOUS
 10
5.640800
 20
3.406040
  0
VERTEX
  8
0
  6
CONTINUOUS
 10
5.640800
 20
2.679600
  0
VERTEX
  8
0
  6
CONTINUOUS
 10
5.618800
 20
2.710400
  0
SEQEND
  8
0
  0
SOLID
  8
0
 62
    15
 10
5.640800
 20
2.679600
 11
5.640800
 21
3.406040
 12
5.642120
 22
2.676960
 13
5.642120
 23
3.403400
  0
POLYLINE
  8
0
  6
CONTINUOUS
 66
     1
 40
0.000000
 41
0.000000
  0
VERTEX
  8
0
  6
CONTINUOUS
 10
5.640800
 20
2.679600
  0
VERTEX
  8
0
  6
CONTINUOUS
 10
5.640800
 20
3.406040
  0
VERTEX
  8
0
  6
CONTINUOUS
 10
5.642120
 20
3.403400
  0
VERTEX
  8
0
  6
CONTINUOUS
 10
5.642120
 20
2.676960
  0
VERTEX
  8
0
  6
CONTINUOUS
 10
5.640800
 20
2.679600
  0
SEQEND
  8
0
  0
SOLID
  8
0
 62
    15
 10
5.642120
 20
2.676960
 11
5.642120
 21
3.403400
 12
5.659280
 22
2.676960
 13
5.659720
 23
3.403400
  0
POLYLINE
  8
0
  6
CONTINUOUS
 66
     1
 40
0.000000
 41
0.000000
  0
VERTEX
  8
0
  6
CONTINUOUS
 10
5.642120
 20
2.676960
  0
VERTEX
  8
0
  6
CONTINUOUS
 10
5.642120
 20
3.403400
  0
VERTEX
  8
0
  6
CONTINUOUS
 10
5.659720
 20
3.403400
  0
VERTEX
  8
0
  6
CONTINUOUS
 10
5.659280
 20
2.676960
  0
VERTEX
  8
0
  6
CONTINUOUS
 10
5.642120
 20
2.676960
  0
SEQEND
  8
0
  0
SOLID
  8
0
 62
    15
 10
5.659280
 20
2.676960
 11
5.659720
 21
3.403400
 12
5.706360
 22
2.810280
 13
5.706360
 23
3.536720
  0
POLYLINE
  8
0
  6
CONTINUOUS
 66
     1
 40
0.000000
 41
0.000000
  0
VERTEX
  8
0
  6
CONTINUOUS
 10
5.659280
 20
2.676960
  0
VERTEX
  8
0
  6
CONTINUOUS
 10
5.659720
 20
3.403400
  0
VERTEX
  8
0
  6
CONTINUOUS
 10
5.706360
 20
3.536720
  0
VERTEX
  8
0
  6
CONTINUOUS
 10
5.706360
 20
2.810280
  0
VERTEX
  8
0
  6
CONTINUOUS
 10
5.659280
 20
2.676960
  0
SEQEND
  8
0
  0
SOLID
  8
0
 62
    15
 10
6.399360
 20
2.810280
 11
6.399360
 21
3.536720
 12
6.399360
 22
2.050400
 13
6.399360
 23
2.776840
  0
POLYLINE
  8
0
  6
CONTINUOUS
 66
     1
 40
0.000000
 41
0.000000
  0
VERTEX
  8
0
  6
CONTINUOUS
 10
6.399360
 20
2.810280
  0
VERTEX
  8
0
  6
CONTINUOUS
 10
6.399360
 20
3.536720
  0
VERTEX
  8
0
  6
CONTINUOUS
 10
6.399360
 20
2.776840
  0
VERTEX
  8
0
  6
CONTINUOUS
 10
6.399360
 20
2.050400
  0
VERTEX
  8
0
  6
CONTINUOUS
 10
6.399360
 20
2.810280
  0
SEQEND
  8
0
  0
SOLID
  8
0
 62
    15
 10
5.706360
 20
2.810280
 11
5.706360
 21
3.536720
 12
6.399360
 22
2.810280
 13
6.399360
 23
3.536720
  0
POLYLINE
  8
0
  6
CONTINUOUS
 66
     1
 40
0.000000
 41
0.000000
  0
VERTEX
  8
0
  6
CONTINUOUS
 10
5.706360
 20
2.810280
  0
VERTEX
  8
0
  6
CONTINUOUS
 10
5.706360
 20
3.536720
  0
VERTEX
  8
0
  6
CONTINUOUS
 10
6.399360
 20
3.536720
  0
VERTEX
  8
0
  6
CONTINUOUS
 10
6.399360
 20
2.810280
  0
VERTEX
  8
0
  6
CONTINUOUS
 10
5.706360
 20
2.810280
  0
SEQEND
  8
0
  0
POLYLINE
  8
0
  6
CONTINUOUS
 66
     1
 40
0.000000
 41
0.000000
  0
VERTEX
  8
0
  6
CONTINUOUS
 10
1.941280
 20
2.059640
  0
VERTEX
  8
0
  6
CONTINUOUS
 10
1.941280
 20
2.846360
  0
VERTEX
  8
0
  6
CONTINUOUS
 10
2.542320
 20
2.846360
  0
VERTEX
  8
0
  6
CONTINUOUS
 10
2.571800
 20
2.728880
  0
VERTEX
  8
0
  6
CONTINUOUS
 10
2.588960
 20
2.728880
  0
VERTEX
  8
0
  6
CONTINUOUS
 10
2.614480
 20
2.757480
  0
VERTEX
  8
0
  6
CONTINUOUS
 10
2.638680
 20
2.779040
  0
VERTEX
  8
0
  6
CONTINUOUS
 10
2.661560
 20
2.794440
  0
VERTEX
  8
0
  6
CONTINUOUS
 10
2.683120
 20
2.803680
  0
VERTEX
  8
0
  6
CONTINUOUS
 10
2.703800
 20
2.808080
  0
VERTEX
  8
0
  6
CONTINUOUS
 10
2.723160
 20
2.807200
  0
VERTEX
  8
0
  6
CONTINUOUS
 10
2.742080
 20
2.801920
  0
VERTEX
  8
0
  6
CONTINUOUS
 10
2.760120
 20
2.793120
  0
VERTEX
  8
0
  6
CONTINUOUS
 10
2.794880
 20
2.764960
  0
VERTEX
  8
0
  6
CONTINUOUS
 10
2.829200
 20
2.727560
  0
VERTEX
  8
0
  6
CONTINUOUS
 10
2.899160
 20
2.636920
  0
VERTEX
  8
0
  6
CONTINUOUS
 10
2.937880
 20
2.592040
  0
VERTEX
  8
0
  6
CONTINUOUS
 10
2.980120
 20
2.552440
  0
VERTEX
  8
0
  6
CONTINUOUS
 10
3.027640
 20
2.522080
  0
VERTEX
  8
0
  6
CONTINUOUS
 10
3.053160
 20
2.511080
  0
VERTEX
  8
0
  6
CONTINUOUS
 10
3.080880
 20
2.504040
  0
VERTEX
  8
0
  6
CONTINUOUS
 10
3.110360
 20
2.501400
  0
VERTEX
  8
0
  6
CONTINUOUS
 10
3.141600
 20
2.503160
  0
VERTEX
  8
0
  6
CONTINUOUS
 10
3.175040
 20
2.509760
  0
VERTEX
  8
0
  6
CONTINUOUS
 10
3.211120
 20
2.522080
  0
VERTEX
  8
0
  6
CONTINUOUS
 10
3.248960
 20
2.540560
  0
VERTEX
  8
0
  6
CONTINUOUS
 10
3.289880
 20
2.565640
  0
VERTEX
  8
0
  6
CONTINUOUS
 10
3.333440
 20
2.597760
  0
VERTEX
  8
0
  6
CONTINUOUS
 10
3.379640
 20
2.636920
  0
VERTEX
  8
0
  6
CONTINUOUS
 10
3.482160
 20
2.547600
  0
VERTEX
  8
0
  6
CONTINUOUS
 10
3.553000
 20
2.607880
  0
VERTEX
  8
0
  6
CONTINUOUS
 10
3.627360
 20
2.658920
  0
VERTEX
  8
0
  6
CONTINUOUS
 10
3.703920
 20
2.701600
  0
VERTEX
  8
0
  6
CONTINUOUS
 10
3.782680
 20
2.735920
  0
VERTEX
  8
0
  6
CONTINUOUS
 10
3.863200
 20
2.761880
  0
VERTEX
  8
0
  6
CONTINUOUS
 10
3.945480
 20
2.779920
  0
VERTEX
  8
0
  6
CONTINUOUS
 10
4.028200
 20
2.790040
  0
VERTEX
  8
0
  6
CONTINUOUS
 10
4.111800
 20
2.792680
  0
VERTEX
  8
0
  6
CONTINUOUS
 10
4.195400
 20
2.787400
  0
VERTEX
  8
0
  6
CONTINUOUS
 10
4.278560
 20
2.775080
  0
VERTEX
  8
0
  6
CONTINUOUS
 10
4.361280
 20
2.755280
  0
VERTEX
  8
0
  6
CONTINUOUS
 10
4.442680
 20
2.728880
  0
VERTEX
  8
0
  6
CONTINUOUS
 10
4.522320
 20
2.695440
  0
VERTEX
  8
0
  6
CONTINUOUS
 10
4.599760
 20
2.654960
  0
VERTEX
  8
0
  6
CONTINUOUS
 10
4.675000
 20
2.608760
  0
VERTEX
  8
0
  6
CONTINUOUS
 10
4.748920
 20
2.554200
  0
VERTEX
  8
0
  6
CONTINUOUS
 10
4.847480
 20
2.629000
  0
VERTEX
  8
0
  6
CONTINUOUS
 10
4.892360
 20
2.585000
  0
VERTEX
  8
0
  6
CONTINUOUS
 10
4.934600
 20
2.548920
  0
VERTEX
  8
0
  6
CONTINUOUS
 10
4.974640
 20
2.520760
  0
VERTEX
  8
0
  6
CONTINUOUS
 10
5.012480
 20
2.498760
  0
VERTEX
  8
0
  6
CONTINUOUS
 10
5.048560
 20
2.483800
  0
VERTEX
  8
0
  6
CONTINUOUS
 10
5.082440
 20
2.474560
  0
VERTEX
  8
0
  6
CONTINUOUS
 10
5.114560
 20
2.471040
  0
VERTEX
  8
0
  6
CONTINUOUS
 10
5.144920
 20
2.471920
  0
VERTEX
  8
0
  6
CONTINUOUS
 10
5.173520
 20
2.477640
  0
VERTEX
  8
0
  6
CONTINUOUS
 10
5.200800
 20
2.487320
  0
VERTEX
  8
0
  6
CONTINUOUS
 10
5.250960
 20
2.516360
  0
VERTEX
  8
0
  6
CONTINUOUS
 10
5.296720
 20
2.555080
  0
VERTEX
  8
0
  6
CONTINUOUS
 10
5.338520
 20
2.599520
  0
VERTEX
  8
0
  6
CONTINUOUS
 10
5.414200
 20
2.689720
  0
VERTEX
  8
0
  6
CONTINUOUS
 10
5.449840
 20
2.727120
  0
VERTEX
  8
0
  6
CONTINUOUS
 10
5.485040
 20
2.754400
  0
VERTEX
  8
0
  6
CONTINUOUS
 10
5.503080
 20
2.762760
  0
VERTEX
  8
0
  6
CONTINUOUS
 10
5.521120
 20
2.767160
  0
VERTEX
  8
0
  6
CONTINUOUS
 10
5.539160
 20
2.767160
  0
VERTEX
  8
0
  6
CONTINUOUS
 10
5.558080
 20
2.761880
  0
VERTEX
  8
0
  6
CONTINUOUS
 10
5.577880
 20
2.750880
  0
VERTEX
  8
0
  6
CONTINUOUS
 10
5.597680
 20
2.733720
  0
VERTEX
  8
0
  6
CONTINUOUS
 10
5.618800
 20
2.710400
  0
VERTEX
  8
0
  6
CONTINUOUS
 10
5.642120
 20
2.676960
  0
VERTEX
  8
0
  6
CONTINUOUS
 10
5.659280
 20
2.676960
  0
VERTEX
  8
0
  6
CONTINUOUS
 10
5.706360
 20
2.810280
  0
VERTEX
  8
0
  6
CONTINUOUS
 10
6.399360
 20
2.810280
  0
VERTEX
  8
0
  6
CONTINUOUS
 10
6.399360
 20
2.050400
  0
VERTEX
  8
0
  6
CONTINUOUS
 10
1.943920
 20
2.050400
  0
VERTEX
  8
0
  6
CONTINUOUS
 10
1.941280
 20
2.059640
  0
SEQEND
  8
0
  0
TEXT
  8
0
 10
3.876840
 20
1.812360
 40
0.138070
  1
BA  100
 41
1.000000
  7
SN0
 71
     0
 72
     5
 11
4.467752
 21
1.812360
  0
TEXT
  8
0
 10
3.674880
 20
1.620520
 40
0.138070
  1
3/4" x 4-7/16"
 41
1.000000
  7
SN0
 71
     0
 72
     5
 11
4.669624
 21
1.620520
  0
ENDSEC
  0
EOF
