  0
SECTION
  2
HEADER
  9
$ACADVER
  1
AC1006
  9
$EXTMIN
 10
2.717000
 20
0.706200
  9
$EXTMAX
 10
6.843760
 20
4.588760
  9
$LTSCALE
 40
0.044000
  9
$PDMODE
 70
    35
  9
$PDSIZE
 40
0.035200
  0
ENDSEC
  0
SECTION
  2
TABLES
  0
TABLE
  2
LTYPE
 70
     9
  0
LTYPE
  2
CONTINUOUS
 70
    64
  3
Solid line
 72
    65
 73
     0
 40
0.000000
  0
LTYPE
  2
DASHED
 70
    64
  3
__ __ __ __ __ __ __ __ __ __ __ __ __ __ __
 72
    65
 73
     2
 40
0.000330
 49
0.000220
 49
-0.000110
  0
LTYPE
  2
HIDDEN
 70
    64
  3
 _ _ _ _ _ _ _ _ _ _ _ _ _ _ _ _ _ _ _ _ _ _
 72
    65
 73
     2
 40
0.000165
 49
0.000110
 49
-0.000055
  0
LTYPE
  2
CENTER
 70
    64
  3
____ _ ____ _ ____ _ ____ _ ____ _ ____ _ ____
 72
    65
 73
     4
 40
0.000880
 49
0.000550
 49
-0.000110
 49
0.000110
 49
-0.000110
  0
LTYPE
  2
PHANTOM
 70
    64
  3
_____ _ _ _____ _ _ _____ _ _ _____ _ _ ____
 72
    65
 73
     6
 40
0.001100
 49
0.000550
 49
-0.000110
 49
0.000110
 49
-0.000110
 49
0.000110
 49
-0.000110
  0
LTYPE
  2
DOT
 70
    64
  3
...............................................
 72
    65
 73
     2
 40
0.000110
 49
0.000000
 49
-0.000110
  0
LTYPE
  2
DASHDOT
 70
    64
  3
__ . __ . __ . __ . __ . __ . __ . __ . __ . __
 72
    65
 73
     4
 40
0.000440
 49
0.000220
 49
-0.000110
 49
0.000000
 49
-0.000110
  0
LTYPE
  2
BORDER
 70
    64
  3
__ __ . __ __ . __ __ . __ __ . __ __ . __ __
 72
    65
 73
     6
 40
0.000770
 49
0.000220
 49
-0.000110
 49
0.000220
 49
-0.000110
 49
0.000000
 49
-0.000110
  0
LTYPE
  2
DIVIDE
 70
    64
  3
__ . . __ . . __ . . __ . . __ . . __ . . __
 72
    65
 73
     6
 40
0.000550
 49
0.000220
 49
-0.000110
 49
0.000000
 49
-0.000110
 49
0.000000
 49
-0.000110
  0
LTYPE
  2
DOTDOT
 70
    64
  3
 . .  . .  . .  . .  . .  . . 
 72
    65
 73
     5
 40
0.000242
 49
-0.000110
 49
0.000000
 49
-0.000110
 49
0.000000
 49
-0.000110
  0
ENDTAB
  0
TABLE
  2
STYLE
 70
     2
  0
STYLE
 70
     0
  2
SN0
 40
0.000000
 41
0.000440
 50
0.000000
 71
     0
 42
0.000000
  3
ROMAND
  0
STYLE
 70
    68
  2
SV0
 40
0.000000
 41
0.000440
 50
0.000000
 71
     0
 42
0.000000
  3
ROMAND
  0
ENDTAB
  0
TABLE
  2
LAYER
 70
     3
  0
LAYER
  2
FOREGROUND
 70
    64
 62
     7
  6
CONTINUOUS
  0
LAYER
  2
BACKGROUND
 70
    65
 62
    -7
  6
CONTINUOUS
  0
LAYER
  2
0
 70
    64
 62
     7
  6
CONTINUOUS
  0
ENDTAB
  0
ENDSEC
  0
SECTION
  2
ENTITIES
  0
POLYLINE
  8
FOREGROUND
  6
CONTINUOUS
 66
     1
 40
0.000000
 41
0.000000
  0
VERTEX
  8
FOREGROUND
  6
CONTINUOUS
 10
0.000000
 20
5.294960
  0
VERTEX
  8
FOREGROUND
  6
CONTINUOUS
 10
8.499920
 20
5.294960
  0
VERTEX
  8
FOREGROUND
  6
CONTINUOUS
 10
8.499920
 20
-5.705040
  0
VERTEX
  8
FOREGROUND
  6
CONTINUOUS
 10
0.000000
 20
-5.705040
  0
VERTEX
  8
FOREGROUND
  6
CONTINUOUS
 10
0.000000
 20
5.294960
  0
SEQEND
  8
0
  0
POLYLINE
  8
FOREGROUND
  6
CONTINUOUS
 66
     1
 40
0.000000
 41
0.000000
  0
VERTEX
  8
FOREGROUND
  6
CONTINUOUS
 10
0.000000
 20
5.294960
  0
VERTEX
  8
FOREGROUND
  6
CONTINUOUS
 10
8.499920
 20
5.294960
  0
VERTEX
  8
FOREGROUND
  6
CONTINUOUS
 10
8.499920
 20
-5.705040
  0
VERTEX
  8
FOREGROUND
  6
CONTINUOUS
 10
0.000000
 20
-5.705040
  0
VERTEX
  8
FOREGROUND
  6
CONTINUOUS
 10
0.000000
 20
5.294960
  0
SEQEND
  8
0
  0
POLYLINE
  8
0
  6
CONTINUOUS
 66
     1
 40
0.014080
 41
0.014080
  0
VERTEX
  8
0
  6
CONTINUOUS
 10
6.501440
 20
3.248520
  0
VERTEX
  8
0
  6
CONTINUOUS
 10
6.501440
 20
3.828880
  0
VERTEX
  8
0
  6
CONTINUOUS
 10
6.498360
 20
3.896640
  0
VERTEX
  8
0
  6
CONTINUOUS
 10
6.490880
 20
3.951200
  0
VERTEX
  8
0
  6
CONTINUOUS
 10
6.478560
 20
4.008400
  0
VERTEX
  8
0
  6
CONTINUOUS
 10
6.460960
 20
4.067360
  0
VERTEX
  8
0
  6
CONTINUOUS
 10
6.437200
 20
4.127640
  0
VERTEX
  8
0
  6
CONTINUOUS
 10
6.406400
 20
4.188360
  0
VERTEX
  8
0
  6
CONTINUOUS
 10
6.368120
 20
4.249520
  0
VERTEX
  8
0
  6
CONTINUOUS
 10
6.321480
 20
4.310240
  0
VERTEX
  8
0
  6
CONTINUOUS
 10
6.285840
 20
4.349840
  0
VERTEX
  8
0
  6
CONTINUOUS
 10
6.224240
 20
4.408360
  0
VERTEX
  8
0
  6
CONTINUOUS
 10
6.177600
 20
4.446200
  0
VERTEX
  8
0
  6
CONTINUOUS
 10
6.107640
 20
4.484920
  0
VERTEX
  8
0
  6
CONTINUOUS
 10
6.027120
 20
4.523200
  0
VERTEX
  8
0
  6
CONTINUOUS
 10
5.962880
 20
4.548280
  0
VERTEX
  8
0
  6
CONTINUOUS
 10
5.898200
 20
4.567200
  0
VERTEX
  8
0
  6
CONTINUOUS
 10
5.855520
 20
4.575120
  0
VERTEX
  8
0
  6
CONTINUOUS
 10
5.814600
 20
4.578200
  0
VERTEX
  8
0
  6
CONTINUOUS
 10
5.775880
 20
4.576000
  0
VERTEX
  8
0
  6
CONTINUOUS
 10
5.739800
 20
4.567640
  0
VERTEX
  8
0
  6
CONTINUOUS
 10
5.707680
 20
4.552240
  0
VERTEX
  8
0
  6
CONTINUOUS
 10
5.692720
 20
4.541680
  0
VERTEX
  8
0
  6
CONTINUOUS
 10
5.672920
 20
4.521880
  0
VERTEX
  8
0
  6
CONTINUOUS
 10
5.656200
 20
4.497240
  0
VERTEX
  8
0
  6
CONTINUOUS
 10
5.642120
 20
4.467320
  0
VERTEX
  8
0
  6
CONTINUOUS
 10
5.632000
 20
4.431680
  0
VERTEX
  8
0
  6
CONTINUOUS
 10
5.627160
 20
4.404840
  0
VERTEX
  8
0
  6
CONTINUOUS
 10
5.625840
 20
4.403520
  0
VERTEX
  8
0
  6
CONTINUOUS
 10
5.504400
 20
4.403520
  0
VERTEX
  8
0
  6
CONTINUOUS
 10
5.503960
 20
4.435200
  0
VERTEX
  8
0
  6
CONTINUOUS
 10
5.499560
 20
4.455880
  0
VERTEX
  8
0
  6
CONTINUOUS
 10
5.485920
 20
4.483600
  0
VERTEX
  8
0
  6
CONTINUOUS
 10
5.472720
 20
4.499000
  0
VERTEX
  8
0
  6
CONTINUOUS
 10
5.456440
 20
4.512200
  0
VERTEX
  8
0
  6
CONTINUOUS
 10
5.438400
 20
4.521880
  0
VERTEX
  8
0
  6
CONTINUOUS
 10
5.418600
 20
4.528040
  0
VERTEX
  8
0
  6
CONTINUOUS
 10
5.397480
 20
4.530240
  0
VERTEX
  8
0
  6
CONTINUOUS
 10
5.376360
 20
4.528040
  0
VERTEX
  8
0
  6
CONTINUOUS
 10
5.356560
 20
4.521440
  0
VERTEX
  8
0
  6
CONTINUOUS
 10
5.338520
 20
4.511760
  0
VERTEX
  8
0
  6
CONTINUOUS
 10
5.322680
 20
4.498560
  0
VERTEX
  8
0
  6
CONTINUOUS
 10
5.309480
 20
4.482280
  0
VERTEX
  8
0
  6
CONTINUOUS
 10
5.295840
 20
4.454560
  0
VERTEX
  8
0
  6
CONTINUOUS
 10
5.291440
 20
4.433880
  0
VERTEX
  8
0
  6
CONTINUOUS
 10
5.291000
 20
4.403520
  0
VERTEX
  8
0
  6
CONTINUOUS
 10
5.189800
 20
4.403520
  0
VERTEX
  8
0
  6
CONTINUOUS
 10
5.187160
 20
4.404840
  0
VERTEX
  8
0
  6
CONTINUOUS
 10
5.186280
 20
4.436520
  0
VERTEX
  8
0
  6
CONTINUOUS
 10
5.181880
 20
4.457200
  0
VERTEX
  8
0
  6
CONTINUOUS
 10
5.168240
 20
4.484920
  0
VERTEX
  8
0
  6
CONTINUOUS
 10
5.155040
 20
4.500320
  0
VERTEX
  8
0
  6
CONTINUOUS
 10
5.139200
 20
4.513520
  0
VERTEX
  8
0
  6
CONTINUOUS
 10
5.121160
 20
4.523200
  0
VERTEX
  8
0
  6
CONTINUOUS
 10
5.101360
 20
4.529360
  0
VERTEX
  8
0
  6
CONTINUOUS
 10
5.080240
 20
4.531560
  0
VERTEX
  8
0
  6
CONTINUOUS
 10
5.059120
 20
4.529360
  0
VERTEX
  8
0
  6
CONTINUOUS
 10
5.039320
 20
4.522760
  0
VERTEX
  8
0
  6
CONTINUOUS
 10
5.021280
 20
4.513080
  0
VERTEX
  8
0
  6
CONTINUOUS
 10
5.005440
 20
4.499880
  0
VERTEX
  8
0
  6
CONTINUOUS
 10
4.992240
 20
4.483600
  0
VERTEX
  8
0
  6
CONTINUOUS
 10
4.978600
 20
4.455880
  0
VERTEX
  8
0
  6
CONTINUOUS
 10
4.974200
 20
4.435200
  0
VERTEX
  8
0
  6
CONTINUOUS
 10
4.973760
 20
4.403520
  0
VERTEX
  8
0
  6
CONTINUOUS
 10
4.857600
 20
4.403520
  0
VERTEX
  8
0
  6
CONTINUOUS
 10
4.857160
 20
4.435200
  0
VERTEX
  8
0
  6
CONTINUOUS
 10
4.852760
 20
4.455880
  0
VERTEX
  8
0
  6
CONTINUOUS
 10
4.839120
 20
4.483600
  0
VERTEX
  8
0
  6
CONTINUOUS
 10
4.825920
 20
4.499000
  0
VERTEX
  8
0
  6
CONTINUOUS
 10
4.810080
 20
4.512200
  0
VERTEX
  8
0
  6
CONTINUOUS
 10
4.792040
 20
4.521880
  0
VERTEX
  8
0
  6
CONTINUOUS
 10
4.772240
 20
4.528040
  0
VERTEX
  8
0
  6
CONTINUOUS
 10
4.751120
 20
4.530240
  0
VERTEX
  8
0
  6
CONTINUOUS
 10
4.730000
 20
4.528040
  0
VERTEX
  8
0
  6
CONTINUOUS
 10
4.710200
 20
4.521440
  0
VERTEX
  8
0
  6
CONTINUOUS
 10
4.692160
 20
4.511760
  0
VERTEX
  8
0
  6
CONTINUOUS
 10
4.675880
 20
4.498560
  0
VERTEX
  8
0
  6
CONTINUOUS
 10
4.662680
 20
4.482280
  0
VERTEX
  8
0
  6
CONTINUOUS
 10
4.649040
 20
4.454560
  0
VERTEX
  8
0
  6
CONTINUOUS
 10
4.644640
 20
4.433880
  0
VERTEX
  8
0
  6
CONTINUOUS
 10
4.644200
 20
4.403520
  0
VERTEX
  8
0
  6
CONTINUOUS
 10
4.537720
 20
4.403520
  0
VERTEX
  8
0
  6
CONTINUOUS
 10
4.537280
 20
4.435200
  0
VERTEX
  8
0
  6
CONTINUOUS
 10
4.532880
 20
4.455880
  0
VERTEX
  8
0
  6
CONTINUOUS
 10
4.519240
 20
4.483600
  0
VERTEX
  8
0
  6
CONTINUOUS
 10
4.506040
 20
4.499000
  0
VERTEX
  8
0
  6
CONTINUOUS
 10
4.489760
 20
4.512200
  0
VERTEX
  8
0
  6
CONTINUOUS
 10
4.471720
 20
4.521880
  0
VERTEX
  8
0
  6
CONTINUOUS
 10
4.451920
 20
4.528040
  0
VERTEX
  8
0
  6
CONTINUOUS
 10
4.430800
 20
4.530240
  0
VERTEX
  8
0
  6
CONTINUOUS
 10
4.409680
 20
4.528040
  0
VERTEX
  8
0
  6
CONTINUOUS
 10
4.389880
 20
4.521440
  0
VERTEX
  8
0
  6
CONTINUOUS
 10
4.371840
 20
4.511760
  0
VERTEX
  8
0
  6
CONTINUOUS
 10
4.356000
 20
4.498560
  0
VERTEX
  8
0
  6
CONTINUOUS
 10
4.342800
 20
4.482280
  0
VERTEX
  8
0
  6
CONTINUOUS
 10
4.329160
 20
4.454560
  0
VERTEX
  8
0
  6
CONTINUOUS
 10
4.324760
 20
4.433880
  0
VERTEX
  8
0
  6
CONTINUOUS
 10
4.324320
 20
4.404840
  0
VERTEX
  8
0
  6
CONTINUOUS
 10
4.214760
 20
4.404840
  0
VERTEX
  8
0
  6
CONTINUOUS
 10
4.214320
 20
4.436520
  0
VERTEX
  8
0
  6
CONTINUOUS
 10
4.209920
 20
4.457200
  0
VERTEX
  8
0
  6
CONTINUOUS
 10
4.196280
 20
4.484920
  0
VERTEX
  8
0
  6
CONTINUOUS
 10
4.183080
 20
4.500320
  0
VERTEX
  8
0
  6
CONTINUOUS
 10
4.167240
 20
4.513520
  0
VERTEX
  8
0
  6
CONTINUOUS
 10
4.149200
 20
4.523200
  0
VERTEX
  8
0
  6
CONTINUOUS
 10
4.129400
 20
4.529360
  0
VERTEX
  8
0
  6
CONTINUOUS
 10
4.108280
 20
4.531560
  0
VERTEX
  8
0
  6
CONTINUOUS
 10
4.087160
 20
4.529360
  0
VERTEX
  8
0
  6
CONTINUOUS
 10
4.067360
 20
4.522760
  0
VERTEX
  8
0
  6
CONTINUOUS
 10
4.049320
 20
4.513080
  0
VERTEX
  8
0
  6
CONTINUOUS
 10
4.033480
 20
4.499880
  0
VERTEX
  8
0
  6
CONTINUOUS
 10
4.020280
 20
4.483600
  0
VERTEX
  8
0
  6
CONTINUOUS
 10
4.006640
 20
4.455880
  0
VERTEX
  8
0
  6
CONTINUOUS
 10
4.002240
 20
4.435200
  0
VERTEX
  8
0
  6
CONTINUOUS
 10
4.001800
 20
4.404840
  0
VERTEX
  8
0
  6
CONTINUOUS
 10
3.905440
 20
4.404840
  0
VERTEX
  8
0
  6
CONTINUOUS
 10
3.897520
 20
4.444440
  0
VERTEX
  8
0
  6
CONTINUOUS
 10
3.886960
 20
4.477880
  0
VERTEX
  8
0
  6
CONTINUOUS
 10
3.872880
 20
4.506480
  0
VERTEX
  8
0
  6
CONTINUOUS
 10
3.856160
 20
4.529800
  0
VERTEX
  8
0
  6
CONTINUOUS
 10
3.843840
 20
4.542560
  0
VERTEX
  8
0
  6
CONTINUOUS
 10
3.830200
 20
4.553560
  0
VERTEX
  8
0
  6
CONTINUOUS
 10
3.815680
 20
4.562360
  0
VERTEX
  8
0
  6
CONTINUOUS
 10
3.799840
 20
4.569400
  0
VERTEX
  8
0
  6
CONTINUOUS
 10
3.766840
 20
4.578640
  0
VERTEX
  8
0
  6
CONTINUOUS
 10
3.730760
 20
4.580840
  0
VERTEX
  8
0
  6
CONTINUOUS
 10
3.692480
 20
4.577760
  0
VERTEX
  8
0
  6
CONTINUOUS
 10
3.672680
 20
4.574680
  0
VERTEX
  8
0
  6
CONTINUOUS
 10
3.611520
 20
4.557520
  0
VERTEX
  8
0
  6
CONTINUOUS
 10
3.549480
 20
4.532440
  0
VERTEX
  8
0
  6
CONTINUOUS
 10
3.488320
 20
4.502080
  0
VERTEX
  8
0
  6
CONTINUOUS
 10
3.448720
 20
4.480080
  0
VERTEX
  8
0
  6
CONTINUOUS
 10
3.376120
 20
4.433880
  0
VERTEX
  8
0
  6
CONTINUOUS
 10
3.314960
 20
4.377120
  0
VERTEX
  8
0
  6
CONTINUOUS
 10
3.259520
 20
4.318600
  0
VERTEX
  8
0
  6
CONTINUOUS
 10
3.210240
 20
4.259200
  0
VERTEX
  8
0
  6
CONTINUOUS
 10
3.153480
 20
4.179560
  0
VERTEX
  8
0
  6
CONTINUOUS
 10
3.118280
 20
4.119280
  0
VERTEX
  8
0
  6
CONTINUOUS
 10
3.088800
 20
4.060320
  0
VERTEX
  8
0
  6
CONTINUOUS
 10
3.072520
 20
4.021600
  0
VERTEX
  8
0
  6
CONTINUOUS
 10
3.053160
 20
3.964840
  0
VERTEX
  8
0
  6
CONTINUOUS
 10
3.039520
 20
3.909840
  0
VERTEX
  8
0
  6
CONTINUOUS
 10
3.032480
 20
3.857920
  0
VERTEX
  8
0
  6
CONTINUOUS
 10
3.031160
 20
3.824920
  0
VERTEX
  8
0
  6
CONTINUOUS
 10
3.031160
 20
3.244560
  0
VERTEX
  8
0
  6
CONTINUOUS
 10
3.028520
 20
3.239280
  0
VERTEX
  8
0
  6
CONTINUOUS
 10
6.503200
 20
3.239280
  0
VERTEX
  8
0
  6
CONTINUOUS
 10
6.503200
 20
3.264800
  0
VERTEX
  8
0
  6
CONTINUOUS
 10
6.501440
 20
3.248520
  0
SEQEND
  8
0
  0
SOLID
  8
0
 62
    15
 10
4.546960
 20
2.386120
 11
5.198160
 21
2.772000
 12
4.662680
 22
2.386120
 13
5.314320
 23
2.772000
  0
POLYLINE
  8
0
  6
CONTINUOUS
 66
     1
 40
0.000000
 41
0.000000
  0
VERTEX
  8
0
  6
CONTINUOUS
 10
4.546960
 20
2.386120
  0
VERTEX
  8
0
  6
CONTINUOUS
 10
5.198160
 20
2.772000
  0
VERTEX
  8
0
  6
CONTINUOUS
 10
5.314320
 20
2.772000
  0
VERTEX
  8
0
  6
CONTINUOUS
 10
4.662680
 20
2.386120
  0
VERTEX
  8
0
  6
CONTINUOUS
 10
4.546960
 20
2.386120
  0
SEQEND
  8
0
  0
SOLID
  8
0
 62
    15
 10
3.138080
 20
2.462680
 11
3.789720
 21
2.848560
 12
3.218160
 22
2.505800
 13
3.869360
 23
2.891680
  0
POLYLINE
  8
0
  6
CONTINUOUS
 66
     1
 40
0.000000
 41
0.000000
  0
VERTEX
  8
0
  6
CONTINUOUS
 10
3.138080
 20
2.462680
  0
VERTEX
  8
0
  6
CONTINUOUS
 10
3.789720
 20
2.848560
  0
VERTEX
  8
0
  6
CONTINUOUS
 10
3.869360
 20
2.891680
  0
VERTEX
  8
0
  6
CONTINUOUS
 10
3.218160
 20
2.505800
  0
VERTEX
  8
0
  6
CONTINUOUS
 10
3.138080
 20
2.462680
  0
SEQEND
  8
0
  0
SOLID
  8
0
 62
    15
 10
3.218160
 20
2.505800
 11
3.869360
 21
2.891680
 12
3.300880
 22
2.540560
 13
3.952080
 23
2.926440
  0
POLYLINE
  8
0
  6
CONTINUOUS
 66
     1
 40
0.000000
 41
0.000000
  0
VERTEX
  8
0
  6
CONTINUOUS
 10
3.218160
 20
2.505800
  0
VERTEX
  8
0
  6
CONTINUOUS
 10
3.869360
 20
2.891680
  0
VERTEX
  8
0
  6
CONTINUOUS
 10
3.952080
 20
2.926440
  0
VERTEX
  8
0
  6
CONTINUOUS
 10
3.300880
 20
2.540560
  0
VERTEX
  8
0
  6
CONTINUOUS
 10
3.218160
 20
2.505800
  0
SEQEND
  8
0
  0
SOLID
  8
0
 62
    15
 10
3.300880
 20
2.540560
 11
3.952080
 21
2.926440
 12
3.381840
 22
2.560800
 13
4.033040
 23
2.946680
  0
POLYLINE
  8
0
  6
CONTINUOUS
 66
     1
 40
0.000000
 41
0.000000
  0
VERTEX
  8
0
  6
CONTINUOUS
 10
3.300880
 20
2.540560
  0
VERTEX
  8
0
  6
CONTINUOUS
 10
3.952080
 20
2.926440
  0
VERTEX
  8
0
  6
CONTINUOUS
 10
4.033040
 20
2.946680
  0
VERTEX
  8
0
  6
CONTINUOUS
 10
3.381840
 20
2.560800
  0
VERTEX
  8
0
  6
CONTINUOUS
 10
3.300880
 20
2.540560
  0
SEQEND
  8
0
  0
SOLID
  8
0
 62
    15
 10
3.381840
 20
2.560800
 11
4.033040
 21
2.946680
 12
3.456200
 22
2.561240
 13
4.107400
 23
2.947120
  0
POLYLINE
  8
0
  6
CONTINUOUS
 66
     1
 40
0.000000
 41
0.000000
  0
VERTEX
  8
0
  6
CONTINUOUS
 10
3.381840
 20
2.560800
  0
VERTEX
  8
0
  6
CONTINUOUS
 10
4.033040
 20
2.946680
  0
VERTEX
  8
0
  6
CONTINUOUS
 10
4.107400
 20
2.947120
  0
VERTEX
  8
0
  6
CONTINUOUS
 10
3.456200
 20
2.561240
  0
VERTEX
  8
0
  6
CONTINUOUS
 10
3.381840
 20
2.560800
  0
SEQEND
  8
0
  0
SOLID
  8
0
 62
    15
 10
3.456200
 20
2.561240
 11
4.107400
 21
2.947120
 12
3.489200
 22
2.552440
 13
4.140840
 23
2.938320
  0
POLYLINE
  8
0
  6
CONTINUOUS
 66
     1
 40
0.000000
 41
0.000000
  0
VERTEX
  8
0
  6
CONTINUOUS
 10
3.456200
 20
2.561240
  0
VERTEX
  8
0
  6
CONTINUOUS
 10
4.107400
 20
2.947120
  0
VERTEX
  8
0
  6
CONTINUOUS
 10
4.140840
 20
2.938320
  0
VERTEX
  8
0
  6
CONTINUOUS
 10
3.489200
 20
2.552440
  0
VERTEX
  8
0
  6
CONTINUOUS
 10
3.456200
 20
2.561240
  0
SEQEND
  8
0
  0
SOLID
  8
0
 62
    15
 10
3.489200
 20
2.552440
 11
4.140840
 21
2.938320
 12
3.519560
 22
2.536160
 13
4.170760
 23
2.922480
  0
POLYLINE
  8
0
  6
CONTINUOUS
 66
     1
 40
0.000000
 41
0.000000
  0
VERTEX
  8
0
  6
CONTINUOUS
 10
3.489200
 20
2.552440
  0
VERTEX
  8
0
  6
CONTINUOUS
 10
4.140840
 20
2.938320
  0
VERTEX
  8
0
  6
CONTINUOUS
 10
4.170760
 20
2.922480
  0
VERTEX
  8
0
  6
CONTINUOUS
 10
3.519560
 20
2.536160
  0
VERTEX
  8
0
  6
CONTINUOUS
 10
3.489200
 20
2.552440
  0
SEQEND
  8
0
  0
SOLID
  8
0
 62
    15
 10
3.519560
 20
2.536160
 11
4.170760
 21
2.922480
 12
3.545520
 22
2.512400
 13
4.196720
 23
2.898720
  0
POLYLINE
  8
0
  6
CONTINUOUS
 66
     1
 40
0.000000
 41
0.000000
  0
VERTEX
  8
0
  6
CONTINUOUS
 10
3.519560
 20
2.536160
  0
VERTEX
  8
0
  6
CONTINUOUS
 10
4.170760
 20
2.922480
  0
VERTEX
  8
0
  6
CONTINUOUS
 10
4.196720
 20
2.898720
  0
VERTEX
  8
0
  6
CONTINUOUS
 10
3.545520
 20
2.512400
  0
VERTEX
  8
0
  6
CONTINUOUS
 10
3.519560
 20
2.536160
  0
SEQEND
  8
0
  0
SOLID
  8
0
 62
    15
 10
3.545520
 20
2.512400
 11
4.196720
 21
2.898720
 12
3.567080
 22
2.480280
 13
4.218720
 23
2.866160
  0
POLYLINE
  8
0
  6
CONTINUOUS
 66
     1
 40
0.000000
 41
0.000000
  0
VERTEX
  8
0
  6
CONTINUOUS
 10
3.545520
 20
2.512400
  0
VERTEX
  8
0
  6
CONTINUOUS
 10
4.196720
 20
2.898720
  0
VERTEX
  8
0
  6
CONTINUOUS
 10
4.218720
 20
2.866160
  0
VERTEX
  8
0
  6
CONTINUOUS
 10
3.567080
 20
2.480280
  0
VERTEX
  8
0
  6
CONTINUOUS
 10
3.545520
 20
2.512400
  0
SEQEND
  8
0
  0
SOLID
  8
0
 62
    15
 10
3.567080
 20
2.480280
 11
4.218720
 21
2.866160
 12
3.583800
 22
2.438920
 13
4.235000
 23
2.824800
  0
POLYLINE
  8
0
  6
CONTINUOUS
 66
     1
 40
0.000000
 41
0.000000
  0
VERTEX
  8
0
  6
CONTINUOUS
 10
3.567080
 20
2.480280
  0
VERTEX
  8
0
  6
CONTINUOUS
 10
4.218720
 20
2.866160
  0
VERTEX
  8
0
  6
CONTINUOUS
 10
4.235000
 20
2.824800
  0
VERTEX
  8
0
  6
CONTINUOUS
 10
3.583800
 20
2.438920
  0
VERTEX
  8
0
  6
CONTINUOUS
 10
3.567080
 20
2.480280
  0
SEQEND
  8
0
  0
SOLID
  8
0
 62
    15
 10
3.583800
 20
2.438920
 11
4.235000
 21
2.824800
 12
3.594800
 22
2.387440
 13
4.246440
 23
2.773320
  0
POLYLINE
  8
0
  6
CONTINUOUS
 66
     1
 40
0.000000
 41
0.000000
  0
VERTEX
  8
0
  6
CONTINUOUS
 10
3.583800
 20
2.438920
  0
VERTEX
  8
0
  6
CONTINUOUS
 10
4.235000
 20
2.824800
  0
VERTEX
  8
0
  6
CONTINUOUS
 10
4.246440
 20
2.773320
  0
VERTEX
  8
0
  6
CONTINUOUS
 10
3.594800
 20
2.387440
  0
VERTEX
  8
0
  6
CONTINUOUS
 10
3.583800
 20
2.438920
  0
SEQEND
  8
0
  0
SOLID
  8
0
 62
    15
 10
3.594800
 20
2.387440
 11
4.246440
 21
2.773320
 12
3.690720
 22
2.387440
 13
4.342360
 23
2.773320
  0
POLYLINE
  8
0
  6
CONTINUOUS
 66
     1
 40
0.000000
 41
0.000000
  0
VERTEX
  8
0
  6
CONTINUOUS
 10
3.594800
 20
2.387440
  0
VERTEX
  8
0
  6
CONTINUOUS
 10
4.246440
 20
2.773320
  0
VERTEX
  8
0
  6
CONTINUOUS
 10
4.342360
 20
2.773320
  0
VERTEX
  8
0
  6
CONTINUOUS
 10
3.690720
 20
2.387440
  0
VERTEX
  8
0
  6
CONTINUOUS
 10
3.594800
 20
2.387440
  0
SEQEND
  8
0
  0
SOLID
  8
0
 62
    15
 10
3.756720
 20
2.505360
 11
4.407920
 21
2.891680
 12
3.797640
 22
2.514160
 13
4.448840
 23
2.900040
  0
POLYLINE
  8
0
  6
CONTINUOUS
 66
     1
 40
0.000000
 41
0.000000
  0
VERTEX
  8
0
  6
CONTINUOUS
 10
3.756720
 20
2.505360
  0
VERTEX
  8
0
  6
CONTINUOUS
 10
4.407920
 20
2.891680
  0
VERTEX
  8
0
  6
CONTINUOUS
 10
4.448840
 20
2.900040
  0
VERTEX
  8
0
  6
CONTINUOUS
 10
3.797640
 20
2.514160
  0
VERTEX
  8
0
  6
CONTINUOUS
 10
3.756720
 20
2.505360
  0
SEQEND
  8
0
  0
SOLID
  8
0
 62
    15
 10
3.797640
 20
2.514160
 11
4.448840
 21
2.900040
 12
3.838560
 22
2.505800
 13
4.489760
 23
2.891680
  0
POLYLINE
  8
0
  6
CONTINUOUS
 66
     1
 40
0.000000
 41
0.000000
  0
VERTEX
  8
0
  6
CONTINUOUS
 10
3.797640
 20
2.514160
  0
VERTEX
  8
0
  6
CONTINUOUS
 10
4.448840
 20
2.900040
  0
VERTEX
  8
0
  6
CONTINUOUS
 10
4.489760
 20
2.891680
  0
VERTEX
  8
0
  6
CONTINUOUS
 10
3.838560
 20
2.505800
  0
VERTEX
  8
0
  6
CONTINUOUS
 10
3.797640
 20
2.514160
  0
SEQEND
  8
0
  0
SOLID
  8
0
 62
    15
 10
3.838560
 20
2.505800
 11
4.489760
 21
2.891680
 12
3.872440
 22
2.482920
 13
4.523640
 23
2.868800
  0
POLYLINE
  8
0
  6
CONTINUOUS
 66
     1
 40
0.000000
 41
0.000000
  0
VERTEX
  8
0
  6
CONTINUOUS
 10
3.838560
 20
2.505800
  0
VERTEX
  8
0
  6
CONTINUOUS
 10
4.489760
 20
2.891680
  0
VERTEX
  8
0
  6
CONTINUOUS
 10
4.523640
 20
2.868800
  0
VERTEX
  8
0
  6
CONTINUOUS
 10
3.872440
 20
2.482920
  0
VERTEX
  8
0
  6
CONTINUOUS
 10
3.838560
 20
2.505800
  0
SEQEND
  8
0
  0
SOLID
  8
0
 62
    15
 10
3.872440
 20
2.482920
 11
4.523640
 21
2.868800
 12
3.895760
 22
2.449480
 13
4.546960
 23
2.835360
  0
POLYLINE
  8
0
  6
CONTINUOUS
 66
     1
 40
0.000000
 41
0.000000
  0
VERTEX
  8
0
  6
CONTINUOUS
 10
3.872440
 20
2.482920
  0
VERTEX
  8
0
  6
CONTINUOUS
 10
4.523640
 20
2.868800
  0
VERTEX
  8
0
  6
CONTINUOUS
 10
4.546960
 20
2.835360
  0
VERTEX
  8
0
  6
CONTINUOUS
 10
3.895760
 20
2.449480
  0
VERTEX
  8
0
  6
CONTINUOUS
 10
3.872440
 20
2.482920
  0
SEQEND
  8
0
  0
SOLID
  8
0
 62
    15
 10
3.895760
 20
2.449480
 11
4.546960
 21
2.835360
 12
3.904120
 22
2.409000
 13
4.555760
 23
2.794880
  0
POLYLINE
  8
0
  6
CONTINUOUS
 66
     1
 40
0.000000
 41
0.000000
  0
VERTEX
  8
0
  6
CONTINUOUS
 10
3.895760
 20
2.449480
  0
VERTEX
  8
0
  6
CONTINUOUS
 10
4.546960
 20
2.835360
  0
VERTEX
  8
0
  6
CONTINUOUS
 10
4.555760
 20
2.794880
  0
VERTEX
  8
0
  6
CONTINUOUS
 10
3.904120
 20
2.409000
  0
VERTEX
  8
0
  6
CONTINUOUS
 10
3.895760
 20
2.449480
  0
SEQEND
  8
0
  0
SOLID
  8
0
 62
    15
 10
3.904120
 20
2.409000
 11
4.555760
 21
2.794880
 12
3.904120
 22
2.387440
 13
4.555760
 23
2.773320
  0
POLYLINE
  8
0
  6
CONTINUOUS
 66
     1
 40
0.000000
 41
0.000000
  0
VERTEX
  8
0
  6
CONTINUOUS
 10
3.904120
 20
2.409000
  0
VERTEX
  8
0
  6
CONTINUOUS
 10
4.555760
 20
2.794880
  0
VERTEX
  8
0
  6
CONTINUOUS
 10
4.555760
 20
2.773320
  0
VERTEX
  8
0
  6
CONTINUOUS
 10
3.904120
 20
2.387440
  0
VERTEX
  8
0
  6
CONTINUOUS
 10
3.904120
 20
2.409000
  0
SEQEND
  8
0
  0
SOLID
  8
0
 62
    15
 10
3.904120
 20
2.387440
 11
4.555760
 21
2.773320
 12
4.013680
 22
2.387440
 13
4.664880
 23
2.773320
  0
POLYLINE
  8
0
  6
CONTINUOUS
 66
     1
 40
0.000000
 41
0.000000
  0
VERTEX
  8
0
  6
CONTINUOUS
 10
3.904120
 20
2.387440
  0
VERTEX
  8
0
  6
CONTINUOUS
 10
4.555760
 20
2.773320
  0
VERTEX
  8
0
  6
CONTINUOUS
 10
4.664880
 20
2.773320
  0
VERTEX
  8
0
  6
CONTINUOUS
 10
4.013680
 20
2.387440
  0
VERTEX
  8
0
  6
CONTINUOUS
 10
3.904120
 20
2.387440
  0
SEQEND
  8
0
  0
SOLID
  8
0
 62
    15
 10
4.079240
 20
2.504040
 11
4.730880
 21
2.890360
 12
4.120160
 22
2.512840
 13
4.771360
 23
2.898720
  0
POLYLINE
  8
0
  6
CONTINUOUS
 66
     1
 40
0.000000
 41
0.000000
  0
VERTEX
  8
0
  6
CONTINUOUS
 10
4.079240
 20
2.504040
  0
VERTEX
  8
0
  6
CONTINUOUS
 10
4.730880
 20
2.890360
  0
VERTEX
  8
0
  6
CONTINUOUS
 10
4.771360
 20
2.898720
  0
VERTEX
  8
0
  6
CONTINUOUS
 10
4.120160
 20
2.512840
  0
VERTEX
  8
0
  6
CONTINUOUS
 10
4.079240
 20
2.504040
  0
SEQEND
  8
0
  0
SOLID
  8
0
 62
    15
 10
4.120160
 20
2.512840
 11
4.771360
 21
2.898720
 12
4.161080
 22
2.504480
 13
4.812280
 23
2.890360
  0
POLYLINE
  8
0
  6
CONTINUOUS
 66
     1
 40
0.000000
 41
0.000000
  0
VERTEX
  8
0
  6
CONTINUOUS
 10
4.120160
 20
2.512840
  0
VERTEX
  8
0
  6
CONTINUOUS
 10
4.771360
 20
2.898720
  0
VERTEX
  8
0
  6
CONTINUOUS
 10
4.812280
 20
2.890360
  0
VERTEX
  8
0
  6
CONTINUOUS
 10
4.161080
 20
2.504480
  0
VERTEX
  8
0
  6
CONTINUOUS
 10
4.120160
 20
2.512840
  0
SEQEND
  8
0
  0
SOLID
  8
0
 62
    15
 10
4.161080
 20
2.504480
 11
4.812280
 21
2.890360
 12
4.194960
 22
2.481600
 13
4.846160
 23
2.867480
  0
POLYLINE
  8
0
  6
CONTINUOUS
 66
     1
 40
0.000000
 41
0.000000
  0
VERTEX
  8
0
  6
CONTINUOUS
 10
4.161080
 20
2.504480
  0
VERTEX
  8
0
  6
CONTINUOUS
 10
4.812280
 20
2.890360
  0
VERTEX
  8
0
  6
CONTINUOUS
 10
4.846160
 20
2.867480
  0
VERTEX
  8
0
  6
CONTINUOUS
 10
4.194960
 20
2.481600
  0
VERTEX
  8
0
  6
CONTINUOUS
 10
4.161080
 20
2.504480
  0
SEQEND
  8
0
  0
SOLID
  8
0
 62
    15
 10
4.194960
 20
2.481600
 11
4.846160
 21
2.867480
 12
4.218280
 22
2.448160
 13
4.869480
 23
2.834040
  0
POLYLINE
  8
0
  6
CONTINUOUS
 66
     1
 40
0.000000
 41
0.000000
  0
VERTEX
  8
0
  6
CONTINUOUS
 10
4.194960
 20
2.481600
  0
VERTEX
  8
0
  6
CONTINUOUS
 10
4.846160
 20
2.867480
  0
VERTEX
  8
0
  6
CONTINUOUS
 10
4.869480
 20
2.834040
  0
VERTEX
  8
0
  6
CONTINUOUS
 10
4.218280
 20
2.448160
  0
VERTEX
  8
0
  6
CONTINUOUS
 10
4.194960
 20
2.481600
  0
SEQEND
  8
0
  0
SOLID
  8
0
 62
    15
 10
4.218280
 20
2.448160
 11
4.869480
 21
2.834040
 12
4.226640
 22
2.407680
 13
4.878280
 23
2.793560
  0
POLYLINE
  8
0
  6
CONTINUOUS
 66
     1
 40
0.000000
 41
0.000000
  0
VERTEX
  8
0
  6
CONTINUOUS
 10
4.218280
 20
2.448160
  0
VERTEX
  8
0
  6
CONTINUOUS
 10
4.869480
 20
2.834040
  0
VERTEX
  8
0
  6
CONTINUOUS
 10
4.878280
 20
2.793560
  0
VERTEX
  8
0
  6
CONTINUOUS
 10
4.226640
 20
2.407680
  0
VERTEX
  8
0
  6
CONTINUOUS
 10
4.218280
 20
2.448160
  0
SEQEND
  8
0
  0
SOLID
  8
0
 62
    15
 10
4.226640
 20
2.407680
 11
4.878280
 21
2.793560
 12
4.227080
 22
2.386120
 13
4.878280
 23
2.772000
  0
POLYLINE
  8
0
  6
CONTINUOUS
 66
     1
 40
0.000000
 41
0.000000
  0
VERTEX
  8
0
  6
CONTINUOUS
 10
4.226640
 20
2.407680
  0
VERTEX
  8
0
  6
CONTINUOUS
 10
4.878280
 20
2.793560
  0
VERTEX
  8
0
  6
CONTINUOUS
 10
4.878280
 20
2.772000
  0
VERTEX
  8
0
  6
CONTINUOUS
 10
4.227080
 20
2.386120
  0
VERTEX
  8
0
  6
CONTINUOUS
 10
4.226640
 20
2.407680
  0
SEQEND
  8
0
  0
SOLID
  8
0
 62
    15
 10
4.227080
 20
2.386120
 11
4.878280
 21
2.772000
 12
4.333560
 22
2.386120
 13
4.984760
 23
2.772000
  0
POLYLINE
  8
0
  6
CONTINUOUS
 66
     1
 40
0.000000
 41
0.000000
  0
VERTEX
  8
0
  6
CONTINUOUS
 10
4.227080
 20
2.386120
  0
VERTEX
  8
0
  6
CONTINUOUS
 10
4.878280
 20
2.772000
  0
VERTEX
  8
0
  6
CONTINUOUS
 10
4.984760
 20
2.772000
  0
VERTEX
  8
0
  6
CONTINUOUS
 10
4.333560
 20
2.386120
  0
VERTEX
  8
0
  6
CONTINUOUS
 10
4.227080
 20
2.386120
  0
SEQEND
  8
0
  0
SOLID
  8
0
 62
    15
 10
4.399120
 20
2.504040
 11
5.050760
 21
2.890360
 12
4.440040
 22
2.512840
 13
5.091680
 23
2.898720
  0
POLYLINE
  8
0
  6
CONTINUOUS
 66
     1
 40
0.000000
 41
0.000000
  0
VERTEX
  8
0
  6
CONTINUOUS
 10
4.399120
 20
2.504040
  0
VERTEX
  8
0
  6
CONTINUOUS
 10
5.050760
 20
2.890360
  0
VERTEX
  8
0
  6
CONTINUOUS
 10
5.091680
 20
2.898720
  0
VERTEX
  8
0
  6
CONTINUOUS
 10
4.440040
 20
2.512840
  0
VERTEX
  8
0
  6
CONTINUOUS
 10
4.399120
 20
2.504040
  0
SEQEND
  8
0
  0
SOLID
  8
0
 62
    15
 10
4.440040
 20
2.512840
 11
5.091680
 21
2.898720
 12
4.480960
 22
2.504480
 13
5.132600
 23
2.890360
  0
POLYLINE
  8
0
  6
CONTINUOUS
 66
     1
 40
0.000000
 41
0.000000
  0
VERTEX
  8
0
  6
CONTINUOUS
 10
4.440040
 20
2.512840
  0
VERTEX
  8
0
  6
CONTINUOUS
 10
5.091680
 20
2.898720
  0
VERTEX
  8
0
  6
CONTINUOUS
 10
5.132600
 20
2.890360
  0
VERTEX
  8
0
  6
CONTINUOUS
 10
4.480960
 20
2.504480
  0
VERTEX
  8
0
  6
CONTINUOUS
 10
4.440040
 20
2.512840
  0
SEQEND
  8
0
  0
SOLID
  8
0
 62
    15
 10
4.480960
 20
2.504480
 11
5.132600
 21
2.890360
 12
4.514840
 22
2.481600
 13
5.166480
 23
2.867480
  0
POLYLINE
  8
0
  6
CONTINUOUS
 66
     1
 40
0.000000
 41
0.000000
  0
VERTEX
  8
0
  6
CONTINUOUS
 10
4.480960
 20
2.504480
  0
VERTEX
  8
0
  6
CONTINUOUS
 10
5.132600
 20
2.890360
  0
VERTEX
  8
0
  6
CONTINUOUS
 10
5.166480
 20
2.867480
  0
VERTEX
  8
0
  6
CONTINUOUS
 10
4.514840
 20
2.481600
  0
VERTEX
  8
0
  6
CONTINUOUS
 10
4.480960
 20
2.504480
  0
SEQEND
  8
0
  0
SOLID
  8
0
 62
    15
 10
4.514840
 20
2.481600
 11
5.166480
 21
2.867480
 12
4.538160
 22
2.448160
 13
5.189360
 23
2.834040
  0
POLYLINE
  8
0
  6
CONTINUOUS
 66
     1
 40
0.000000
 41
0.000000
  0
VERTEX
  8
0
  6
CONTINUOUS
 10
4.514840
 20
2.481600
  0
VERTEX
  8
0
  6
CONTINUOUS
 10
5.166480
 20
2.867480
  0
VERTEX
  8
0
  6
CONTINUOUS
 10
5.189360
 20
2.834040
  0
VERTEX
  8
0
  6
CONTINUOUS
 10
4.538160
 20
2.448160
  0
VERTEX
  8
0
  6
CONTINUOUS
 10
4.514840
 20
2.481600
  0
SEQEND
  8
0
  0
SOLID
  8
0
 62
    15
 10
4.538160
 20
2.448160
 11
5.189360
 21
2.834040
 12
4.546960
 22
2.407680
 13
5.198160
 23
2.793560
  0
POLYLINE
  8
0
  6
CONTINUOUS
 66
     1
 40
0.000000
 41
0.000000
  0
VERTEX
  8
0
  6
CONTINUOUS
 10
4.538160
 20
2.448160
  0
VERTEX
  8
0
  6
CONTINUOUS
 10
5.189360
 20
2.834040
  0
VERTEX
  8
0
  6
CONTINUOUS
 10
5.198160
 20
2.793560
  0
VERTEX
  8
0
  6
CONTINUOUS
 10
4.546960
 20
2.407680
  0
VERTEX
  8
0
  6
CONTINUOUS
 10
4.538160
 20
2.448160
  0
SEQEND
  8
0
  0
SOLID
  8
0
 62
    15
 10
4.546960
 20
2.407680
 11
5.198160
 21
2.793560
 12
4.546960
 22
2.386120
 13
5.198160
 23
2.772000
  0
POLYLINE
  8
0
  6
CONTINUOUS
 66
     1
 40
0.000000
 41
0.000000
  0
VERTEX
  8
0
  6
CONTINUOUS
 10
4.546960
 20
2.407680
  0
VERTEX
  8
0
  6
CONTINUOUS
 10
5.198160
 20
2.793560
  0
VERTEX
  8
0
  6
CONTINUOUS
 10
5.198160
 20
2.772000
  0
VERTEX
  8
0
  6
CONTINUOUS
 10
4.546960
 20
2.386120
  0
VERTEX
  8
0
  6
CONTINUOUS
 10
4.546960
 20
2.407680
  0
SEQEND
  8
0
  0
SOLID
  8
0
 62
    15
 10
6.190800
 20
1.811480
 11
6.842440
 21
2.197360
 12
6.190800
 22
1.231560
 13
6.842440
 23
1.617440
  0
POLYLINE
  8
0
  6
CONTINUOUS
 66
     1
 40
0.000000
 41
0.000000
  0
VERTEX
  8
0
  6
CONTINUOUS
 10
6.190800
 20
1.811480
  0
VERTEX
  8
0
  6
CONTINUOUS
 10
6.842440
 20
2.197360
  0
VERTEX
  8
0
  6
CONTINUOUS
 10
6.842440
 20
1.617440
  0
VERTEX
  8
0
  6
CONTINUOUS
 10
6.190800
 20
1.231560
  0
VERTEX
  8
0
  6
CONTINUOUS
 10
6.190800
 20
1.811480
  0
SEQEND
  8
0
  0
SOLID
  8
0
 62
    15
 10
4.728680
 20
2.505360
 11
5.379880
 21
2.891680
 12
4.769600
 22
2.514160
 13
5.420800
 23
2.900040
  0
POLYLINE
  8
0
  6
CONTINUOUS
 66
     1
 40
0.000000
 41
0.000000
  0
VERTEX
  8
0
  6
CONTINUOUS
 10
4.728680
 20
2.505360
  0
VERTEX
  8
0
  6
CONTINUOUS
 10
5.379880
 20
2.891680
  0
VERTEX
  8
0
  6
CONTINUOUS
 10
5.420800
 20
2.900040
  0
VERTEX
  8
0
  6
CONTINUOUS
 10
4.769600
 20
2.514160
  0
VERTEX
  8
0
  6
CONTINUOUS
 10
4.728680
 20
2.505360
  0
SEQEND
  8
0
  0
SOLID
  8
0
 62
    15
 10
4.769600
 20
2.514160
 11
5.420800
 21
2.900040
 12
4.810520
 22
2.505800
 13
5.461720
 23
2.891680
  0
POLYLINE
  8
0
  6
CONTINUOUS
 66
     1
 40
0.000000
 41
0.000000
  0
VERTEX
  8
0
  6
CONTINUOUS
 10
4.769600
 20
2.514160
  0
VERTEX
  8
0
  6
CONTINUOUS
 10
5.420800
 20
2.900040
  0
VERTEX
  8
0
  6
CONTINUOUS
 10
5.461720
 20
2.891680
  0
VERTEX
  8
0
  6
CONTINUOUS
 10
4.810520
 20
2.505800
  0
VERTEX
  8
0
  6
CONTINUOUS
 10
4.769600
 20
2.514160
  0
SEQEND
  8
0
  0
SOLID
  8
0
 62
    15
 10
4.810520
 20
2.505800
 11
5.461720
 21
2.891680
 12
4.844400
 22
2.482920
 13
5.495600
 23
2.868800
  0
POLYLINE
  8
0
  6
CONTINUOUS
 66
     1
 40
0.000000
 41
0.000000
  0
VERTEX
  8
0
  6
CONTINUOUS
 10
4.810520
 20
2.505800
  0
VERTEX
  8
0
  6
CONTINUOUS
 10
5.461720
 20
2.891680
  0
VERTEX
  8
0
  6
CONTINUOUS
 10
5.495600
 20
2.868800
  0
VERTEX
  8
0
  6
CONTINUOUS
 10
4.844400
 20
2.482920
  0
VERTEX
  8
0
  6
CONTINUOUS
 10
4.810520
 20
2.505800
  0
SEQEND
  8
0
  0
SOLID
  8
0
 62
    15
 10
4.844400
 20
2.482920
 11
5.495600
 21
2.868800
 12
4.867720
 22
2.449480
 13
5.518920
 23
2.835360
  0
POLYLINE
  8
0
  6
CONTINUOUS
 66
     1
 40
0.000000
 41
0.000000
  0
VERTEX
  8
0
  6
CONTINUOUS
 10
4.844400
 20
2.482920
  0
VERTEX
  8
0
  6
CONTINUOUS
 10
5.495600
 20
2.868800
  0
VERTEX
  8
0
  6
CONTINUOUS
 10
5.518920
 20
2.835360
  0
VERTEX
  8
0
  6
CONTINUOUS
 10
4.867720
 20
2.449480
  0
VERTEX
  8
0
  6
CONTINUOUS
 10
4.844400
 20
2.482920
  0
SEQEND
  8
0
  0
SOLID
  8
0
 62
    15
 10
4.867720
 20
2.449480
 11
5.518920
 21
2.835360
 12
4.876080
 22
2.409000
 13
5.527720
 23
2.794880
  0
POLYLINE
  8
0
  6
CONTINUOUS
 66
     1
 40
0.000000
 41
0.000000
  0
VERTEX
  8
0
  6
CONTINUOUS
 10
4.867720
 20
2.449480
  0
VERTEX
  8
0
  6
CONTINUOUS
 10
5.518920
 20
2.835360
  0
VERTEX
  8
0
  6
CONTINUOUS
 10
5.527720
 20
2.794880
  0
VERTEX
  8
0
  6
CONTINUOUS
 10
4.876080
 20
2.409000
  0
VERTEX
  8
0
  6
CONTINUOUS
 10
4.867720
 20
2.449480
  0
SEQEND
  8
0
  0
SOLID
  8
0
 62
    15
 10
4.876080
 20
2.409000
 11
5.527720
 21
2.794880
 12
4.876080
 22
2.387440
 13
5.527720
 23
2.773320
  0
POLYLINE
  8
0
  6
CONTINUOUS
 66
     1
 40
0.000000
 41
0.000000
  0
VERTEX
  8
0
  6
CONTINUOUS
 10
4.876080
 20
2.409000
  0
VERTEX
  8
0
  6
CONTINUOUS
 10
5.527720
 20
2.794880
  0
VERTEX
  8
0
  6
CONTINUOUS
 10
5.527720
 20
2.773320
  0
VERTEX
  8
0
  6
CONTINUOUS
 10
4.876080
 20
2.387440
  0
VERTEX
  8
0
  6
CONTINUOUS
 10
4.876080
 20
2.409000
  0
SEQEND
  8
0
  0
SOLID
  8
0
 62
    15
 10
4.876080
 20
2.387440
 11
5.527720
 21
2.773320
 12
4.878720
 22
2.386120
 13
5.530360
 23
2.772000
  0
POLYLINE
  8
0
  6
CONTINUOUS
 66
     1
 40
0.000000
 41
0.000000
  0
VERTEX
  8
0
  6
CONTINUOUS
 10
4.876080
 20
2.387440
  0
VERTEX
  8
0
  6
CONTINUOUS
 10
5.527720
 20
2.773320
  0
VERTEX
  8
0
  6
CONTINUOUS
 10
5.530360
 20
2.772000
  0
VERTEX
  8
0
  6
CONTINUOUS
 10
4.878720
 20
2.386120
  0
VERTEX
  8
0
  6
CONTINUOUS
 10
4.876080
 20
2.387440
  0
SEQEND
  8
0
  0
SOLID
  8
0
 62
    15
 10
4.878720
 20
2.386120
 11
5.530360
 21
2.772000
 12
4.980360
 22
2.386120
 13
5.631560
 23
2.772000
  0
POLYLINE
  8
0
  6
CONTINUOUS
 66
     1
 40
0.000000
 41
0.000000
  0
VERTEX
  8
0
  6
CONTINUOUS
 10
4.878720
 20
2.386120
  0
VERTEX
  8
0
  6
CONTINUOUS
 10
5.530360
 20
2.772000
  0
VERTEX
  8
0
  6
CONTINUOUS
 10
5.631560
 20
2.772000
  0
VERTEX
  8
0
  6
CONTINUOUS
 10
4.980360
 20
2.386120
  0
VERTEX
  8
0
  6
CONTINUOUS
 10
4.878720
 20
2.386120
  0
SEQEND
  8
0
  0
SOLID
  8
0
 62
    15
 10
5.045920
 20
2.504040
 11
5.697560
 21
2.890360
 12
5.086840
 22
2.512840
 13
5.738040
 23
2.898720
  0
POLYLINE
  8
0
  6
CONTINUOUS
 66
     1
 40
0.000000
 41
0.000000
  0
VERTEX
  8
0
  6
CONTINUOUS
 10
5.045920
 20
2.504040
  0
VERTEX
  8
0
  6
CONTINUOUS
 10
5.697560
 20
2.890360
  0
VERTEX
  8
0
  6
CONTINUOUS
 10
5.738040
 20
2.898720
  0
VERTEX
  8
0
  6
CONTINUOUS
 10
5.086840
 20
2.512840
  0
VERTEX
  8
0
  6
CONTINUOUS
 10
5.045920
 20
2.504040
  0
SEQEND
  8
0
  0
SOLID
  8
0
 62
    15
 10
5.086840
 20
2.512840
 11
5.738040
 21
2.898720
 12
5.127760
 22
2.504480
 13
5.778960
 23
2.890360
  0
POLYLINE
  8
0
  6
CONTINUOUS
 66
     1
 40
0.000000
 41
0.000000
  0
VERTEX
  8
0
  6
CONTINUOUS
 10
5.086840
 20
2.512840
  0
VERTEX
  8
0
  6
CONTINUOUS
 10
5.738040
 20
2.898720
  0
VERTEX
  8
0
  6
CONTINUOUS
 10
5.778960
 20
2.890360
  0
VERTEX
  8
0
  6
CONTINUOUS
 10
5.127760
 20
2.504480
  0
VERTEX
  8
0
  6
CONTINUOUS
 10
5.086840
 20
2.512840
  0
SEQEND
  8
0
  0
SOLID
  8
0
 62
    15
 10
5.127760
 20
2.504480
 11
5.778960
 21
2.890360
 12
5.161640
 22
2.481600
 13
5.813280
 23
2.867480
  0
POLYLINE
  8
0
  6
CONTINUOUS
 66
     1
 40
0.000000
 41
0.000000
  0
VERTEX
  8
0
  6
CONTINUOUS
 10
5.127760
 20
2.504480
  0
VERTEX
  8
0
  6
CONTINUOUS
 10
5.778960
 20
2.890360
  0
VERTEX
  8
0
  6
CONTINUOUS
 10
5.813280
 20
2.867480
  0
VERTEX
  8
0
  6
CONTINUOUS
 10
5.161640
 20
2.481600
  0
VERTEX
  8
0
  6
CONTINUOUS
 10
5.127760
 20
2.504480
  0
SEQEND
  8
0
  0
SOLID
  8
0
 62
    15
 10
5.161640
 20
2.481600
 11
5.813280
 21
2.867480
 12
5.184960
 22
2.448160
 13
5.836160
 23
2.834040
  0
POLYLINE
  8
0
  6
CONTINUOUS
 66
     1
 40
0.000000
 41
0.000000
  0
VERTEX
  8
0
  6
CONTINUOUS
 10
5.161640
 20
2.481600
  0
VERTEX
  8
0
  6
CONTINUOUS
 10
5.813280
 20
2.867480
  0
VERTEX
  8
0
  6
CONTINUOUS
 10
5.836160
 20
2.834040
  0
VERTEX
  8
0
  6
CONTINUOUS
 10
5.184960
 20
2.448160
  0
VERTEX
  8
0
  6
CONTINUOUS
 10
5.161640
 20
2.481600
  0
SEQEND
  8
0
  0
SOLID
  8
0
 62
    15
 10
5.184960
 20
2.448160
 11
5.836160
 21
2.834040
 12
5.193760
 22
2.407680
 13
5.844960
 23
2.793560
  0
POLYLINE
  8
0
  6
CONTINUOUS
 66
     1
 40
0.000000
 41
0.000000
  0
VERTEX
  8
0
  6
CONTINUOUS
 10
5.184960
 20
2.448160
  0
VERTEX
  8
0
  6
CONTINUOUS
 10
5.836160
 20
2.834040
  0
VERTEX
  8
0
  6
CONTINUOUS
 10
5.844960
 20
2.793560
  0
VERTEX
  8
0
  6
CONTINUOUS
 10
5.193760
 20
2.407680
  0
VERTEX
  8
0
  6
CONTINUOUS
 10
5.184960
 20
2.448160
  0
SEQEND
  8
0
  0
SOLID
  8
0
 62
    15
 10
5.193760
 20
2.407680
 11
5.844960
 21
2.793560
 12
5.193760
 22
2.386120
 13
5.844960
 23
2.772000
  0
POLYLINE
  8
0
  6
CONTINUOUS
 66
     1
 40
0.000000
 41
0.000000
  0
VERTEX
  8
0
  6
CONTINUOUS
 10
5.193760
 20
2.407680
  0
VERTEX
  8
0
  6
CONTINUOUS
 10
5.844960
 20
2.793560
  0
VERTEX
  8
0
  6
CONTINUOUS
 10
5.844960
 20
2.772000
  0
VERTEX
  8
0
  6
CONTINUOUS
 10
5.193760
 20
2.386120
  0
VERTEX
  8
0
  6
CONTINUOUS
 10
5.193760
 20
2.407680
  0
SEQEND
  8
0
  0
SOLID
  8
0
 62
    15
 10
5.193760
 20
2.386120
 11
5.844960
 21
2.772000
 12
5.314760
 22
2.386120
 13
5.966400
 23
2.772000
  0
POLYLINE
  8
0
  6
CONTINUOUS
 66
     1
 40
0.000000
 41
0.000000
  0
VERTEX
  8
0
  6
CONTINUOUS
 10
5.193760
 20
2.386120
  0
VERTEX
  8
0
  6
CONTINUOUS
 10
5.844960
 20
2.772000
  0
VERTEX
  8
0
  6
CONTINUOUS
 10
5.966400
 20
2.772000
  0
VERTEX
  8
0
  6
CONTINUOUS
 10
5.314760
 20
2.386120
  0
VERTEX
  8
0
  6
CONTINUOUS
 10
5.193760
 20
2.386120
  0
SEQEND
  8
0
  0
SOLID
  8
0
 62
    15
 10
5.396600
 20
2.534840
 11
6.048240
 21
2.920720
 12
5.429160
 22
2.550240
 13
6.080360
 23
2.936120
  0
POLYLINE
  8
0
  6
CONTINUOUS
 66
     1
 40
0.000000
 41
0.000000
  0
VERTEX
  8
0
  6
CONTINUOUS
 10
5.396600
 20
2.534840
  0
VERTEX
  8
0
  6
CONTINUOUS
 10
6.048240
 20
2.920720
  0
VERTEX
  8
0
  6
CONTINUOUS
 10
6.080360
 20
2.936120
  0
VERTEX
  8
0
  6
CONTINUOUS
 10
5.429160
 20
2.550240
  0
VERTEX
  8
0
  6
CONTINUOUS
 10
5.396600
 20
2.534840
  0
SEQEND
  8
0
  0
SOLID
  8
0
 62
    15
 10
5.429160
 20
2.550240
 11
6.080360
 21
2.936120
 12
5.465240
 22
2.558600
 13
6.116440
 23
2.944480
  0
POLYLINE
  8
0
  6
CONTINUOUS
 66
     1
 40
0.000000
 41
0.000000
  0
VERTEX
  8
0
  6
CONTINUOUS
 10
5.429160
 20
2.550240
  0
VERTEX
  8
0
  6
CONTINUOUS
 10
6.080360
 20
2.936120
  0
VERTEX
  8
0
  6
CONTINUOUS
 10
6.116440
 20
2.944480
  0
VERTEX
  8
0
  6
CONTINUOUS
 10
5.465240
 20
2.558600
  0
VERTEX
  8
0
  6
CONTINUOUS
 10
5.429160
 20
2.550240
  0
SEQEND
  8
0
  0
SOLID
  8
0
 62
    15
 10
5.465240
 20
2.558600
 11
6.116440
 21
2.944480
 12
5.544880
 22
2.557720
 13
6.196520
 23
2.943600
  0
POLYLINE
  8
0
  6
CONTINUOUS
 66
     1
 40
0.000000
 41
0.000000
  0
VERTEX
  8
0
  6
CONTINUOUS
 10
5.465240
 20
2.558600
  0
VERTEX
  8
0
  6
CONTINUOUS
 10
6.116440
 20
2.944480
  0
VERTEX
  8
0
  6
CONTINUOUS
 10
6.196520
 20
2.943600
  0
VERTEX
  8
0
  6
CONTINUOUS
 10
5.544880
 20
2.557720
  0
VERTEX
  8
0
  6
CONTINUOUS
 10
5.465240
 20
2.558600
  0
SEQEND
  8
0
  0
SOLID
  8
0
 62
    15
 10
5.544880
 20
2.557720
 11
6.196520
 21
2.943600
 12
5.630680
 22
2.537920
 13
6.281880
 23
2.923800
  0
POLYLINE
  8
0
  6
CONTINUOUS
 66
     1
 40
0.000000
 41
0.000000
  0
VERTEX
  8
0
  6
CONTINUOUS
 10
5.544880
 20
2.557720
  0
VERTEX
  8
0
  6
CONTINUOUS
 10
6.196520
 20
2.943600
  0
VERTEX
  8
0
  6
CONTINUOUS
 10
6.281880
 20
2.923800
  0
VERTEX
  8
0
  6
CONTINUOUS
 10
5.630680
 20
2.537920
  0
VERTEX
  8
0
  6
CONTINUOUS
 10
5.544880
 20
2.557720
  0
SEQEND
  8
0
  0
SOLID
  8
0
 62
    15
 10
5.630680
 20
2.537920
 11
6.281880
 21
2.923800
 12
5.716480
 22
2.505800
 13
6.367680
 23
2.891680
  0
POLYLINE
  8
0
  6
CONTINUOUS
 66
     1
 40
0.000000
 41
0.000000
  0
VERTEX
  8
0
  6
CONTINUOUS
 10
5.630680
 20
2.537920
  0
VERTEX
  8
0
  6
CONTINUOUS
 10
6.281880
 20
2.923800
  0
VERTEX
  8
0
  6
CONTINUOUS
 10
6.367680
 20
2.891680
  0
VERTEX
  8
0
  6
CONTINUOUS
 10
5.716480
 20
2.505800
  0
VERTEX
  8
0
  6
CONTINUOUS
 10
5.630680
 20
2.537920
  0
SEQEND
  8
0
  0
SOLID
  8
0
 62
    15
 10
5.716480
 20
2.505800
 11
6.367680
 21
2.891680
 12
5.797000
 22
2.467520
 13
6.448200
 23
2.853400
  0
POLYLINE
  8
0
  6
CONTINUOUS
 66
     1
 40
0.000000
 41
0.000000
  0
VERTEX
  8
0
  6
CONTINUOUS
 10
5.716480
 20
2.505800
  0
VERTEX
  8
0
  6
CONTINUOUS
 10
6.367680
 20
2.891680
  0
VERTEX
  8
0
  6
CONTINUOUS
 10
6.448200
 20
2.853400
  0
VERTEX
  8
0
  6
CONTINUOUS
 10
5.797000
 20
2.467520
  0
VERTEX
  8
0
  6
CONTINUOUS
 10
5.716480
 20
2.505800
  0
SEQEND
  8
0
  0
SOLID
  8
0
 62
    15
 10
5.797000
 20
2.467520
 11
6.448200
 21
2.853400
 12
5.866960
 22
2.428800
 13
6.518160
 23
2.814680
  0
POLYLINE
  8
0
  6
CONTINUOUS
 66
     1
 40
0.000000
 41
0.000000
  0
VERTEX
  8
0
  6
CONTINUOUS
 10
5.797000
 20
2.467520
  0
VERTEX
  8
0
  6
CONTINUOUS
 10
6.448200
 20
2.853400
  0
VERTEX
  8
0
  6
CONTINUOUS
 10
6.518160
 20
2.814680
  0
VERTEX
  8
0
  6
CONTINUOUS
 10
5.866960
 20
2.428800
  0
VERTEX
  8
0
  6
CONTINUOUS
 10
5.797000
 20
2.467520
  0
SEQEND
  8
0
  0
SOLID
  8
0
 62
    15
 10
5.866960
 20
2.428800
 11
6.518160
 21
2.814680
 12
5.955400
 22
2.352240
 13
6.606600
 23
2.738560
  0
POLYLINE
  8
0
  6
CONTINUOUS
 66
     1
 40
0.000000
 41
0.000000
  0
VERTEX
  8
0
  6
CONTINUOUS
 10
5.866960
 20
2.428800
  0
VERTEX
  8
0
  6
CONTINUOUS
 10
6.518160
 20
2.814680
  0
VERTEX
  8
0
  6
CONTINUOUS
 10
6.606600
 20
2.738560
  0
VERTEX
  8
0
  6
CONTINUOUS
 10
5.955400
 20
2.352240
  0
VERTEX
  8
0
  6
CONTINUOUS
 10
5.866960
 20
2.428800
  0
SEQEND
  8
0
  0
SOLID
  8
0
 62
    15
 10
5.955400
 20
2.352240
 11
6.606600
 21
2.738560
 12
6.027120
 22
2.272600
 13
6.678320
 23
2.658920
  0
POLYLINE
  8
0
  6
CONTINUOUS
 66
     1
 40
0.000000
 41
0.000000
  0
VERTEX
  8
0
  6
CONTINUOUS
 10
5.955400
 20
2.352240
  0
VERTEX
  8
0
  6
CONTINUOUS
 10
6.606600
 20
2.738560
  0
VERTEX
  8
0
  6
CONTINUOUS
 10
6.678320
 20
2.658920
  0
VERTEX
  8
0
  6
CONTINUOUS
 10
6.027120
 20
2.272600
  0
VERTEX
  8
0
  6
CONTINUOUS
 10
5.955400
 20
2.352240
  0
SEQEND
  8
0
  0
SOLID
  8
0
 62
    15
 10
6.027120
 20
2.272600
 11
6.678320
 21
2.658920
 12
6.083440
 22
2.191640
 13
6.735080
 23
2.577520
  0
POLYLINE
  8
0
  6
CONTINUOUS
 66
     1
 40
0.000000
 41
0.000000
  0
VERTEX
  8
0
  6
CONTINUOUS
 10
6.027120
 20
2.272600
  0
VERTEX
  8
0
  6
CONTINUOUS
 10
6.678320
 20
2.658920
  0
VERTEX
  8
0
  6
CONTINUOUS
 10
6.735080
 20
2.577520
  0
VERTEX
  8
0
  6
CONTINUOUS
 10
6.083440
 20
2.191640
  0
VERTEX
  8
0
  6
CONTINUOUS
 10
6.027120
 20
2.272600
  0
SEQEND
  8
0
  0
SOLID
  8
0
 62
    15
 10
6.083440
 20
2.191640
 11
6.735080
 21
2.577520
 12
6.126120
 22
2.110240
 13
6.777760
 23
2.496120
  0
POLYLINE
  8
0
  6
CONTINUOUS
 66
     1
 40
0.000000
 41
0.000000
  0
VERTEX
  8
0
  6
CONTINUOUS
 10
6.083440
 20
2.191640
  0
VERTEX
  8
0
  6
CONTINUOUS
 10
6.735080
 20
2.577520
  0
VERTEX
  8
0
  6
CONTINUOUS
 10
6.777760
 20
2.496120
  0
VERTEX
  8
0
  6
CONTINUOUS
 10
6.126120
 20
2.110240
  0
VERTEX
  8
0
  6
CONTINUOUS
 10
6.083440
 20
2.191640
  0
SEQEND
  8
0
  0
SOLID
  8
0
 62
    15
 10
6.126120
 20
2.110240
 11
6.777760
 21
2.496120
 12
6.156920
 22
2.030160
 13
6.808120
 23
2.416040
  0
POLYLINE
  8
0
  6
CONTINUOUS
 66
     1
 40
0.000000
 41
0.000000
  0
VERTEX
  8
0
  6
CONTINUOUS
 10
6.126120
 20
2.110240
  0
VERTEX
  8
0
  6
CONTINUOUS
 10
6.777760
 20
2.496120
  0
VERTEX
  8
0
  6
CONTINUOUS
 10
6.808120
 20
2.416040
  0
VERTEX
  8
0
  6
CONTINUOUS
 10
6.156920
 20
2.030160
  0
VERTEX
  8
0
  6
CONTINUOUS
 10
6.126120
 20
2.110240
  0
SEQEND
  8
0
  0
SOLID
  8
0
 62
    15
 10
6.156920
 20
2.030160
 11
6.808120
 21
2.416040
 12
6.176720
 22
1.952720
 13
6.827920
 23
2.338600
  0
POLYLINE
  8
0
  6
CONTINUOUS
 66
     1
 40
0.000000
 41
0.000000
  0
VERTEX
  8
0
  6
CONTINUOUS
 10
6.156920
 20
2.030160
  0
VERTEX
  8
0
  6
CONTINUOUS
 10
6.808120
 20
2.416040
  0
VERTEX
  8
0
  6
CONTINUOUS
 10
6.827920
 20
2.338600
  0
VERTEX
  8
0
  6
CONTINUOUS
 10
6.176720
 20
1.952720
  0
VERTEX
  8
0
  6
CONTINUOUS
 10
6.156920
 20
2.030160
  0
SEQEND
  8
0
  0
SOLID
  8
0
 62
    15
 10
6.176720
 20
1.952720
 11
6.827920
 21
2.338600
 12
6.187720
 22
1.879240
 13
6.838920
 23
2.265120
  0
POLYLINE
  8
0
  6
CONTINUOUS
 66
     1
 40
0.000000
 41
0.000000
  0
VERTEX
  8
0
  6
CONTINUOUS
 10
6.176720
 20
1.952720
  0
VERTEX
  8
0
  6
CONTINUOUS
 10
6.827920
 20
2.338600
  0
VERTEX
  8
0
  6
CONTINUOUS
 10
6.838920
 20
2.265120
  0
VERTEX
  8
0
  6
CONTINUOUS
 10
6.187720
 20
1.879240
  0
VERTEX
  8
0
  6
CONTINUOUS
 10
6.176720
 20
1.952720
  0
SEQEND
  8
0
  0
SOLID
  8
0
 62
    15
 10
6.187720
 20
1.879240
 11
6.838920
 21
2.265120
 12
6.190800
 22
1.811480
 13
6.842000
 23
2.197360
  0
POLYLINE
  8
0
  6
CONTINUOUS
 66
     1
 40
0.000000
 41
0.000000
  0
VERTEX
  8
0
  6
CONTINUOUS
 10
6.187720
 20
1.879240
  0
VERTEX
  8
0
  6
CONTINUOUS
 10
6.838920
 20
2.265120
  0
VERTEX
  8
0
  6
CONTINUOUS
 10
6.842000
 20
2.197360
  0
VERTEX
  8
0
  6
CONTINUOUS
 10
6.190800
 20
1.811480
  0
VERTEX
  8
0
  6
CONTINUOUS
 10
6.187720
 20
1.879240
  0
SEQEND
  8
0
  0
SOLID
  8
0
 62
    15
 10
6.190800
 20
1.811480
 11
6.842000
 21
2.197360
 12
6.190800
 22
1.811480
 13
6.842440
 23
2.197360
  0
POLYLINE
  8
0
  6
CONTINUOUS
 66
     1
 40
0.000000
 41
0.000000
  0
VERTEX
  8
0
  6
CONTINUOUS
 10
6.190800
 20
1.811480
  0
VERTEX
  8
0
  6
CONTINUOUS
 10
6.842000
 20
2.197360
  0
VERTEX
  8
0
  6
CONTINUOUS
 10
6.842440
 20
2.197360
  0
VERTEX
  8
0
  6
CONTINUOUS
 10
6.190800
 20
1.811480
  0
SEQEND
  8
0
  0
SOLID
  8
0
 62
    15
 10
6.192120
 20
1.247400
 11
6.843760
 21
1.633280
 12
6.192120
 22
1.222320
 13
6.843760
 23
1.608200
  0
POLYLINE
  8
0
  6
CONTINUOUS
 66
     1
 40
0.000000
 41
0.000000
  0
VERTEX
  8
0
  6
CONTINUOUS
 10
6.192120
 20
1.247400
  0
VERTEX
  8
0
  6
CONTINUOUS
 10
6.843760
 20
1.633280
  0
VERTEX
  8
0
  6
CONTINUOUS
 10
6.843760
 20
1.608200
  0
VERTEX
  8
0
  6
CONTINUOUS
 10
6.192120
 20
1.222320
  0
VERTEX
  8
0
  6
CONTINUOUS
 10
6.192120
 20
1.247400
  0
SEQEND
  8
0
  0
POLYLINE
  8
0
  6
CONTINUOUS
 66
     1
 40
0.000000
 41
0.000000
  0
VERTEX
  8
0
  6
CONTINUOUS
 10
6.192120
 20
1.247400
  0
VERTEX
  8
0
  6
CONTINUOUS
 10
6.192120
 20
1.222320
  0
VERTEX
  8
0
  6
CONTINUOUS
 10
2.717440
 20
1.222320
  0
VERTEX
  8
0
  6
CONTINUOUS
 10
2.720080
 20
1.227600
  0
VERTEX
  8
0
  6
CONTINUOUS
 10
2.720080
 20
1.807520
  0
VERTEX
  8
0
  6
CONTINUOUS
 10
2.725800
 20
1.874840
  0
VERTEX
  8
0
  6
CONTINUOUS
 10
2.742080
 20
1.947440
  0
VERTEX
  8
0
  6
CONTINUOUS
 10
2.769360
 20
2.023560
  0
VERTEX
  8
0
  6
CONTINUOUS
 10
2.807200
 20
2.102320
  0
VERTEX
  8
0
  6
CONTINUOUS
 10
2.856040
 20
2.181960
  0
VERTEX
  8
0
  6
CONTINUOUS
 10
2.915440
 20
2.262040
  0
VERTEX
  8
0
  6
CONTINUOUS
 10
2.985400
 20
2.340800
  0
VERTEX
  8
0
  6
CONTINUOUS
 10
3.065480
 20
2.416920
  0
VERTEX
  8
0
  6
CONTINUOUS
 10
3.138080
 20
2.462680
  0
VERTEX
  8
0
  6
CONTINUOUS
 10
3.218160
 20
2.505800
  0
VERTEX
  8
0
  6
CONTINUOUS
 10
3.300880
 20
2.540560
  0
VERTEX
  8
0
  6
CONTINUOUS
 10
3.381840
 20
2.560800
  0
VERTEX
  8
0
  6
CONTINUOUS
 10
3.456200
 20
2.561240
  0
VERTEX
  8
0
  6
CONTINUOUS
 10
3.489200
 20
2.552440
  0
VERTEX
  8
0
  6
CONTINUOUS
 10
3.519560
 20
2.536160
  0
VERTEX
  8
0
  6
CONTINUOUS
 10
3.545520
 20
2.512400
  0
VERTEX
  8
0
  6
CONTINUOUS
 10
3.567080
 20
2.480280
  0
VERTEX
  8
0
  6
CONTINUOUS
 10
3.583800
 20
2.438920
  0
VERTEX
  8
0
  6
CONTINUOUS
 10
3.594800
 20
2.387440
  0
VERTEX
  8
0
  6
CONTINUOUS
 10
3.690720
 20
2.387440
  0
VERTEX
  8
0
  6
CONTINUOUS
 10
3.690720
 20
2.407680
  0
VERTEX
  8
0
  6
CONTINUOUS
 10
3.699520
 20
2.448160
  0
VERTEX
  8
0
  6
CONTINUOUS
 10
3.722840
 20
2.482480
  0
VERTEX
  8
0
  6
CONTINUOUS
 10
3.756720
 20
2.505360
  0
VERTEX
  8
0
  6
CONTINUOUS
 10
3.797640
 20
2.514160
  0
VERTEX
  8
0
  6
CONTINUOUS
 10
3.838560
 20
2.505800
  0
VERTEX
  8
0
  6
CONTINUOUS
 10
3.872440
 20
2.482920
  0
VERTEX
  8
0
  6
CONTINUOUS
 10
3.895760
 20
2.449480
  0
VERTEX
  8
0
  6
CONTINUOUS
 10
3.904120
 20
2.409000
  0
VERTEX
  8
0
  6
CONTINUOUS
 10
3.904120
 20
2.387440
  0
VERTEX
  8
0
  6
CONTINUOUS
 10
4.013680
 20
2.387440
  0
VERTEX
  8
0
  6
CONTINUOUS
 10
4.013680
 20
2.406360
  0
VERTEX
  8
0
  6
CONTINUOUS
 10
4.022040
 20
2.446840
  0
VERTEX
  8
0
  6
CONTINUOUS
 10
4.045360
 20
2.481160
  0
VERTEX
  8
0
  6
CONTINUOUS
 10
4.079240
 20
2.504040
  0
VERTEX
  8
0
  6
CONTINUOUS
 10
4.120160
 20
2.512840
  0
VERTEX
  8
0
  6
CONTINUOUS
 10
4.161080
 20
2.504480
  0
VERTEX
  8
0
  6
CONTINUOUS
 10
4.194960
 20
2.481600
  0
VERTEX
  8
0
  6
CONTINUOUS
 10
4.218280
 20
2.448160
  0
VERTEX
  8
0
  6
CONTINUOUS
 10
4.226640
 20
2.407680
  0
VERTEX
  8
0
  6
CONTINUOUS
 10
4.227080
 20
2.386120
  0
VERTEX
  8
0
  6
CONTINUOUS
 10
4.333560
 20
2.386120
  0
VERTEX
  8
0
  6
CONTINUOUS
 10
4.333560
 20
2.406360
  0
VERTEX
  8
0
  6
CONTINUOUS
 10
4.342360
 20
2.446840
  0
VERTEX
  8
0
  6
CONTINUOUS
 10
4.365240
 20
2.481160
  0
VERTEX
  8
0
  6
CONTINUOUS
 10
4.399120
 20
2.504040
  0
VERTEX
  8
0
  6
CONTINUOUS
 10
4.440040
 20
2.512840
  0
VERTEX
  8
0
  6
CONTINUOUS
 10
4.480960
 20
2.504480
  0
VERTEX
  8
0
  6
CONTINUOUS
 10
4.514840
 20
2.481600
  0
VERTEX
  8
0
  6
CONTINUOUS
 10
4.538160
 20
2.448160
  0
VERTEX
  8
0
  6
CONTINUOUS
 10
4.546960
 20
2.407680
  0
VERTEX
  8
0
  6
CONTINUOUS
 10
4.546960
 20
2.386120
  0
VERTEX
  8
0
  6
CONTINUOUS
 10
4.662680
 20
2.386120
  0
VERTEX
  8
0
  6
CONTINUOUS
 10
4.662680
 20
2.407680
  0
VERTEX
  8
0
  6
CONTINUOUS
 10
4.671480
 20
2.448160
  0
VERTEX
  8
0
  6
CONTINUOUS
 10
4.694800
 20
2.482480
  0
VERTEX
  8
0
  6
CONTINUOUS
 10
4.728680
 20
2.505360
  0
VERTEX
  8
0
  6
CONTINUOUS
 10
4.769600
 20
2.514160
  0
VERTEX
  8
0
  6
CONTINUOUS
 10
4.810520
 20
2.505800
  0
VERTEX
  8
0
  6
CONTINUOUS
 10
4.844400
 20
2.482920
  0
VERTEX
  8
0
  6
CONTINUOUS
 10
4.867720
 20
2.449480
  0
VERTEX
  8
0
  6
CONTINUOUS
 10
4.876080
 20
2.409000
  0
VERTEX
  8
0
  6
CONTINUOUS
 10
4.876080
 20
2.387440
  0
VERTEX
  8
0
  6
CONTINUOUS
 10
4.878720
 20
2.386120
  0
VERTEX
  8
0
  6
CONTINUOUS
 10
4.980360
 20
2.386120
  0
VERTEX
  8
0
  6
CONTINUOUS
 10
4.980360
 20
2.406360
  0
VERTEX
  8
0
  6
CONTINUOUS
 10
4.988720
 20
2.446840
  0
VERTEX
  8
0
  6
CONTINUOUS
 10
5.012040
 20
2.481160
  0
VERTEX
  8
0
  6
CONTINUOUS
 10
5.045920
 20
2.504040
  0
VERTEX
  8
0
  6
CONTINUOUS
 10
5.086840
 20
2.512840
  0
VERTEX
  8
0
  6
CONTINUOUS
 10
5.127760
 20
2.504480
  0
VERTEX
  8
0
  6
CONTINUOUS
 10
5.161640
 20
2.481600
  0
VERTEX
  8
0
  6
CONTINUOUS
 10
5.184960
 20
2.448160
  0
VERTEX
  8
0
  6
CONTINUOUS
 10
5.193760
 20
2.407680
  0
VERTEX
  8
0
  6
CONTINUOUS
 10
5.193760
 20
2.386120
  0
VERTEX
  8
0
  6
CONTINUOUS
 10
5.314760
 20
2.386120
  0
VERTEX
  8
0
  6
CONTINUOUS
 10
5.316080
 20
2.387440
  0
VERTEX
  8
0
  6
CONTINUOUS
 10
5.327520
 20
2.438920
  0
VERTEX
  8
0
  6
CONTINUOUS
 10
5.345120
 20
2.479840
  0
VERTEX
  8
0
  6
CONTINUOUS
 10
5.368440
 20
2.511520
  0
VERTEX
  8
0
  6
CONTINUOUS
 10
5.396600
 20
2.534840
  0
VERTEX
  8
0
  6
CONTINUOUS
 10
5.429160
 20
2.550240
  0
VERTEX
  8
0
  6
CONTINUOUS
 10
5.465240
 20
2.558600
  0
VERTEX
  8
0
  6
CONTINUOUS
 10
5.544880
 20
2.557720
  0
VERTEX
  8
0
  6
CONTINUOUS
 10
5.630680
 20
2.537920
  0
VERTEX
  8
0
  6
CONTINUOUS
 10
5.716480
 20
2.505800
  0
VERTEX
  8
0
  6
CONTINUOUS
 10
5.797000
 20
2.467520
  0
VERTEX
  8
0
  6
CONTINUOUS
 10
5.866960
 20
2.428800
  0
VERTEX
  8
0
  6
CONTINUOUS
 10
5.955400
 20
2.352240
  0
VERTEX
  8
0
  6
CONTINUOUS
 10
6.027120
 20
2.272600
  0
VERTEX
  8
0
  6
CONTINUOUS
 10
6.083440
 20
2.191640
  0
VERTEX
  8
0
  6
CONTINUOUS
 10
6.126120
 20
2.110240
  0
VERTEX
  8
0
  6
CONTINUOUS
 10
6.156920
 20
2.030160
  0
VERTEX
  8
0
  6
CONTINUOUS
 10
6.176720
 20
1.952720
  0
VERTEX
  8
0
  6
CONTINUOUS
 10
6.187720
 20
1.879240
  0
VERTEX
  8
0
  6
CONTINUOUS
 10
6.190800
 20
1.811480
  0
VERTEX
  8
0
  6
CONTINUOUS
 10
6.190800
 20
1.231560
  0
VERTEX
  8
0
  6
CONTINUOUS
 10
6.192120
 20
1.247400
  0
SEQEND
  8
0
  0
TEXT
  8
0
 10
4.530680
 20
0.941600
 40
0.138269
  1
BA  99
 41
1.000000
  7
SN0
 71
     0
 72
     5
 11
5.028367
 21
0.941600
  0
TEXT
  8
0
 10
4.162400
 20
0.749760
 40
0.138269
  1
1-5/16" x 3-7/16"
 41
1.000000
  7
SN0
 71
     0
 72
     5
 11
5.394238
 21
0.749760
  0
ENDSEC
  0
EOF
