  0
SECTION
  2
HEADER
  9
$ACADVER
  1
AC1006
  9
$EXTMIN
 10
1.562880
 20
2.596000
  9
$EXTMAX
 10
5.063960
 20
4.839120
  9
$LTSCALE
 40
0.044000
  9
$PDMODE
 70
    35
  9
$PDSIZE
 40
0.035200
  0
ENDSEC
  0
SECTION
  2
TABLES
  0
TABLE
  2
LTYPE
 70
     9
  0
LTYPE
  2
CONTINUOUS
 70
    64
  3
Solid line
 72
    65
 73
     0
 40
0.000000
  0
LTYPE
  2
DASHED
 70
    64
  3
__ __ __ __ __ __ __ __ __ __ __ __ __ __ __
 72
    65
 73
     2
 40
0.000330
 49
0.000220
 49
-0.000110
  0
LTYPE
  2
HIDDEN
 70
    64
  3
 _ _ _ _ _ _ _ _ _ _ _ _ _ _ _ _ _ _ _ _ _ _
 72
    65
 73
     2
 40
0.000165
 49
0.000110
 49
-0.000055
  0
LTYPE
  2
CENTER
 70
    64
  3
____ _ ____ _ ____ _ ____ _ ____ _ ____ _ ____
 72
    65
 73
     4
 40
0.000880
 49
0.000550
 49
-0.000110
 49
0.000110
 49
-0.000110
  0
LTYPE
  2
PHANTOM
 70
    64
  3
_____ _ _ _____ _ _ _____ _ _ _____ _ _ ____
 72
    65
 73
     6
 40
0.001100
 49
0.000550
 49
-0.000110
 49
0.000110
 49
-0.000110
 49
0.000110
 49
-0.000110
  0
LTYPE
  2
DOT
 70
    64
  3
...............................................
 72
    65
 73
     2
 40
0.000110
 49
0.000000
 49
-0.000110
  0
LTYPE
  2
DASHDOT
 70
    64
  3
__ . __ . __ . __ . __ . __ . __ . __ . __ . __
 72
    65
 73
     4
 40
0.000440
 49
0.000220
 49
-0.000110
 49
0.000000
 49
-0.000110
  0
LTYPE
  2
BORDER
 70
    64
  3
__ __ . __ __ . __ __ . __ __ . __ __ . __ __
 72
    65
 73
     6
 40
0.000770
 49
0.000220
 49
-0.000110
 49
0.000220
 49
-0.000110
 49
0.000000
 49
-0.000110
  0
LTYPE
  2
DIVIDE
 70
    64
  3
__ . . __ . . __ . . __ . . __ . . __ . . __
 72
    65
 73
     6
 40
0.000550
 49
0.000220
 49
-0.000110
 49
0.000000
 49
-0.000110
 49
0.000000
 49
-0.000110
  0
LTYPE
  2
DOTDOT
 70
    64
  3
 . .  . .  . .  . .  . .  . . 
 72
    65
 73
     5
 40
0.000242
 49
-0.000110
 49
0.000000
 49
-0.000110
 49
0.000000
 49
-0.000110
  0
ENDTAB
  0
TABLE
  2
STYLE
 70
     2
  0
STYLE
 70
     0
  2
SN0
 40
0.000000
 41
0.000440
 50
0.000000
 71
     0
 42
0.000000
  3
ROMAND
  0
STYLE
 70
    68
  2
SV0
 40
0.000000
 41
0.000440
 50
0.000000
 71
     0
 42
0.000000
  3
ROMAND
  0
ENDTAB
  0
TABLE
  2
LAYER
 70
     3
  0
LAYER
  2
FOREGROUND
 70
    64
 62
     7
  6
CONTINUOUS
  0
LAYER
  2
BACKGROUND
 70
    65
 62
    -7
  6
CONTINUOUS
  0
LAYER
  2
0
 70
    64
 62
     7
  6
CONTINUOUS
  0
ENDTAB
  0
ENDSEC
  0
SECTION
  2
ENTITIES
  0
POLYLINE
  8
FOREGROUND
  6
CONTINUOUS
 66
     1
 40
0.000000
 41
0.000000
  0
VERTEX
  8
FOREGROUND
  6
CONTINUOUS
 10
0.000000
 20
7.435120
  0
VERTEX
  8
FOREGROUND
  6
CONTINUOUS
 10
8.499920
 20
7.435120
  0
VERTEX
  8
FOREGROUND
  6
CONTINUOUS
 10
8.499920
 20
-3.564880
  0
VERTEX
  8
FOREGROUND
  6
CONTINUOUS
 10
0.000000
 20
-3.564880
  0
VERTEX
  8
FOREGROUND
  6
CONTINUOUS
 10
0.000000
 20
7.435120
  0
SEQEND
  8
0
  0
POLYLINE
  8
FOREGROUND
  6
CONTINUOUS
 66
     1
 40
0.000000
 41
0.000000
  0
VERTEX
  8
FOREGROUND
  6
CONTINUOUS
 10
0.000000
 20
7.435120
  0
VERTEX
  8
FOREGROUND
  6
CONTINUOUS
 10
8.499920
 20
7.435120
  0
VERTEX
  8
FOREGROUND
  6
CONTINUOUS
 10
8.499920
 20
-3.564880
  0
VERTEX
  8
FOREGROUND
  6
CONTINUOUS
 10
0.000000
 20
-3.564880
  0
VERTEX
  8
FOREGROUND
  6
CONTINUOUS
 10
0.000000
 20
7.435120
  0
SEQEND
  8
0
  0
TEXT
  8
0
 10
2.022240
 20
2.830520
 40
0.138166
  1
BA  96
 41
1.000000
  7
SN0
 71
     0
 72
     5
 11
2.520094
 21
2.830520
  0
TEXT
  8
0
 10
1.681680
 20
2.639120
 40
0.138166
  1
15/16" x 1-3/16"
 41
1.000000
  7
SN0
 71
     0
 72
     5
 11
2.859268
 21
2.639120
  0
SOLID
  8
0
 62
    15
 10
2.248400
 20
3.801160
 11
2.252360
 21
4.549600
 12
2.317040
 22
3.792800
 13
2.321000
 23
4.541680
  0
POLYLINE
  8
0
  6
CONTINUOUS
 66
     1
 40
0.000000
 41
0.000000
  0
VERTEX
  8
0
  6
CONTINUOUS
 10
2.248400
 20
3.801160
  0
VERTEX
  8
0
  6
CONTINUOUS
 10
2.252360
 20
4.549600
  0
VERTEX
  8
0
  6
CONTINUOUS
 10
2.321000
 20
4.541680
  0
VERTEX
  8
0
  6
CONTINUOUS
 10
2.317040
 20
3.792800
  0
VERTEX
  8
0
  6
CONTINUOUS
 10
2.248400
 20
3.801160
  0
SEQEND
  8
0
  0
SOLID
  8
0
 62
    15
 10
1.764840
 20
4.089800
 11
1.768800
 21
4.838680
 12
1.791680
 22
4.035240
 13
1.795640
 23
4.783680
  0
POLYLINE
  8
0
  6
CONTINUOUS
 66
     1
 40
0.000000
 41
0.000000
  0
VERTEX
  8
0
  6
CONTINUOUS
 10
1.764840
 20
4.089800
  0
VERTEX
  8
0
  6
CONTINUOUS
 10
1.768800
 20
4.838680
  0
VERTEX
  8
0
  6
CONTINUOUS
 10
1.795640
 20
4.783680
  0
VERTEX
  8
0
  6
CONTINUOUS
 10
1.791680
 20
4.035240
  0
VERTEX
  8
0
  6
CONTINUOUS
 10
1.764840
 20
4.089800
  0
SEQEND
  8
0
  0
SOLID
  8
0
 62
    15
 10
1.791680
 20
4.035240
 11
1.795640
 21
4.783680
 12
1.821600
 22
3.995200
 13
1.825560
 23
4.743640
  0
POLYLINE
  8
0
  6
CONTINUOUS
 66
     1
 40
0.000000
 41
0.000000
  0
VERTEX
  8
0
  6
CONTINUOUS
 10
1.791680
 20
4.035240
  0
VERTEX
  8
0
  6
CONTINUOUS
 10
1.795640
 20
4.783680
  0
VERTEX
  8
0
  6
CONTINUOUS
 10
1.825560
 20
4.743640
  0
VERTEX
  8
0
  6
CONTINUOUS
 10
1.821600
 20
3.995200
  0
VERTEX
  8
0
  6
CONTINUOUS
 10
1.791680
 20
4.035240
  0
SEQEND
  8
0
  0
SOLID
  8
0
 62
    15
 10
1.821600
 20
3.995200
 11
1.825560
 21
4.743640
 12
1.853280
 22
3.967040
 13
1.857240
 23
4.715920
  0
POLYLINE
  8
0
  6
CONTINUOUS
 66
     1
 40
0.000000
 41
0.000000
  0
VERTEX
  8
0
  6
CONTINUOUS
 10
1.821600
 20
3.995200
  0
VERTEX
  8
0
  6
CONTINUOUS
 10
1.825560
 20
4.743640
  0
VERTEX
  8
0
  6
CONTINUOUS
 10
1.857240
 20
4.715920
  0
VERTEX
  8
0
  6
CONTINUOUS
 10
1.853280
 20
3.967040
  0
VERTEX
  8
0
  6
CONTINUOUS
 10
1.821600
 20
3.995200
  0
SEQEND
  8
0
  0
SOLID
  8
0
 62
    15
 10
1.853280
 20
3.967040
 11
1.857240
 21
4.715920
 12
1.886280
 22
3.948560
 13
1.890240
 23
4.697000
  0
POLYLINE
  8
0
  6
CONTINUOUS
 66
     1
 40
0.000000
 41
0.000000
  0
VERTEX
  8
0
  6
CONTINUOUS
 10
1.853280
 20
3.967040
  0
VERTEX
  8
0
  6
CONTINUOUS
 10
1.857240
 20
4.715920
  0
VERTEX
  8
0
  6
CONTINUOUS
 10
1.890240
 20
4.697000
  0
VERTEX
  8
0
  6
CONTINUOUS
 10
1.886280
 20
3.948560
  0
VERTEX
  8
0
  6
CONTINUOUS
 10
1.853280
 20
3.967040
  0
SEQEND
  8
0
  0
SOLID
  8
0
 62
    15
 10
1.886280
 20
3.948560
 11
1.890240
 21
4.697000
 12
1.952720
 22
3.928760
 13
1.956680
 23
4.677640
  0
POLYLINE
  8
0
  6
CONTINUOUS
 66
     1
 40
0.000000
 41
0.000000
  0
VERTEX
  8
0
  6
CONTINUOUS
 10
1.886280
 20
3.948560
  0
VERTEX
  8
0
  6
CONTINUOUS
 10
1.890240
 20
4.697000
  0
VERTEX
  8
0
  6
CONTINUOUS
 10
1.956680
 20
4.677640
  0
VERTEX
  8
0
  6
CONTINUOUS
 10
1.952720
 20
3.928760
  0
VERTEX
  8
0
  6
CONTINUOUS
 10
1.886280
 20
3.948560
  0
SEQEND
  8
0
  0
SOLID
  8
0
 62
    15
 10
1.952720
 20
3.928760
 11
1.956680
 21
4.677640
 12
1.983960
 22
3.922600
 13
1.987920
 23
4.671480
  0
POLYLINE
  8
0
  6
CONTINUOUS
 66
     1
 40
0.000000
 41
0.000000
  0
VERTEX
  8
0
  6
CONTINUOUS
 10
1.952720
 20
3.928760
  0
VERTEX
  8
0
  6
CONTINUOUS
 10
1.956680
 20
4.677640
  0
VERTEX
  8
0
  6
CONTINUOUS
 10
1.987920
 20
4.671480
  0
VERTEX
  8
0
  6
CONTINUOUS
 10
1.983960
 20
3.922600
  0
VERTEX
  8
0
  6
CONTINUOUS
 10
1.952720
 20
3.928760
  0
SEQEND
  8
0
  0
SOLID
  8
0
 62
    15
 10
1.983960
 20
3.922600
 11
1.987920
 21
4.671480
 12
2.013000
 22
3.915120
 13
2.016960
 23
4.664000
  0
POLYLINE
  8
0
  6
CONTINUOUS
 66
     1
 40
0.000000
 41
0.000000
  0
VERTEX
  8
0
  6
CONTINUOUS
 10
1.983960
 20
3.922600
  0
VERTEX
  8
0
  6
CONTINUOUS
 10
1.987920
 20
4.671480
  0
VERTEX
  8
0
  6
CONTINUOUS
 10
2.016960
 20
4.664000
  0
VERTEX
  8
0
  6
CONTINUOUS
 10
2.013000
 20
3.915120
  0
VERTEX
  8
0
  6
CONTINUOUS
 10
1.983960
 20
3.922600
  0
SEQEND
  8
0
  0
SOLID
  8
0
 62
    15
 10
2.013000
 20
3.915120
 11
2.016960
 21
4.664000
 12
2.013000
 22
3.811280
 13
2.016960
 23
4.559720
  0
POLYLINE
  8
0
  6
CONTINUOUS
 66
     1
 40
0.000000
 41
0.000000
  0
VERTEX
  8
0
  6
CONTINUOUS
 10
2.013000
 20
3.915120
  0
VERTEX
  8
0
  6
CONTINUOUS
 10
2.016960
 20
4.664000
  0
VERTEX
  8
0
  6
CONTINUOUS
 10
2.016960
 20
4.559720
  0
VERTEX
  8
0
  6
CONTINUOUS
 10
2.013000
 20
3.811280
  0
VERTEX
  8
0
  6
CONTINUOUS
 10
2.013000
 20
3.915120
  0
SEQEND
  8
0
  0
SOLID
  8
0
 62
    15
 10
2.013000
 20
3.811280
 11
2.016960
 21
4.559720
 12
2.016960
 22
3.811280
 13
2.020920
 23
4.559720
  0
POLYLINE
  8
0
  6
CONTINUOUS
 66
     1
 40
0.000000
 41
0.000000
  0
VERTEX
  8
0
  6
CONTINUOUS
 10
2.013000
 20
3.811280
  0
VERTEX
  8
0
  6
CONTINUOUS
 10
2.016960
 20
4.559720
  0
VERTEX
  8
0
  6
CONTINUOUS
 10
2.020920
 20
4.559720
  0
VERTEX
  8
0
  6
CONTINUOUS
 10
2.016960
 20
3.811280
  0
VERTEX
  8
0
  6
CONTINUOUS
 10
2.013000
 20
3.811280
  0
SEQEND
  8
0
  0
SOLID
  8
0
 62
    15
 10
2.016960
 20
3.811280
 11
2.020920
 21
4.559720
 12
2.098360
 22
3.810400
 13
2.102320
 23
4.558840
  0
POLYLINE
  8
0
  6
CONTINUOUS
 66
     1
 40
0.000000
 41
0.000000
  0
VERTEX
  8
0
  6
CONTINUOUS
 10
2.016960
 20
3.811280
  0
VERTEX
  8
0
  6
CONTINUOUS
 10
2.020920
 20
4.559720
  0
VERTEX
  8
0
  6
CONTINUOUS
 10
2.102320
 20
4.558840
  0
VERTEX
  8
0
  6
CONTINUOUS
 10
2.098360
 20
3.810400
  0
VERTEX
  8
0
  6
CONTINUOUS
 10
2.016960
 20
3.811280
  0
SEQEND
  8
0
  0
SOLID
  8
0
 62
    15
 10
2.098360
 20
3.810400
 11
2.102320
 21
4.558840
 12
2.175800
 22
3.806880
 13
2.179760
 23
4.555320
  0
POLYLINE
  8
0
  6
CONTINUOUS
 66
     1
 40
0.000000
 41
0.000000
  0
VERTEX
  8
0
  6
CONTINUOUS
 10
2.098360
 20
3.810400
  0
VERTEX
  8
0
  6
CONTINUOUS
 10
2.102320
 20
4.558840
  0
VERTEX
  8
0
  6
CONTINUOUS
 10
2.179760
 20
4.555320
  0
VERTEX
  8
0
  6
CONTINUOUS
 10
2.175800
 20
3.806880
  0
VERTEX
  8
0
  6
CONTINUOUS
 10
2.098360
 20
3.810400
  0
SEQEND
  8
0
  0
SOLID
  8
0
 62
    15
 10
2.175800
 20
3.806880
 11
2.179760
 21
4.555320
 12
2.248400
 22
3.801160
 13
2.252360
 23
4.549600
  0
POLYLINE
  8
0
  6
CONTINUOUS
 66
     1
 40
0.000000
 41
0.000000
  0
VERTEX
  8
0
  6
CONTINUOUS
 10
2.175800
 20
3.806880
  0
VERTEX
  8
0
  6
CONTINUOUS
 10
2.179760
 20
4.555320
  0
VERTEX
  8
0
  6
CONTINUOUS
 10
2.252360
 20
4.549600
  0
VERTEX
  8
0
  6
CONTINUOUS
 10
2.248400
 20
3.801160
  0
VERTEX
  8
0
  6
CONTINUOUS
 10
2.175800
 20
3.806880
  0
SEQEND
  8
0
  0
SOLID
  8
0
 62
    15
 10
1.658360
 20
4.089800
 11
1.662320
 21
4.838680
 12
1.764840
 22
4.089800
 13
1.768800
 23
4.838680
  0
POLYLINE
  8
0
  6
CONTINUOUS
 66
     1
 40
0.000000
 41
0.000000
  0
VERTEX
  8
0
  6
CONTINUOUS
 10
1.658360
 20
4.089800
  0
VERTEX
  8
0
  6
CONTINUOUS
 10
1.662320
 20
4.838680
  0
VERTEX
  8
0
  6
CONTINUOUS
 10
1.768800
 20
4.838680
  0
VERTEX
  8
0
  6
CONTINUOUS
 10
1.764840
 20
4.089800
  0
VERTEX
  8
0
  6
CONTINUOUS
 10
1.658360
 20
4.089800
  0
SEQEND
  8
0
  0
SOLID
  8
0
 62
    15
 10
2.317040
 20
3.792800
 11
2.321000
 21
4.541680
 12
2.381720
 22
3.782680
 13
2.385680
 23
4.531560
  0
POLYLINE
  8
0
  6
CONTINUOUS
 66
     1
 40
0.000000
 41
0.000000
  0
VERTEX
  8
0
  6
CONTINUOUS
 10
2.317040
 20
3.792800
  0
VERTEX
  8
0
  6
CONTINUOUS
 10
2.321000
 20
4.541680
  0
VERTEX
  8
0
  6
CONTINUOUS
 10
2.385680
 20
4.531560
  0
VERTEX
  8
0
  6
CONTINUOUS
 10
2.381720
 20
3.782680
  0
VERTEX
  8
0
  6
CONTINUOUS
 10
2.317040
 20
3.792800
  0
SEQEND
  8
0
  0
SOLID
  8
0
 62
    15
 10
2.381720
 20
3.782680
 11
2.385680
 21
4.531560
 12
2.441560
 22
3.770800
 13
2.445960
 23
4.519240
  0
POLYLINE
  8
0
  6
CONTINUOUS
 66
     1
 40
0.000000
 41
0.000000
  0
VERTEX
  8
0
  6
CONTINUOUS
 10
2.381720
 20
3.782680
  0
VERTEX
  8
0
  6
CONTINUOUS
 10
2.385680
 20
4.531560
  0
VERTEX
  8
0
  6
CONTINUOUS
 10
2.445960
 20
4.519240
  0
VERTEX
  8
0
  6
CONTINUOUS
 10
2.441560
 20
3.770800
  0
VERTEX
  8
0
  6
CONTINUOUS
 10
2.381720
 20
3.782680
  0
SEQEND
  8
0
  0
SOLID
  8
0
 62
    15
 10
2.441560
 20
3.770800
 11
2.445960
 21
4.519240
 12
2.549800
 22
3.741320
 13
2.553760
 23
4.490200
  0
POLYLINE
  8
0
  6
CONTINUOUS
 66
     1
 40
0.000000
 41
0.000000
  0
VERTEX
  8
0
  6
CONTINUOUS
 10
2.441560
 20
3.770800
  0
VERTEX
  8
0
  6
CONTINUOUS
 10
2.445960
 20
4.519240
  0
VERTEX
  8
0
  6
CONTINUOUS
 10
2.553760
 20
4.490200
  0
VERTEX
  8
0
  6
CONTINUOUS
 10
2.549800
 20
3.741320
  0
VERTEX
  8
0
  6
CONTINUOUS
 10
2.441560
 20
3.770800
  0
SEQEND
  8
0
  0
SOLID
  8
0
 62
    15
 10
2.549800
 20
3.741320
 11
2.553760
 21
4.490200
 12
2.642200
 22
3.706120
 13
2.646160
 23
4.454560
  0
POLYLINE
  8
0
  6
CONTINUOUS
 66
     1
 40
0.000000
 41
0.000000
  0
VERTEX
  8
0
  6
CONTINUOUS
 10
2.549800
 20
3.741320
  0
VERTEX
  8
0
  6
CONTINUOUS
 10
2.553760
 20
4.490200
  0
VERTEX
  8
0
  6
CONTINUOUS
 10
2.646160
 20
4.454560
  0
VERTEX
  8
0
  6
CONTINUOUS
 10
2.642200
 20
3.706120
  0
VERTEX
  8
0
  6
CONTINUOUS
 10
2.549800
 20
3.741320
  0
SEQEND
  8
0
  0
SOLID
  8
0
 62
    15
 10
2.715680
 20
3.248520
 11
2.719640
 21
3.996960
 12
2.715680
 22
3.127080
 13
2.719640
 23
3.875960
  0
POLYLINE
  8
0
  6
CONTINUOUS
 66
     1
 40
0.000000
 41
0.000000
  0
VERTEX
  8
0
  6
CONTINUOUS
 10
2.715680
 20
3.248520
  0
VERTEX
  8
0
  6
CONTINUOUS
 10
2.719640
 20
3.996960
  0
VERTEX
  8
0
  6
CONTINUOUS
 10
2.719640
 20
3.875960
  0
VERTEX
  8
0
  6
CONTINUOUS
 10
2.715680
 20
3.127080
  0
VERTEX
  8
0
  6
CONTINUOUS
 10
2.715680
 20
3.248520
  0
SEQEND
  8
0
  0
SOLID
  8
0
 62
    15
 10
2.718760
 20
3.665640
 11
2.722720
 21
4.414520
 12
2.779920
 22
3.622080
 13
2.783880
 23
4.370520
  0
POLYLINE
  8
0
  6
CONTINUOUS
 66
     1
 40
0.000000
 41
0.000000
  0
VERTEX
  8
0
  6
CONTINUOUS
 10
2.718760
 20
3.665640
  0
VERTEX
  8
0
  6
CONTINUOUS
 10
2.722720
 20
4.414520
  0
VERTEX
  8
0
  6
CONTINUOUS
 10
2.783880
 20
4.370520
  0
VERTEX
  8
0
  6
CONTINUOUS
 10
2.779920
 20
3.622080
  0
VERTEX
  8
0
  6
CONTINUOUS
 10
2.718760
 20
3.665640
  0
SEQEND
  8
0
  0
SOLID
  8
0
 62
    15
 10
2.779920
 20
3.622080
 11
2.783880
 21
4.370520
 12
2.826560
 22
3.575440
 13
2.830520
 23
4.323880
  0
POLYLINE
  8
0
  6
CONTINUOUS
 66
     1
 40
0.000000
 41
0.000000
  0
VERTEX
  8
0
  6
CONTINUOUS
 10
2.779920
 20
3.622080
  0
VERTEX
  8
0
  6
CONTINUOUS
 10
2.783880
 20
4.370520
  0
VERTEX
  8
0
  6
CONTINUOUS
 10
2.830520
 20
4.323880
  0
VERTEX
  8
0
  6
CONTINUOUS
 10
2.826560
 20
3.575440
  0
VERTEX
  8
0
  6
CONTINUOUS
 10
2.779920
 20
3.622080
  0
SEQEND
  8
0
  0
SOLID
  8
0
 62
    15
 10
2.826560
 20
3.575440
 11
2.830520
 21
4.323880
 12
2.858680
 22
3.527480
 13
2.863080
 23
4.275920
  0
POLYLINE
  8
0
  6
CONTINUOUS
 66
     1
 40
0.000000
 41
0.000000
  0
VERTEX
  8
0
  6
CONTINUOUS
 10
2.826560
 20
3.575440
  0
VERTEX
  8
0
  6
CONTINUOUS
 10
2.830520
 20
4.323880
  0
VERTEX
  8
0
  6
CONTINUOUS
 10
2.863080
 20
4.275920
  0
VERTEX
  8
0
  6
CONTINUOUS
 10
2.858680
 20
3.527480
  0
VERTEX
  8
0
  6
CONTINUOUS
 10
2.826560
 20
3.575440
  0
SEQEND
  8
0
  0
SOLID
  8
0
 62
    15
 10
2.858680
 20
3.527480
 11
2.863080
 21
4.275920
 12
2.877160
 22
3.479080
 13
2.881120
 23
4.227960
  0
POLYLINE
  8
0
  6
CONTINUOUS
 66
     1
 40
0.000000
 41
0.000000
  0
VERTEX
  8
0
  6
CONTINUOUS
 10
2.858680
 20
3.527480
  0
VERTEX
  8
0
  6
CONTINUOUS
 10
2.863080
 20
4.275920
  0
VERTEX
  8
0
  6
CONTINUOUS
 10
2.881120
 20
4.227960
  0
VERTEX
  8
0
  6
CONTINUOUS
 10
2.877160
 20
3.479080
  0
VERTEX
  8
0
  6
CONTINUOUS
 10
2.858680
 20
3.527480
  0
SEQEND
  8
0
  0
SOLID
  8
0
 62
    15
 10
2.877160
 20
3.479080
 11
2.881120
 21
4.227960
 12
2.881560
 22
3.432000
 13
2.885520
 23
4.180440
  0
POLYLINE
  8
0
  6
CONTINUOUS
 66
     1
 40
0.000000
 41
0.000000
  0
VERTEX
  8
0
  6
CONTINUOUS
 10
2.877160
 20
3.479080
  0
VERTEX
  8
0
  6
CONTINUOUS
 10
2.881120
 20
4.227960
  0
VERTEX
  8
0
  6
CONTINUOUS
 10
2.885520
 20
4.180440
  0
VERTEX
  8
0
  6
CONTINUOUS
 10
2.881560
 20
3.432000
  0
VERTEX
  8
0
  6
CONTINUOUS
 10
2.877160
 20
3.479080
  0
SEQEND
  8
0
  0
SOLID
  8
0
 62
    15
 10
2.687520
 20
3.127080
 11
2.691480
 21
3.875960
 12
2.704680
 22
3.127080
 13
2.708640
 23
3.875960
  0
POLYLINE
  8
0
  6
CONTINUOUS
 66
     1
 40
0.000000
 41
0.000000
  0
VERTEX
  8
0
  6
CONTINUOUS
 10
2.687520
 20
3.127080
  0
VERTEX
  8
0
  6
CONTINUOUS
 10
2.691480
 20
3.875960
  0
VERTEX
  8
0
  6
CONTINUOUS
 10
2.708640
 20
3.875960
  0
VERTEX
  8
0
  6
CONTINUOUS
 10
2.704680
 20
3.127080
  0
VERTEX
  8
0
  6
CONTINUOUS
 10
2.687520
 20
3.127080
  0
SEQEND
  8
0
  0
SOLID
  8
0
 62
    15
 10
2.642200
 20
3.706120
 11
2.646160
 21
4.454560
 12
2.718760
 22
3.665640
 13
2.722720
 23
4.414520
  0
POLYLINE
  8
0
  6
CONTINUOUS
 66
     1
 40
0.000000
 41
0.000000
  0
VERTEX
  8
0
  6
CONTINUOUS
 10
2.642200
 20
3.706120
  0
VERTEX
  8
0
  6
CONTINUOUS
 10
2.646160
 20
4.454560
  0
VERTEX
  8
0
  6
CONTINUOUS
 10
2.722720
 20
4.414520
  0
VERTEX
  8
0
  6
CONTINUOUS
 10
2.718760
 20
3.665640
  0
VERTEX
  8
0
  6
CONTINUOUS
 10
2.642200
 20
3.706120
  0
SEQEND
  8
0
  0
POLYLINE
  8
0
  6
CONTINUOUS
 66
     1
 40
0.000000
 41
0.000000
  0
VERTEX
  8
0
  6
CONTINUOUS
 10
2.704680
 20
3.127080
  0
VERTEX
  8
0
  6
CONTINUOUS
 10
1.658360
 20
3.127080
  0
VERTEX
  8
0
  6
CONTINUOUS
 10
1.658360
 20
4.089800
  0
VERTEX
  8
0
  6
CONTINUOUS
 10
1.764840
 20
4.089800
  0
VERTEX
  8
0
  6
CONTINUOUS
 10
1.791680
 20
4.035240
  0
VERTEX
  8
0
  6
CONTINUOUS
 10
1.821600
 20
3.995200
  0
VERTEX
  8
0
  6
CONTINUOUS
 10
1.853280
 20
3.967040
  0
VERTEX
  8
0
  6
CONTINUOUS
 10
1.886280
 20
3.948560
  0
VERTEX
  8
0
  6
CONTINUOUS
 10
1.952720
 20
3.928760
  0
VERTEX
  8
0
  6
CONTINUOUS
 10
1.983960
 20
3.922600
  0
VERTEX
  8
0
  6
CONTINUOUS
 10
2.013000
 20
3.915120
  0
VERTEX
  8
0
  6
CONTINUOUS
 10
2.013000
 20
3.811280
  0
VERTEX
  8
0
  6
CONTINUOUS
 10
2.016960
 20
3.811280
  0
VERTEX
  8
0
  6
CONTINUOUS
 10
2.098360
 20
3.810400
  0
VERTEX
  8
0
  6
CONTINUOUS
 10
2.175800
 20
3.806880
  0
VERTEX
  8
0
  6
CONTINUOUS
 10
2.248400
 20
3.801160
  0
VERTEX
  8
0
  6
CONTINUOUS
 10
2.317040
 20
3.792800
  0
VERTEX
  8
0
  6
CONTINUOUS
 10
2.381720
 20
3.782680
  0
VERTEX
  8
0
  6
CONTINUOUS
 10
2.441560
 20
3.770800
  0
VERTEX
  8
0
  6
CONTINUOUS
 10
2.549800
 20
3.741320
  0
VERTEX
  8
0
  6
CONTINUOUS
 10
2.642200
 20
3.706120
  0
VERTEX
  8
0
  6
CONTINUOUS
 10
2.718760
 20
3.665640
  0
VERTEX
  8
0
  6
CONTINUOUS
 10
2.779920
 20
3.622080
  0
VERTEX
  8
0
  6
CONTINUOUS
 10
2.826560
 20
3.575440
  0
VERTEX
  8
0
  6
CONTINUOUS
 10
2.858680
 20
3.527480
  0
VERTEX
  8
0
  6
CONTINUOUS
 10
2.877160
 20
3.479080
  0
VERTEX
  8
0
  6
CONTINUOUS
 10
2.881560
 20
3.432000
  0
VERTEX
  8
0
  6
CONTINUOUS
 10
2.873200
 20
3.386680
  0
VERTEX
  8
0
  6
CONTINUOUS
 10
2.852080
 20
3.344440
  0
VERTEX
  8
0
  6
CONTINUOUS
 10
2.818200
 20
3.306600
  0
VERTEX
  8
0
  6
CONTINUOUS
 10
2.772880
 20
3.274040
  0
VERTEX
  8
0
  6
CONTINUOUS
 10
2.715680
 20
3.248520
  0
VERTEX
  8
0
  6
CONTINUOUS
 10
2.715680
 20
3.127080
  0
VERTEX
  8
0
  6
CONTINUOUS
 10
2.687520
 20
3.127080
  0
VERTEX
  8
0
  6
CONTINUOUS
 10
2.704680
 20
3.127080
  0
SEQEND
  8
0
  0
POLYLINE
  8
0
  6
CONTINUOUS
 66
     1
 40
0.014080
 41
0.014080
  0
VERTEX
  8
0
  6
CONTINUOUS
 10
4.863320
 20
3.635280
  0
VERTEX
  8
0
  6
CONTINUOUS
 10
3.816560
 20
3.635280
  0
VERTEX
  8
0
  6
CONTINUOUS
 10
3.816560
 20
4.598000
  0
VERTEX
  8
0
  6
CONTINUOUS
 10
3.923040
 20
4.598000
  0
VERTEX
  8
0
  6
CONTINUOUS
 10
3.942840
 20
4.555320
  0
VERTEX
  8
0
  6
CONTINUOUS
 10
3.964400
 20
4.521440
  0
VERTEX
  8
0
  6
CONTINUOUS
 10
3.987720
 20
4.495040
  0
VERTEX
  8
0
  6
CONTINUOUS
 10
4.011480
 20
4.475240
  0
VERTEX
  8
0
  6
CONTINUOUS
 10
4.044480
 20
4.456320
  0
VERTEX
  8
0
  6
CONTINUOUS
 10
4.077920
 20
4.444880
  0
VERTEX
  8
0
  6
CONTINUOUS
 10
4.171200
 20
4.423320
  0
VERTEX
  8
0
  6
CONTINUOUS
 10
4.171200
 20
4.319040
  0
VERTEX
  8
0
  6
CONTINUOUS
 10
4.256560
 20
4.318160
  0
VERTEX
  8
0
  6
CONTINUOUS
 10
4.334000
 20
4.314640
  0
VERTEX
  8
0
  6
CONTINUOUS
 10
4.406600
 20
4.308920
  0
VERTEX
  8
0
  6
CONTINUOUS
 10
4.508240
 20
4.296160
  0
VERTEX
  8
0
  6
CONTINUOUS
 10
4.570280
 20
4.284720
  0
VERTEX
  8
0
  6
CONTINUOUS
 10
4.656080
 20
4.264920
  0
VERTEX
  8
0
  6
CONTINUOUS
 10
4.732640
 20
4.241160
  0
VERTEX
  8
0
  6
CONTINUOUS
 10
4.800400
 20
4.213880
  0
VERTEX
  8
0
  6
CONTINUOUS
 10
4.859360
 20
4.183960
  0
VERTEX
  8
0
  6
CONTINUOUS
 10
4.909520
 20
4.152280
  0
VERTEX
  8
0
  6
CONTINUOUS
 10
4.951320
 20
4.118400
  0
VERTEX
  8
0
  6
CONTINUOUS
 10
4.984760
 20
4.083200
  0
VERTEX
  8
0
  6
CONTINUOUS
 10
5.002800
 20
4.059440
  0
VERTEX
  8
0
  6
CONTINUOUS
 10
5.023040
 20
4.023360
  0
VERTEX
  8
0
  6
CONTINUOUS
 10
5.035360
 20
3.987280
  0
VERTEX
  8
0
  6
CONTINUOUS
 10
5.040200
 20
3.951640
  0
VERTEX
  8
0
  6
CONTINUOUS
 10
5.038880
 20
3.928320
  0
VERTEX
  8
0
  6
CONTINUOUS
 10
5.034920
 20
3.905440
  0
VERTEX
  8
0
  6
CONTINUOUS
 10
5.027440
 20
3.883440
  0
VERTEX
  8
0
  6
CONTINUOUS
 10
5.010280
 20
3.852200
  0
VERTEX
  8
0
  6
CONTINUOUS
 10
4.986080
 20
3.823600
  0
VERTEX
  8
0
  6
CONTINUOUS
 10
4.955280
 20
3.797640
  0
VERTEX
  8
0
  6
CONTINUOUS
 10
4.917880
 20
3.775200
  0
VERTEX
  8
0
  6
CONTINUOUS
 10
4.873880
 20
3.756720
  0
VERTEX
  8
0
  6
CONTINUOUS
 10
4.873880
 20
3.635280
  0
VERTEX
  8
0
  6
CONTINUOUS
 10
4.845720
 20
3.635280
  0
VERTEX
  8
0
  6
CONTINUOUS
 10
4.863320
 20
3.635280
  0
SEQEND
  8
0
  0
TEXT
  8
0
 10
4.105640
 20
3.279320
 40
0.138166
  1
BA  96
 41
1.000000
  7
SN0
 71
     0
 72
     5
 11
4.603494
 21
3.279320
  0
TEXT
  8
0
 10
3.765080
 20
3.087920
 40
0.138166
  1
15/16" x 1-3/16"
 41
1.000000
  7
SN0
 71
     0
 72
     5
 11
4.942668
 21
3.087920
  0
ENDSEC
  0
EOF
