  0
SECTION
  2
HEADER
  9
$ACADVER
  1
AC1006
  9
$EXTMIN
 10
2.184600
 20
0.417560
  9
$EXTMAX
 10
6.961680
 20
6.649720
  9
$LTSCALE
 40
0.044000
  9
$PDMODE
 70
    35
  9
$PDSIZE
 40
0.035200
  0
ENDSEC
  0
SECTION
  2
TABLES
  0
TABLE
  2
LTYPE
 70
     9
  0
LTYPE
  2
CONTINUOUS
 70
    64
  3
Solid line
 72
    65
 73
     0
 40
0.000000
  0
LTYPE
  2
DASHED
 70
    64
  3
__ __ __ __ __ __ __ __ __ __ __ __ __ __ __
 72
    65
 73
     2
 40
0.000330
 49
0.000220
 49
-0.000110
  0
LTYPE
  2
HIDDEN
 70
    64
  3
 _ _ _ _ _ _ _ _ _ _ _ _ _ _ _ _ _ _ _ _ _ _
 72
    65
 73
     2
 40
0.000165
 49
0.000110
 49
-0.000055
  0
LTYPE
  2
CENTER
 70
    64
  3
____ _ ____ _ ____ _ ____ _ ____ _ ____ _ ____
 72
    65
 73
     4
 40
0.000880
 49
0.000550
 49
-0.000110
 49
0.000110
 49
-0.000110
  0
LTYPE
  2
PHANTOM
 70
    64
  3
_____ _ _ _____ _ _ _____ _ _ _____ _ _ ____
 72
    65
 73
     6
 40
0.001100
 49
0.000550
 49
-0.000110
 49
0.000110
 49
-0.000110
 49
0.000110
 49
-0.000110
  0
LTYPE
  2
DOT
 70
    64
  3
...............................................
 72
    65
 73
     2
 40
0.000110
 49
0.000000
 49
-0.000110
  0
LTYPE
  2
DASHDOT
 70
    64
  3
__ . __ . __ . __ . __ . __ . __ . __ . __ . __
 72
    65
 73
     4
 40
0.000440
 49
0.000220
 49
-0.000110
 49
0.000000
 49
-0.000110
  0
LTYPE
  2
BORDER
 70
    64
  3
__ __ . __ __ . __ __ . __ __ . __ __ . __ __
 72
    65
 73
     6
 40
0.000770
 49
0.000220
 49
-0.000110
 49
0.000220
 49
-0.000110
 49
0.000000
 49
-0.000110
  0
LTYPE
  2
DIVIDE
 70
    64
  3
__ . . __ . . __ . . __ . . __ . . __ . . __
 72
    65
 73
     6
 40
0.000550
 49
0.000220
 49
-0.000110
 49
0.000000
 49
-0.000110
 49
0.000000
 49
-0.000110
  0
LTYPE
  2
DOTDOT
 70
    64
  3
 . .  . .  . .  . .  . .  . . 
 72
    65
 73
     5
 40
0.000242
 49
-0.000110
 49
0.000000
 49
-0.000110
 49
0.000000
 49
-0.000110
  0
ENDTAB
  0
TABLE
  2
STYLE
 70
     4
  0
STYLE
 70
     0
  2
SN0
 40
0.000000
 41
0.000440
 50
0.000000
 71
     0
 42
0.000000
  3
ROMAND
  0
STYLE
 70
    68
  2
SV0
 40
0.000000
 41
0.000440
 50
0.000000
 71
     0
 42
0.000000
  3
ROMAND
  0
STYLE
 70
     0
  2
SN1
 40
0.000000
 41
0.000440
 50
0.000000
 71
     0
 42
0.000000
  3
ROMAND
  0
STYLE
 70
    68
  2
SV1
 40
0.000000
 41
0.000440
 50
0.000000
 71
     0
 42
0.000000
  3
ROMAND
  0
ENDTAB
  0
TABLE
  2
LAYER
 70
     3
  0
LAYER
  2
FOREGROUND
 70
    64
 62
     7
  6
CONTINUOUS
  0
LAYER
  2
BACKGROUND
 70
    65
 62
    -7
  6
CONTINUOUS
  0
LAYER
  2
0
 70
    64
 62
     7
  6
CONTINUOUS
  0
ENDTAB
  0
ENDSEC
  0
SECTION
  2
ENTITIES
  0
POLYLINE
  8
FOREGROUND
  6
CONTINUOUS
 66
     1
 40
0.000000
 41
0.000000
  0
VERTEX
  8
FOREGROUND
  6
CONTINUOUS
 10
0.000000
 20
7.067280
  0
VERTEX
  8
FOREGROUND
  6
CONTINUOUS
 10
8.499920
 20
7.067280
  0
VERTEX
  8
FOREGROUND
  6
CONTINUOUS
 10
8.499920
 20
-3.932720
  0
VERTEX
  8
FOREGROUND
  6
CONTINUOUS
 10
0.000000
 20
-3.932720
  0
VERTEX
  8
FOREGROUND
  6
CONTINUOUS
 10
0.000000
 20
7.067280
  0
SEQEND
  8
0
  0
POLYLINE
  8
FOREGROUND
  6
CONTINUOUS
 66
     1
 40
0.000000
 41
0.000000
  0
VERTEX
  8
FOREGROUND
  6
CONTINUOUS
 10
0.000000
 20
7.067280
  0
VERTEX
  8
FOREGROUND
  6
CONTINUOUS
 10
8.499920
 20
7.067280
  0
VERTEX
  8
FOREGROUND
  6
CONTINUOUS
 10
8.499920
 20
-3.932720
  0
VERTEX
  8
FOREGROUND
  6
CONTINUOUS
 10
0.000000
 20
-3.932720
  0
VERTEX
  8
FOREGROUND
  6
CONTINUOUS
 10
0.000000
 20
7.067280
  0
SEQEND
  8
0
  0
POLYLINE
  8
0
  6
CONTINUOUS
 66
     1
 40
0.014080
 41
0.014080
  0
VERTEX
  8
0
  6
CONTINUOUS
 10
6.430600
 20
4.680720
  0
VERTEX
  8
0
  6
CONTINUOUS
 10
6.430160
 20
4.721200
  0
VERTEX
  8
0
  6
CONTINUOUS
 10
6.433240
 20
4.797320
  0
VERTEX
  8
0
  6
CONTINUOUS
 10
6.436320
 20
4.833400
  0
VERTEX
  8
0
  6
CONTINUOUS
 10
6.446000
 20
4.901600
  0
VERTEX
  8
0
  6
CONTINUOUS
 10
6.459200
 20
4.964520
  0
VERTEX
  8
0
  6
CONTINUOUS
 10
6.475920
 20
5.023040
  0
VERTEX
  8
0
  6
CONTINUOUS
 10
6.495280
 20
5.077160
  0
VERTEX
  8
0
  6
CONTINUOUS
 10
6.517720
 20
5.127320
  0
VERTEX
  8
0
  6
CONTINUOUS
 10
6.554680
 20
5.195080
  0
VERTEX
  8
0
  6
CONTINUOUS
 10
6.595600
 20
5.255360
  0
VERTEX
  8
0
  6
CONTINUOUS
 10
6.653680
 20
5.326200
  0
VERTEX
  8
0
  6
CONTINUOUS
 10
6.712640
 20
5.387360
  0
VERTEX
  8
0
  6
CONTINUOUS
 10
6.769400
 20
5.441920
  0
VERTEX
  8
0
  6
CONTINUOUS
 10
6.791400
 20
5.458200
  0
VERTEX
  8
0
  6
CONTINUOUS
 10
6.822640
 20
5.490760
  0
VERTEX
  8
0
  6
CONTINUOUS
 10
6.852560
 20
5.531680
  0
VERTEX
  8
0
  6
CONTINUOUS
 10
6.879400
 20
5.580520
  0
VERTEX
  8
0
  6
CONTINUOUS
 10
6.903160
 20
5.635520
  0
VERTEX
  8
0
  6
CONTINUOUS
 10
6.922960
 20
5.696240
  0
VERTEX
  8
0
  6
CONTINUOUS
 10
6.938800
 20
5.761360
  0
VERTEX
  8
0
  6
CONTINUOUS
 10
6.949360
 20
5.830440
  0
VERTEX
  8
0
  6
CONTINUOUS
 10
6.954640
 20
5.902160
  0
VERTEX
  8
0
  6
CONTINUOUS
 10
6.953320
 20
5.975640
  0
VERTEX
  8
0
  6
CONTINUOUS
 10
6.948920
 20
6.024920
  0
VERTEX
  8
0
  6
CONTINUOUS
 10
6.941000
 20
6.074640
  0
VERTEX
  8
0
  6
CONTINUOUS
 10
6.930000
 20
6.123920
  0
VERTEX
  8
0
  6
CONTINUOUS
 10
6.915480
 20
6.173200
  0
VERTEX
  8
0
  6
CONTINUOUS
 10
6.897000
 20
6.221160
  0
VERTEX
  8
0
  6
CONTINUOUS
 10
6.875000
 20
6.268240
  0
VERTEX
  8
0
  6
CONTINUOUS
 10
6.848600
 20
6.314000
  0
VERTEX
  8
0
  6
CONTINUOUS
 10
6.817800
 20
6.358000
  0
VERTEX
  8
0
  6
CONTINUOUS
 10
6.783040
 20
6.400240
  0
VERTEX
  8
0
  6
CONTINUOUS
 10
6.743440
 20
6.440280
  0
VERTEX
  8
0
  6
CONTINUOUS
 10
6.699000
 20
6.477680
  0
VERTEX
  8
0
  6
CONTINUOUS
 10
6.649720
 20
6.512440
  0
VERTEX
  8
0
  6
CONTINUOUS
 10
6.595160
 20
6.544120
  0
VERTEX
  8
0
  6
CONTINUOUS
 10
6.535320
 20
6.572720
  0
VERTEX
  8
0
  6
CONTINUOUS
 10
6.469760
 20
6.597360
  0
VERTEX
  8
0
  6
CONTINUOUS
 10
6.398920
 20
6.618480
  0
VERTEX
  8
0
  6
CONTINUOUS
 10
6.321920
 20
6.635200
  0
VERTEX
  8
0
  6
CONTINUOUS
 10
6.281440
 20
6.641800
  0
VERTEX
  8
0
  6
CONTINUOUS
 10
6.028000
 20
6.641800
  0
VERTEX
  8
0
  6
CONTINUOUS
 10
6.033280
 20
6.641800
  0
VERTEX
  8
0
  6
CONTINUOUS
 10
5.974760
 20
6.641800
  0
VERTEX
  8
0
  6
CONTINUOUS
 10
5.991920
 20
6.640480
  0
VERTEX
  8
0
  6
CONTINUOUS
 10
5.738480
 20
6.640480
  0
VERTEX
  8
0
  6
CONTINUOUS
 10
5.658840
 20
6.625960
  0
VERTEX
  8
0
  6
CONTINUOUS
 10
5.621000
 20
6.617160
  0
VERTEX
  8
0
  6
CONTINUOUS
 10
5.550160
 20
6.596040
  0
VERTEX
  8
0
  6
CONTINUOUS
 10
5.484600
 20
6.571400
  0
VERTEX
  8
0
  6
CONTINUOUS
 10
5.424760
 20
6.542800
  0
VERTEX
  8
0
  6
CONTINUOUS
 10
5.370200
 20
6.511120
  0
VERTEX
  8
0
  6
CONTINUOUS
 10
5.320920
 20
6.476360
  0
VERTEX
  8
0
  6
CONTINUOUS
 10
5.276480
 20
6.438960
  0
VERTEX
  8
0
  6
CONTINUOUS
 10
5.236880
 20
6.398920
  0
VERTEX
  8
0
  6
CONTINUOUS
 10
5.202120
 20
6.356680
  0
VERTEX
  8
0
  6
CONTINUOUS
 10
5.171320
 20
6.312680
  0
VERTEX
  8
0
  6
CONTINUOUS
 10
5.144920
 20
6.266920
  0
VERTEX
  8
0
  6
CONTINUOUS
 10
5.122920
 20
6.219840
  0
VERTEX
  8
0
  6
CONTINUOUS
 10
5.104440
 20
6.171880
  0
VERTEX
  8
0
  6
CONTINUOUS
 10
5.089920
 20
6.122600
  0
VERTEX
  8
0
  6
CONTINUOUS
 10
5.078920
 20
6.073320
  0
VERTEX
  8
0
  6
CONTINUOUS
 10
5.071000
 20
6.023600
  0
VERTEX
  8
0
  6
CONTINUOUS
 10
5.066600
 20
5.974320
  0
VERTEX
  8
0
  6
CONTINUOUS
 10
5.065280
 20
5.900840
  0
VERTEX
  8
0
  6
CONTINUOUS
 10
5.070560
 20
5.829120
  0
VERTEX
  8
0
  6
CONTINUOUS
 10
5.081120
 20
5.760040
  0
VERTEX
  8
0
  6
CONTINUOUS
 10
5.096960
 20
5.694920
  0
VERTEX
  8
0
  6
CONTINUOUS
 10
5.116760
 20
5.634200
  0
VERTEX
  8
0
  6
CONTINUOUS
 10
5.140520
 20
5.579200
  0
VERTEX
  8
0
  6
CONTINUOUS
 10
5.167360
 20
5.530360
  0
VERTEX
  8
0
  6
CONTINUOUS
 10
5.197280
 20
5.489440
  0
VERTEX
  8
0
  6
CONTINUOUS
 10
5.228520
 20
5.456880
  0
VERTEX
  8
0
  6
CONTINUOUS
 10
5.250520
 20
5.440600
  0
VERTEX
  8
0
  6
CONTINUOUS
 10
5.336760
 20
5.356560
  0
VERTEX
  8
0
  6
CONTINUOUS
 10
5.366240
 20
5.324880
  0
VERTEX
  8
0
  6
CONTINUOUS
 10
5.424320
 20
5.254040
  0
VERTEX
  8
0
  6
CONTINUOUS
 10
5.465240
 20
5.193760
  0
VERTEX
  8
0
  6
CONTINUOUS
 10
5.502200
 20
5.126000
  0
VERTEX
  8
0
  6
CONTINUOUS
 10
5.524640
 20
5.075840
  0
VERTEX
  8
0
  6
CONTINUOUS
 10
5.544000
 20
5.021720
  0
VERTEX
  8
0
  6
CONTINUOUS
 10
5.560720
 20
4.963200
  0
VERTEX
  8
0
  6
CONTINUOUS
 10
5.573920
 20
4.900280
  0
VERTEX
  8
0
  6
CONTINUOUS
 10
5.583600
 20
4.832080
  0
VERTEX
  8
0
  6
CONTINUOUS
 10
5.586680
 20
4.796000
  0
VERTEX
  8
0
  6
CONTINUOUS
 10
5.589760
 20
4.719880
  0
VERTEX
  8
0
  6
CONTINUOUS
 10
5.589320
 20
4.679400
  0
VERTEX
  8
0
  6
CONTINUOUS
 10
5.586680
 20
4.671480
  0
VERTEX
  8
0
  6
CONTINUOUS
 10
5.586680
 20
4.619120
  0
VERTEX
  8
0
  6
CONTINUOUS
 10
6.427960
 20
4.619120
  0
VERTEX
  8
0
  6
CONTINUOUS
 10
6.427960
 20
4.716800
  0
VERTEX
  8
0
  6
CONTINUOUS
 10
6.430600
 20
4.680720
  0
SEQEND
  8
0
  0
POLYLINE
  8
0
  6
CONTINUOUS
 66
     1
 40
0.014080
 41
0.014080
  0
VERTEX
  8
0
  6
CONTINUOUS
 10
5.359200
 20
2.012560
  0
VERTEX
  8
0
  6
CONTINUOUS
 10
5.359200
 20
1.602040
  0
VERTEX
  8
0
  6
CONTINUOUS
 10
5.360520
 20
1.600720
  0
VERTEX
  8
0
  6
CONTINUOUS
 10
5.385160
 20
1.621400
  0
VERTEX
  8
0
  6
CONTINUOUS
 10
5.408920
 20
1.644280
  0
VERTEX
  8
0
  6
CONTINUOUS
 10
5.431360
 20
1.668480
  0
VERTEX
  8
0
  6
CONTINUOUS
 10
5.452920
 20
1.694440
  0
VERTEX
  8
0
  6
CONTINUOUS
 10
5.473160
 20
1.722160
  0
VERTEX
  8
0
  6
CONTINUOUS
 10
5.492080
 20
1.751200
  0
VERTEX
  8
0
  6
CONTINUOUS
 10
5.509680
 20
1.781560
  0
VERTEX
  8
0
  6
CONTINUOUS
 10
5.525960
 20
1.813240
  0
VERTEX
  8
0
  6
CONTINUOUS
 10
5.540920
 20
1.846240
  0
VERTEX
  8
0
  6
CONTINUOUS
 10
5.554120
 20
1.880120
  0
VERTEX
  8
0
  6
CONTINUOUS
 10
5.566000
 20
1.914880
  0
VERTEX
  8
0
  6
CONTINUOUS
 10
5.576120
 20
1.950520
  0
VERTEX
  8
0
  6
CONTINUOUS
 10
5.584480
 20
1.986600
  0
VERTEX
  8
0
  6
CONTINUOUS
 10
5.591520
 20
2.023560
  0
VERTEX
  8
0
  6
CONTINUOUS
 10
5.596800
 20
2.061400
  0
VERTEX
  8
0
  6
CONTINUOUS
 10
5.599880
 20
2.099240
  0
VERTEX
  8
0
  6
CONTINUOUS
 10
5.601200
 20
2.137520
  0
VERTEX
  8
0
  6
CONTINUOUS
 10
5.600760
 20
2.176240
  0
VERTEX
  8
0
  6
CONTINUOUS
 10
5.598560
 20
2.214960
  0
VERTEX
  8
0
  6
CONTINUOUS
 10
5.594160
 20
2.254120
  0
VERTEX
  8
0
  6
CONTINUOUS
 10
5.587560
 20
2.292840
  0
VERTEX
  8
0
  6
CONTINUOUS
 10
5.579200
 20
2.331120
  0
VERTEX
  8
0
  6
CONTINUOUS
 10
5.568200
 20
2.369840
  0
VERTEX
  8
0
  6
CONTINUOUS
 10
5.555440
 20
2.407680
  0
VERTEX
  8
0
  6
CONTINUOUS
 10
5.540040
 20
2.445080
  0
VERTEX
  8
0
  6
CONTINUOUS
 10
5.522440
 20
2.482040
  0
VERTEX
  8
0
  6
CONTINUOUS
 10
5.512760
 20
2.500520
  0
VERTEX
  8
0
  6
CONTINUOUS
 10
5.502200
 20
2.518560
  0
VERTEX
  8
0
  6
CONTINUOUS
 10
5.491200
 20
2.536600
  0
VERTEX
  8
0
  6
CONTINUOUS
 10
5.479760
 20
2.554200
  0
VERTEX
  8
0
  6
CONTINUOUS
 10
5.467880
 20
2.571800
  0
VERTEX
  8
0
  6
CONTINUOUS
 10
5.441480
 20
2.606120
  0
VERTEX
  8
0
  6
CONTINUOUS
 10
5.427400
 20
2.622840
  0
VERTEX
  8
0
  6
CONTINUOUS
 10
5.412440
 20
2.639120
  0
VERTEX
  8
0
  6
CONTINUOUS
 10
5.397040
 20
2.655400
  0
VERTEX
  8
0
  6
CONTINUOUS
 10
5.381200
 20
2.671240
  0
VERTEX
  8
0
  6
CONTINUOUS
 10
5.364480
 20
2.687080
  0
VERTEX
  8
0
  6
CONTINUOUS
 10
5.364480
 20
2.258080
  0
VERTEX
  8
0
  6
CONTINUOUS
 10
5.267240
 20
2.258080
  0
VERTEX
  8
0
  6
CONTINUOUS
 10
5.267240
 20
2.015200
  0
VERTEX
  8
0
  6
CONTINUOUS
 10
5.267240
 20
2.013880
  0
VERTEX
  8
0
  6
CONTINUOUS
 10
5.359200
 20
2.013880
  0
VERTEX
  8
0
  6
CONTINUOUS
 10
5.359200
 20
2.012560
  0
SEQEND
  8
0
  0
POLYLINE
  8
0
  6
CONTINUOUS
 66
     1
 40
0.014080
 41
0.014080
  0
VERTEX
  8
0
  6
CONTINUOUS
 10
5.214000
 20
2.262040
  0
VERTEX
  8
0
  6
CONTINUOUS
 10
5.308600
 20
2.262040
  0
VERTEX
  8
0
  6
CONTINUOUS
 10
5.308600
 20
2.717880
  0
VERTEX
  8
0
  6
CONTINUOUS
 10
5.281320
 20
2.741200
  0
VERTEX
  8
0
  6
CONTINUOUS
 10
5.222360
 20
2.783440
  0
VERTEX
  8
0
  6
CONTINUOUS
 10
5.167360
 20
2.816000
  0
VERTEX
  8
0
  6
CONTINUOUS
 10
5.129520
 20
2.834040
  0
VERTEX
  8
0
  6
CONTINUOUS
 10
5.093000
 20
2.846360
  0
VERTEX
  8
0
  6
CONTINUOUS
 10
5.076280
 20
2.849880
  0
VERTEX
  8
0
  6
CONTINUOUS
 10
5.076280
 20
2.263360
  0
VERTEX
  8
0
  6
CONTINUOUS
 10
5.076280
 20
2.266000
  0
VERTEX
  8
0
  6
CONTINUOUS
 10
5.076280
 20
2.259400
  0
VERTEX
  8
0
  6
CONTINUOUS
 10
5.074960
 20
2.258080
  0
VERTEX
  8
0
  6
CONTINUOUS
 10
4.953960
 20
2.258080
  0
VERTEX
  8
0
  6
CONTINUOUS
 10
4.953960
 20
2.013880
  0
VERTEX
  8
0
  6
CONTINUOUS
 10
5.074960
 20
2.013880
  0
VERTEX
  8
0
  6
CONTINUOUS
 10
5.074960
 20
1.998040
  0
VERTEX
  8
0
  6
CONTINUOUS
 10
5.074960
 20
2.000680
  0
VERTEX
  8
0
  6
CONTINUOUS
 10
5.074960
 20
1.290080
  0
VERTEX
  8
0
  6
CONTINUOUS
 10
5.140960
 20
1.408000
  0
VERTEX
  8
0
  6
CONTINUOUS
 10
5.166920
 20
1.448480
  0
VERTEX
  8
0
  6
CONTINUOUS
 10
5.195960
 20
1.487200
  0
VERTEX
  8
0
  6
CONTINUOUS
 10
5.211800
 20
1.505240
  0
VERTEX
  8
0
  6
CONTINUOUS
 10
5.247000
 20
1.537800
  0
VERTEX
  8
0
  6
CONTINUOUS
 10
5.286600
 20
1.564640
  0
VERTEX
  8
0
  6
CONTINUOUS
 10
5.308600
 20
1.575200
  0
VERTEX
  8
0
  6
CONTINUOUS
 10
5.308600
 20
2.009920
  0
VERTEX
  8
0
  6
CONTINUOUS
 10
5.206960
 20
2.009920
  0
VERTEX
  8
0
  6
CONTINUOUS
 10
5.206960
 20
2.253680
  0
VERTEX
  8
0
  6
CONTINUOUS
 10
5.206960
 20
2.248400
  0
VERTEX
  8
0
  6
CONTINUOUS
 10
5.206960
 20
2.262040
  0
VERTEX
  8
0
  6
CONTINUOUS
 10
5.228520
 20
2.262040
  0
VERTEX
  8
0
  6
CONTINUOUS
 10
5.214000
 20
2.262040
  0
SEQEND
  8
0
  0
POLYLINE
  8
0
  6
CONTINUOUS
 66
     1
 40
0.014080
 41
0.014080
  0
VERTEX
  8
0
  6
CONTINUOUS
 10
4.740560
 20
0.907280
  0
VERTEX
  8
0
  6
CONTINUOUS
 10
4.740560
 20
2.009920
  0
VERTEX
  8
0
  6
CONTINUOUS
 10
4.737920
 20
2.009920
  0
VERTEX
  8
0
  6
CONTINUOUS
 10
4.729560
 20
2.009920
  0
VERTEX
  8
0
  6
CONTINUOUS
 10
4.733960
 20
2.009920
  0
VERTEX
  8
0
  6
CONTINUOUS
 10
4.640240
 20
2.009920
  0
VERTEX
  8
0
  6
CONTINUOUS
 10
4.640240
 20
2.262040
  0
VERTEX
  8
0
  6
CONTINUOUS
 10
4.740560
 20
2.262040
  0
VERTEX
  8
0
  6
CONTINUOUS
 10
4.740560
 20
2.271280
  0
VERTEX
  8
0
  6
CONTINUOUS
 10
4.740560
 20
2.891240
  0
VERTEX
  8
0
  6
CONTINUOUS
 10
4.740560
 20
2.883320
  0
VERTEX
  8
0
  6
CONTINUOUS
 10
4.740560
 20
2.900480
  0
VERTEX
  8
0
  6
CONTINUOUS
 10
4.736600
 20
2.900480
  0
VERTEX
  8
0
  6
CONTINUOUS
 10
4.737920
 20
2.900480
  0
VERTEX
  8
0
  6
CONTINUOUS
 10
4.499000
 20
2.900480
  0
VERTEX
  8
0
  6
CONTINUOUS
 10
4.499000
 20
1.783320
  0
VERTEX
  8
0
  6
CONTINUOUS
 10
4.405720
 20
1.783320
  0
VERTEX
  8
0
  6
CONTINUOUS
 10
4.405720
 20
1.775400
  0
VERTEX
  8
0
  6
CONTINUOUS
 10
4.405720
 20
1.535160
  0
VERTEX
  8
0
  6
CONTINUOUS
 10
4.495040
 20
1.535160
  0
VERTEX
  8
0
  6
CONTINUOUS
 10
4.496360
 20
1.533840
  0
VERTEX
  8
0
  6
CONTINUOUS
 10
4.496360
 20
0.890120
  0
VERTEX
  8
0
  6
CONTINUOUS
 10
4.496360
 20
0.889680
  0
VERTEX
  8
0
  6
CONTINUOUS
 10
4.740560
 20
0.889680
  0
VERTEX
  8
0
  6
CONTINUOUS
 10
4.740560
 20
0.928400
  0
VERTEX
  8
0
  6
CONTINUOUS
 10
4.740560
 20
0.907280
  0
SEQEND
  8
0
  0
POLYLINE
  8
0
  6
CONTINUOUS
 66
     1
 40
0.014080
 41
0.014080
  0
VERTEX
  8
0
  6
CONTINUOUS
 10
4.897640
 20
2.258080
  0
VERTEX
  8
0
  6
CONTINUOUS
 10
4.897640
 20
2.009920
  0
VERTEX
  8
0
  6
CONTINUOUS
 10
4.904240
 20
2.009920
  0
VERTEX
  8
0
  6
CONTINUOUS
 10
4.901600
 20
2.009920
  0
VERTEX
  8
0
  6
CONTINUOUS
 10
5.025680
 20
2.009920
  0
VERTEX
  8
0
  6
CONTINUOUS
 10
5.027000
 20
2.008600
  0
VERTEX
  8
0
  6
CONTINUOUS
 10
5.027000
 20
1.232440
  0
VERTEX
  8
0
  6
CONTINUOUS
 10
5.012920
 20
1.205160
  0
VERTEX
  8
0
  6
CONTINUOUS
 10
5.002800
 20
1.172600
  0
VERTEX
  8
0
  6
CONTINUOUS
 10
4.992240
 20
1.120240
  0
VERTEX
  8
0
  6
CONTINUOUS
 10
4.983440
 20
1.034000
  0
VERTEX
  8
0
  6
CONTINUOUS
 10
4.979040
 20
0.934120
  0
VERTEX
  8
0
  6
CONTINUOUS
 10
4.979040
 20
0.891000
  0
VERTEX
  8
0
  6
CONTINUOUS
 10
4.784560
 20
0.891000
  0
VERTEX
  8
0
  6
CONTINUOUS
 10
4.784560
 20
2.013880
  0
VERTEX
  8
0
  6
CONTINUOUS
 10
4.696560
 20
2.013880
  0
VERTEX
  8
0
  6
CONTINUOUS
 10
4.696560
 20
2.258080
  0
VERTEX
  8
0
  6
CONTINUOUS
 10
4.783240
 20
2.258080
  0
VERTEX
  8
0
  6
CONTINUOUS
 10
4.783240
 20
2.896520
  0
VERTEX
  8
0
  6
CONTINUOUS
 10
4.845720
 20
2.896520
  0
VERTEX
  8
0
  6
CONTINUOUS
 10
4.904680
 20
2.891680
  0
VERTEX
  8
0
  6
CONTINUOUS
 10
4.933720
 20
2.887280
  0
VERTEX
  8
0
  6
CONTINUOUS
 10
4.978160
 20
2.876280
  0
VERTEX
  8
0
  6
CONTINUOUS
 10
5.025680
 20
2.859120
  0
VERTEX
  8
0
  6
CONTINUOUS
 10
5.025680
 20
2.266000
  0
VERTEX
  8
0
  6
CONTINUOUS
 10
5.025680
 20
2.267320
  0
VERTEX
  8
0
  6
CONTINUOUS
 10
5.025680
 20
2.262040
  0
VERTEX
  8
0
  6
CONTINUOUS
 10
4.897640
 20
2.262040
  0
VERTEX
  8
0
  6
CONTINUOUS
 10
4.897640
 20
2.253680
  0
VERTEX
  8
0
  6
CONTINUOUS
 10
4.897640
 20
2.258080
  0
SEQEND
  8
0
  0
POLYLINE
  8
0
  6
CONTINUOUS
 66
     1
 40
0.014080
 41
0.014080
  0
VERTEX
  8
0
  6
CONTINUOUS
 10
4.224440
 20
2.273920
  0
VERTEX
  8
0
  6
CONTINUOUS
 10
4.224440
 20
2.792680
  0
VERTEX
  8
0
  6
CONTINUOUS
 10
4.224440
 20
2.790040
  0
VERTEX
  8
0
  6
CONTINUOUS
 10
4.224440
 20
2.801920
  0
VERTEX
  8
0
  6
CONTINUOUS
 10
4.224440
 20
2.797960
  0
VERTEX
  8
0
  6
CONTINUOUS
 10
4.224440
 20
2.899160
  0
VERTEX
  8
0
  6
CONTINUOUS
 10
4.448400
 20
2.899160
  0
VERTEX
  8
0
  6
CONTINUOUS
 10
4.448400
 20
1.787280
  0
VERTEX
  8
0
  6
CONTINUOUS
 10
4.369640
 20
1.787280
  0
VERTEX
  8
0
  6
CONTINUOUS
 10
4.369640
 20
1.531200
  0
VERTEX
  8
0
  6
CONTINUOUS
 10
4.448400
 20
1.531200
  0
VERTEX
  8
0
  6
CONTINUOUS
 10
4.448400
 20
0.890120
  0
VERTEX
  8
0
  6
CONTINUOUS
 10
4.448400
 20
0.889680
  0
VERTEX
  8
0
  6
CONTINUOUS
 10
4.224440
 20
0.889680
  0
VERTEX
  8
0
  6
CONTINUOUS
 10
4.224440
 20
2.008600
  0
VERTEX
  8
0
  6
CONTINUOUS
 10
4.224440
 20
2.009920
  0
VERTEX
  8
0
  6
CONTINUOUS
 10
4.311120
 20
2.009920
  0
VERTEX
  8
0
  6
CONTINUOUS
 10
4.311120
 20
2.011240
  0
VERTEX
  8
0
  6
CONTINUOUS
 10
4.311120
 20
2.262040
  0
VERTEX
  8
0
  6
CONTINUOUS
 10
4.224440
 20
2.262040
  0
VERTEX
  8
0
  6
CONTINUOUS
 10
4.224440
 20
2.263360
  0
VERTEX
  8
0
  6
CONTINUOUS
 10
4.224440
 20
2.280520
  0
VERTEX
  8
0
  6
CONTINUOUS
 10
4.224440
 20
2.273920
  0
SEQEND
  8
0
  0
POLYLINE
  8
0
  6
CONTINUOUS
 66
     1
 40
0.014080
 41
0.014080
  0
VERTEX
  8
0
  6
CONTINUOUS
 10
3.608440
 20
2.012560
  0
VERTEX
  8
0
  6
CONTINUOUS
 10
3.608440
 20
1.602040
  0
VERTEX
  8
0
  6
CONTINUOUS
 10
3.607120
 20
1.600720
  0
VERTEX
  8
0
  6
CONTINUOUS
 10
3.582480
 20
1.621400
  0
VERTEX
  8
0
  6
CONTINUOUS
 10
3.558720
 20
1.644280
  0
VERTEX
  8
0
  6
CONTINUOUS
 10
3.536280
 20
1.668480
  0
VERTEX
  8
0
  6
CONTINUOUS
 10
3.514720
 20
1.694440
  0
VERTEX
  8
0
  6
CONTINUOUS
 10
3.494480
 20
1.722160
  0
VERTEX
  8
0
  6
CONTINUOUS
 10
3.475560
 20
1.751200
  0
VERTEX
  8
0
  6
CONTINUOUS
 10
3.457960
 20
1.781560
  0
VERTEX
  8
0
  6
CONTINUOUS
 10
3.441680
 20
1.813240
  0
VERTEX
  8
0
  6
CONTINUOUS
 10
3.426720
 20
1.846240
  0
VERTEX
  8
0
  6
CONTINUOUS
 10
3.413520
 20
1.880120
  0
VERTEX
  8
0
  6
CONTINUOUS
 10
3.401640
 20
1.914880
  0
VERTEX
  8
0
  6
CONTINUOUS
 10
3.391520
 20
1.950520
  0
VERTEX
  8
0
  6
CONTINUOUS
 10
3.383160
 20
1.986600
  0
VERTEX
  8
0
  6
CONTINUOUS
 10
3.376120
 20
2.023560
  0
VERTEX
  8
0
  6
CONTINUOUS
 10
3.370840
 20
2.061400
  0
VERTEX
  8
0
  6
CONTINUOUS
 10
3.367760
 20
2.099240
  0
VERTEX
  8
0
  6
CONTINUOUS
 10
3.366440
 20
2.137520
  0
VERTEX
  8
0
  6
CONTINUOUS
 10
3.366880
 20
2.176240
  0
VERTEX
  8
0
  6
CONTINUOUS
 10
3.369080
 20
2.214960
  0
VERTEX
  8
0
  6
CONTINUOUS
 10
3.373480
 20
2.254120
  0
VERTEX
  8
0
  6
CONTINUOUS
 10
3.380080
 20
2.292840
  0
VERTEX
  8
0
  6
CONTINUOUS
 10
3.388440
 20
2.331120
  0
VERTEX
  8
0
  6
CONTINUOUS
 10
3.399440
 20
2.369840
  0
VERTEX
  8
0
  6
CONTINUOUS
 10
3.412200
 20
2.407680
  0
VERTEX
  8
0
  6
CONTINUOUS
 10
3.427600
 20
2.445080
  0
VERTEX
  8
0
  6
CONTINUOUS
 10
3.445200
 20
2.482040
  0
VERTEX
  8
0
  6
CONTINUOUS
 10
3.454880
 20
2.500520
  0
VERTEX
  8
0
  6
CONTINUOUS
 10
3.465440
 20
2.518560
  0
VERTEX
  8
0
  6
CONTINUOUS
 10
3.476440
 20
2.536600
  0
VERTEX
  8
0
  6
CONTINUOUS
 10
3.487880
 20
2.554200
  0
VERTEX
  8
0
  6
CONTINUOUS
 10
3.499760
 20
2.571800
  0
VERTEX
  8
0
  6
CONTINUOUS
 10
3.526160
 20
2.606120
  0
VERTEX
  8
0
  6
CONTINUOUS
 10
3.540240
 20
2.622840
  0
VERTEX
  8
0
  6
CONTINUOUS
 10
3.555200
 20
2.639120
  0
VERTEX
  8
0
  6
CONTINUOUS
 10
3.570600
 20
2.655400
  0
VERTEX
  8
0
  6
CONTINUOUS
 10
3.586440
 20
2.671240
  0
VERTEX
  8
0
  6
CONTINUOUS
 10
3.603160
 20
2.687080
  0
VERTEX
  8
0
  6
CONTINUOUS
 10
3.603160
 20
2.258080
  0
VERTEX
  8
0
  6
CONTINUOUS
 10
3.700400
 20
2.258080
  0
VERTEX
  8
0
  6
CONTINUOUS
 10
3.700400
 20
2.015200
  0
VERTEX
  8
0
  6
CONTINUOUS
 10
3.700400
 20
2.013880
  0
VERTEX
  8
0
  6
CONTINUOUS
 10
3.608440
 20
2.013880
  0
VERTEX
  8
0
  6
CONTINUOUS
 10
3.608440
 20
2.012560
  0
SEQEND
  8
0
  0
POLYLINE
  8
0
  6
CONTINUOUS
 66
     1
 40
0.014080
 41
0.014080
  0
VERTEX
  8
0
  6
CONTINUOUS
 10
3.753640
 20
2.262040
  0
VERTEX
  8
0
  6
CONTINUOUS
 10
3.659040
 20
2.262040
  0
VERTEX
  8
0
  6
CONTINUOUS
 10
3.659040
 20
2.717880
  0
VERTEX
  8
0
  6
CONTINUOUS
 10
3.685880
 20
2.741200
  0
VERTEX
  8
0
  6
CONTINUOUS
 10
3.744840
 20
2.783440
  0
VERTEX
  8
0
  6
CONTINUOUS
 10
3.799840
 20
2.816000
  0
VERTEX
  8
0
  6
CONTINUOUS
 10
3.837680
 20
2.834040
  0
VERTEX
  8
0
  6
CONTINUOUS
 10
3.874200
 20
2.846360
  0
VERTEX
  8
0
  6
CONTINUOUS
 10
3.890920
 20
2.849880
  0
VERTEX
  8
0
  6
CONTINUOUS
 10
3.890920
 20
2.263360
  0
VERTEX
  8
0
  6
CONTINUOUS
 10
3.890920
 20
2.266000
  0
VERTEX
  8
0
  6
CONTINUOUS
 10
3.890920
 20
2.259400
  0
VERTEX
  8
0
  6
CONTINUOUS
 10
3.892240
 20
2.258080
  0
VERTEX
  8
0
  6
CONTINUOUS
 10
4.013680
 20
2.258080
  0
VERTEX
  8
0
  6
CONTINUOUS
 10
4.013680
 20
2.013880
  0
VERTEX
  8
0
  6
CONTINUOUS
 10
3.892240
 20
2.013880
  0
VERTEX
  8
0
  6
CONTINUOUS
 10
3.892240
 20
1.998040
  0
VERTEX
  8
0
  6
CONTINUOUS
 10
3.892240
 20
2.000680
  0
VERTEX
  8
0
  6
CONTINUOUS
 10
3.892240
 20
1.290080
  0
VERTEX
  8
0
  6
CONTINUOUS
 10
3.826680
 20
1.408000
  0
VERTEX
  8
0
  6
CONTINUOUS
 10
3.786640
 20
1.468280
  0
VERTEX
  8
0
  6
CONTINUOUS
 10
3.755840
 20
1.505240
  0
VERTEX
  8
0
  6
CONTINUOUS
 10
3.720640
 20
1.537800
  0
VERTEX
  8
0
  6
CONTINUOUS
 10
3.681040
 20
1.564640
  0
VERTEX
  8
0
  6
CONTINUOUS
 10
3.659040
 20
1.575200
  0
VERTEX
  8
0
  6
CONTINUOUS
 10
3.659040
 20
2.009920
  0
VERTEX
  8
0
  6
CONTINUOUS
 10
3.760240
 20
2.009920
  0
VERTEX
  8
0
  6
CONTINUOUS
 10
3.760240
 20
2.253680
  0
VERTEX
  8
0
  6
CONTINUOUS
 10
3.760240
 20
2.248400
  0
VERTEX
  8
0
  6
CONTINUOUS
 10
3.760240
 20
2.262040
  0
VERTEX
  8
0
  6
CONTINUOUS
 10
3.739120
 20
2.262040
  0
VERTEX
  8
0
  6
CONTINUOUS
 10
3.753640
 20
2.262040
  0
SEQEND
  8
0
  0
POLYLINE
  8
0
  6
CONTINUOUS
 66
     1
 40
0.014080
 41
0.014080
  0
VERTEX
  8
0
  6
CONTINUOUS
 10
4.069560
 20
2.258080
  0
VERTEX
  8
0
  6
CONTINUOUS
 10
4.069560
 20
2.009920
  0
VERTEX
  8
0
  6
CONTINUOUS
 10
4.062960
 20
2.009920
  0
VERTEX
  8
0
  6
CONTINUOUS
 10
4.065600
 20
2.009920
  0
VERTEX
  8
0
  6
CONTINUOUS
 10
3.941960
 20
2.009920
  0
VERTEX
  8
0
  6
CONTINUOUS
 10
3.940640
 20
2.008600
  0
VERTEX
  8
0
  6
CONTINUOUS
 10
3.940640
 20
1.232440
  0
VERTEX
  8
0
  6
CONTINUOUS
 10
3.954720
 20
1.205160
  0
VERTEX
  8
0
  6
CONTINUOUS
 10
3.964840
 20
1.172600
  0
VERTEX
  8
0
  6
CONTINUOUS
 10
3.975400
 20
1.120240
  0
VERTEX
  8
0
  6
CONTINUOUS
 10
3.984200
 20
1.034000
  0
VERTEX
  8
0
  6
CONTINUOUS
 10
3.988600
 20
0.934120
  0
VERTEX
  8
0
  6
CONTINUOUS
 10
3.988600
 20
0.891000
  0
VERTEX
  8
0
  6
CONTINUOUS
 10
4.183080
 20
0.891000
  0
VERTEX
  8
0
  6
CONTINUOUS
 10
4.183080
 20
2.013880
  0
VERTEX
  8
0
  6
CONTINUOUS
 10
4.271080
 20
2.013880
  0
VERTEX
  8
0
  6
CONTINUOUS
 10
4.271080
 20
2.258080
  0
VERTEX
  8
0
  6
CONTINUOUS
 10
4.184400
 20
2.258080
  0
VERTEX
  8
0
  6
CONTINUOUS
 10
4.184400
 20
2.896520
  0
VERTEX
  8
0
  6
CONTINUOUS
 10
4.121920
 20
2.896520
  0
VERTEX
  8
0
  6
CONTINUOUS
 10
4.063400
 20
2.891680
  0
VERTEX
  8
0
  6
CONTINUOUS
 10
4.033920
 20
2.887280
  0
VERTEX
  8
0
  6
CONTINUOUS
 10
3.989480
 20
2.876280
  0
VERTEX
  8
0
  6
CONTINUOUS
 10
3.941960
 20
2.859120
  0
VERTEX
  8
0
  6
CONTINUOUS
 10
3.941960
 20
2.266000
  0
VERTEX
  8
0
  6
CONTINUOUS
 10
3.941960
 20
2.267320
  0
VERTEX
  8
0
  6
CONTINUOUS
 10
3.941960
 20
2.262040
  0
VERTEX
  8
0
  6
CONTINUOUS
 10
4.069560
 20
2.262040
  0
VERTEX
  8
0
  6
CONTINUOUS
 10
4.069560
 20
2.253680
  0
VERTEX
  8
0
  6
CONTINUOUS
 10
4.069560
 20
2.258080
  0
SEQEND
  8
0
  0
TEXT
  8
0
 10
4.008840
 20
0.458040
 40
0.137969
  1
95A Bending
 41
1.000000
  7
SN0
 71
     0
 72
     5
 11
4.958621
 21
0.458040
  0
SOLID
  8
0
 62
    15
 10
4.071320
 20
5.405840
 11
4.692600
 21
5.749920
 12
4.058560
 22
5.313440
 13
4.679840
 23
5.657080
  0
POLYLINE
  8
0
  6
CONTINUOUS
 66
     1
 40
0.000000
 41
0.000000
  0
VERTEX
  8
0
  6
CONTINUOUS
 10
4.071320
 20
5.405840
  0
VERTEX
  8
0
  6
CONTINUOUS
 10
4.692600
 20
5.749920
  0
VERTEX
  8
0
  6
CONTINUOUS
 10
4.679840
 20
5.657080
  0
VERTEX
  8
0
  6
CONTINUOUS
 10
4.058560
 20
5.313440
  0
VERTEX
  8
0
  6
CONTINUOUS
 10
4.071320
 20
5.405840
  0
SEQEND
  8
0
  0
SOLID
  8
0
 62
    15
 10
2.574000
 20
6.109840
 11
3.195280
 21
6.453480
 12
2.704680
 22
6.159120
 13
3.325960
 23
6.503200
  0
POLYLINE
  8
0
  6
CONTINUOUS
 66
     1
 40
0.000000
 41
0.000000
  0
VERTEX
  8
0
  6
CONTINUOUS
 10
2.574000
 20
6.109840
  0
VERTEX
  8
0
  6
CONTINUOUS
 10
3.195280
 20
6.453480
  0
VERTEX
  8
0
  6
CONTINUOUS
 10
3.325960
 20
6.503200
  0
VERTEX
  8
0
  6
CONTINUOUS
 10
2.704680
 20
6.159120
  0
VERTEX
  8
0
  6
CONTINUOUS
 10
2.574000
 20
6.109840
  0
SEQEND
  8
0
  0
SOLID
  8
0
 62
    15
 10
2.704680
 20
6.159120
 11
3.325960
 21
6.503200
 12
2.858680
 22
6.192560
 13
3.479960
 23
6.536640
  0
POLYLINE
  8
0
  6
CONTINUOUS
 66
     1
 40
0.000000
 41
0.000000
  0
VERTEX
  8
0
  6
CONTINUOUS
 10
2.704680
 20
6.159120
  0
VERTEX
  8
0
  6
CONTINUOUS
 10
3.325960
 20
6.503200
  0
VERTEX
  8
0
  6
CONTINUOUS
 10
3.479960
 20
6.536640
  0
VERTEX
  8
0
  6
CONTINUOUS
 10
2.858680
 20
6.192560
  0
VERTEX
  8
0
  6
CONTINUOUS
 10
2.704680
 20
6.159120
  0
SEQEND
  8
0
  0
SOLID
  8
0
 62
    15
 10
2.858680
 20
6.192560
 11
3.479960
 21
6.536640
 12
3.111680
 22
6.192560
 13
3.732960
 23
6.536640
  0
POLYLINE
  8
0
  6
CONTINUOUS
 66
     1
 40
0.000000
 41
0.000000
  0
VERTEX
  8
0
  6
CONTINUOUS
 10
2.858680
 20
6.192560
  0
VERTEX
  8
0
  6
CONTINUOUS
 10
3.479960
 20
6.536640
  0
VERTEX
  8
0
  6
CONTINUOUS
 10
3.732960
 20
6.536640
  0
VERTEX
  8
0
  6
CONTINUOUS
 10
3.111680
 20
6.192560
  0
VERTEX
  8
0
  6
CONTINUOUS
 10
2.858680
 20
6.192560
  0
SEQEND
  8
0
  0
SOLID
  8
0
 62
    15
 10
3.094520
 20
6.193880
 11
3.715800
 21
6.537960
 12
3.401200
 22
6.193880
 13
4.022480
 23
6.537960
  0
POLYLINE
  8
0
  6
CONTINUOUS
 66
     1
 40
0.000000
 41
0.000000
  0
VERTEX
  8
0
  6
CONTINUOUS
 10
3.094520
 20
6.193880
  0
VERTEX
  8
0
  6
CONTINUOUS
 10
3.715800
 20
6.537960
  0
VERTEX
  8
0
  6
CONTINUOUS
 10
4.022480
 20
6.537960
  0
VERTEX
  8
0
  6
CONTINUOUS
 10
3.401200
 20
6.193880
  0
VERTEX
  8
0
  6
CONTINUOUS
 10
3.094520
 20
6.193880
  0
SEQEND
  8
0
  0
SOLID
  8
0
 62
    15
 10
3.401200
 20
6.193880
 11
4.022480
 21
6.537960
 12
3.554760
 22
6.160440
 13
4.176040
 23
6.504520
  0
POLYLINE
  8
0
  6
CONTINUOUS
 66
     1
 40
0.000000
 41
0.000000
  0
VERTEX
  8
0
  6
CONTINUOUS
 10
3.401200
 20
6.193880
  0
VERTEX
  8
0
  6
CONTINUOUS
 10
4.022480
 20
6.537960
  0
VERTEX
  8
0
  6
CONTINUOUS
 10
4.176040
 20
6.504520
  0
VERTEX
  8
0
  6
CONTINUOUS
 10
3.554760
 20
6.160440
  0
VERTEX
  8
0
  6
CONTINUOUS
 10
3.401200
 20
6.193880
  0
SEQEND
  8
0
  0
SOLID
  8
0
 62
    15
 10
3.554760
 20
6.160440
 11
4.176040
 21
6.504520
 12
3.685440
 22
6.111160
 13
4.306720
 23
6.454800
  0
POLYLINE
  8
0
  6
CONTINUOUS
 66
     1
 40
0.000000
 41
0.000000
  0
VERTEX
  8
0
  6
CONTINUOUS
 10
3.554760
 20
6.160440
  0
VERTEX
  8
0
  6
CONTINUOUS
 10
4.176040
 20
6.504520
  0
VERTEX
  8
0
  6
CONTINUOUS
 10
4.306720
 20
6.454800
  0
VERTEX
  8
0
  6
CONTINUOUS
 10
3.685440
 20
6.111160
  0
VERTEX
  8
0
  6
CONTINUOUS
 10
3.554760
 20
6.160440
  0
SEQEND
  8
0
  0
SOLID
  8
0
 62
    15
 10
3.685440
 20
6.111160
 11
4.306720
 21
6.454800
 12
3.794560
 22
6.047800
 13
4.415840
 23
6.391440
  0
POLYLINE
  8
0
  6
CONTINUOUS
 66
     1
 40
0.000000
 41
0.000000
  0
VERTEX
  8
0
  6
CONTINUOUS
 10
3.685440
 20
6.111160
  0
VERTEX
  8
0
  6
CONTINUOUS
 10
4.306720
 20
6.454800
  0
VERTEX
  8
0
  6
CONTINUOUS
 10
4.415840
 20
6.391440
  0
VERTEX
  8
0
  6
CONTINUOUS
 10
3.794560
 20
6.047800
  0
VERTEX
  8
0
  6
CONTINUOUS
 10
3.685440
 20
6.111160
  0
SEQEND
  8
0
  0
SOLID
  8
0
 62
    15
 10
3.794560
 20
6.047800
 11
4.415840
 21
6.391440
 12
3.883440
 22
5.972560
 13
4.504720
 23
6.316640
  0
POLYLINE
  8
0
  6
CONTINUOUS
 66
     1
 40
0.000000
 41
0.000000
  0
VERTEX
  8
0
  6
CONTINUOUS
 10
3.794560
 20
6.047800
  0
VERTEX
  8
0
  6
CONTINUOUS
 10
4.415840
 20
6.391440
  0
VERTEX
  8
0
  6
CONTINUOUS
 10
4.504720
 20
6.316640
  0
VERTEX
  8
0
  6
CONTINUOUS
 10
3.883440
 20
5.972560
  0
VERTEX
  8
0
  6
CONTINUOUS
 10
3.794560
 20
6.047800
  0
SEQEND
  8
0
  0
SOLID
  8
0
 62
    15
 10
3.883440
 20
5.972560
 11
4.504720
 21
6.316640
 12
3.953400
 22
5.888080
 13
4.574680
 23
6.232160
  0
POLYLINE
  8
0
  6
CONTINUOUS
 66
     1
 40
0.000000
 41
0.000000
  0
VERTEX
  8
0
  6
CONTINUOUS
 10
3.883440
 20
5.972560
  0
VERTEX
  8
0
  6
CONTINUOUS
 10
4.504720
 20
6.316640
  0
VERTEX
  8
0
  6
CONTINUOUS
 10
4.574680
 20
6.232160
  0
VERTEX
  8
0
  6
CONTINUOUS
 10
3.953400
 20
5.888080
  0
VERTEX
  8
0
  6
CONTINUOUS
 10
3.883440
 20
5.972560
  0
SEQEND
  8
0
  0
SOLID
  8
0
 62
    15
 10
3.953400
 20
5.888080
 11
4.574680
 21
6.232160
 12
4.006200
 22
5.797000
 13
4.627480
 23
6.140640
  0
POLYLINE
  8
0
  6
CONTINUOUS
 66
     1
 40
0.000000
 41
0.000000
  0
VERTEX
  8
0
  6
CONTINUOUS
 10
3.953400
 20
5.888080
  0
VERTEX
  8
0
  6
CONTINUOUS
 10
4.574680
 20
6.232160
  0
VERTEX
  8
0
  6
CONTINUOUS
 10
4.627480
 20
6.140640
  0
VERTEX
  8
0
  6
CONTINUOUS
 10
4.006200
 20
5.797000
  0
VERTEX
  8
0
  6
CONTINUOUS
 10
3.953400
 20
5.888080
  0
SEQEND
  8
0
  0
SOLID
  8
0
 62
    15
 10
4.006200
 20
5.797000
 11
4.627480
 21
6.140640
 12
4.042720
 22
5.700640
 13
4.664440
 23
6.044720
  0
POLYLINE
  8
0
  6
CONTINUOUS
 66
     1
 40
0.000000
 41
0.000000
  0
VERTEX
  8
0
  6
CONTINUOUS
 10
4.006200
 20
5.797000
  0
VERTEX
  8
0
  6
CONTINUOUS
 10
4.627480
 20
6.140640
  0
VERTEX
  8
0
  6
CONTINUOUS
 10
4.664440
 20
6.044720
  0
VERTEX
  8
0
  6
CONTINUOUS
 10
4.042720
 20
5.700640
  0
VERTEX
  8
0
  6
CONTINUOUS
 10
4.006200
 20
5.797000
  0
SEQEND
  8
0
  0
SOLID
  8
0
 62
    15
 10
4.042720
 20
5.700640
 11
4.664440
 21
6.044720
 12
4.065160
 22
5.602080
 13
4.686440
 23
5.945720
  0
POLYLINE
  8
0
  6
CONTINUOUS
 66
     1
 40
0.000000
 41
0.000000
  0
VERTEX
  8
0
  6
CONTINUOUS
 10
4.042720
 20
5.700640
  0
VERTEX
  8
0
  6
CONTINUOUS
 10
4.664440
 20
6.044720
  0
VERTEX
  8
0
  6
CONTINUOUS
 10
4.686440
 20
5.945720
  0
VERTEX
  8
0
  6
CONTINUOUS
 10
4.065160
 20
5.602080
  0
VERTEX
  8
0
  6
CONTINUOUS
 10
4.042720
 20
5.700640
  0
SEQEND
  8
0
  0
SOLID
  8
0
 62
    15
 10
4.065160
 20
5.602080
 11
4.686440
 21
5.945720
 12
4.073960
 22
5.503080
 13
4.695680
 23
5.846720
  0
POLYLINE
  8
0
  6
CONTINUOUS
 66
     1
 40
0.000000
 41
0.000000
  0
VERTEX
  8
0
  6
CONTINUOUS
 10
4.065160
 20
5.602080
  0
VERTEX
  8
0
  6
CONTINUOUS
 10
4.686440
 20
5.945720
  0
VERTEX
  8
0
  6
CONTINUOUS
 10
4.695680
 20
5.846720
  0
VERTEX
  8
0
  6
CONTINUOUS
 10
4.073960
 20
5.503080
  0
VERTEX
  8
0
  6
CONTINUOUS
 10
4.065160
 20
5.602080
  0
SEQEND
  8
0
  0
SOLID
  8
0
 62
    15
 10
4.073960
 20
5.503080
 11
4.695680
 21
5.846720
 12
4.071320
 22
5.405840
 13
4.692600
 23
5.749920
  0
POLYLINE
  8
0
  6
CONTINUOUS
 66
     1
 40
0.000000
 41
0.000000
  0
VERTEX
  8
0
  6
CONTINUOUS
 10
4.073960
 20
5.503080
  0
VERTEX
  8
0
  6
CONTINUOUS
 10
4.695680
 20
5.846720
  0
VERTEX
  8
0
  6
CONTINUOUS
 10
4.692600
 20
5.749920
  0
VERTEX
  8
0
  6
CONTINUOUS
 10
4.071320
 20
5.405840
  0
VERTEX
  8
0
  6
CONTINUOUS
 10
4.073960
 20
5.503080
  0
SEQEND
  8
0
  0
SOLID
  8
0
 62
    15
 10
3.547720
 20
4.268440
 11
4.169000
 21
4.612520
 12
3.547720
 22
4.171200
 13
4.169000
 23
4.515280
  0
POLYLINE
  8
0
  6
CONTINUOUS
 66
     1
 40
0.000000
 41
0.000000
  0
VERTEX
  8
0
  6
CONTINUOUS
 10
3.547720
 20
4.268440
  0
VERTEX
  8
0
  6
CONTINUOUS
 10
4.169000
 20
4.612520
  0
VERTEX
  8
0
  6
CONTINUOUS
 10
4.169000
 20
4.515280
  0
VERTEX
  8
0
  6
CONTINUOUS
 10
3.547720
 20
4.171200
  0
VERTEX
  8
0
  6
CONTINUOUS
 10
3.547720
 20
4.268440
  0
SEQEND
  8
0
  0
SOLID
  8
0
 62
    15
 10
4.058560
 20
5.313440
 11
4.679840
 21
5.657080
 12
4.036560
 22
5.227200
 13
4.657840
 23
5.570840
  0
POLYLINE
  8
0
  6
CONTINUOUS
 66
     1
 40
0.000000
 41
0.000000
  0
VERTEX
  8
0
  6
CONTINUOUS
 10
4.058560
 20
5.313440
  0
VERTEX
  8
0
  6
CONTINUOUS
 10
4.679840
 20
5.657080
  0
VERTEX
  8
0
  6
CONTINUOUS
 10
4.657840
 20
5.570840
  0
VERTEX
  8
0
  6
CONTINUOUS
 10
4.036560
 20
5.227200
  0
VERTEX
  8
0
  6
CONTINUOUS
 10
4.058560
 20
5.313440
  0
SEQEND
  8
0
  0
SOLID
  8
0
 62
    15
 10
4.036560
 20
5.227200
 11
4.657840
 21
5.570840
 12
4.007520
 22
5.149760
 13
4.628800
 23
5.493840
  0
POLYLINE
  8
0
  6
CONTINUOUS
 66
     1
 40
0.000000
 41
0.000000
  0
VERTEX
  8
0
  6
CONTINUOUS
 10
4.036560
 20
5.227200
  0
VERTEX
  8
0
  6
CONTINUOUS
 10
4.657840
 20
5.570840
  0
VERTEX
  8
0
  6
CONTINUOUS
 10
4.628800
 20
5.493840
  0
VERTEX
  8
0
  6
CONTINUOUS
 10
4.007520
 20
5.149760
  0
VERTEX
  8
0
  6
CONTINUOUS
 10
4.036560
 20
5.227200
  0
SEQEND
  8
0
  0
SOLID
  8
0
 62
    15
 10
4.007520
 20
5.149760
 11
4.628800
 21
5.493840
 12
3.972320
 22
5.083760
 13
4.593600
 23
5.427840
  0
POLYLINE
  8
0
  6
CONTINUOUS
 66
     1
 40
0.000000
 41
0.000000
  0
VERTEX
  8
0
  6
CONTINUOUS
 10
4.007520
 20
5.149760
  0
VERTEX
  8
0
  6
CONTINUOUS
 10
4.628800
 20
5.493840
  0
VERTEX
  8
0
  6
CONTINUOUS
 10
4.593600
 20
5.427840
  0
VERTEX
  8
0
  6
CONTINUOUS
 10
3.972320
 20
5.083760
  0
VERTEX
  8
0
  6
CONTINUOUS
 10
4.007520
 20
5.149760
  0
SEQEND
  8
0
  0
SOLID
  8
0
 62
    15
 10
3.972320
 20
5.083760
 11
4.593600
 21
5.427840
 12
3.932280
 22
5.030960
 13
4.553560
 23
5.375040
  0
POLYLINE
  8
0
  6
CONTINUOUS
 66
     1
 40
0.000000
 41
0.000000
  0
VERTEX
  8
0
  6
CONTINUOUS
 10
3.972320
 20
5.083760
  0
VERTEX
  8
0
  6
CONTINUOUS
 10
4.593600
 20
5.427840
  0
VERTEX
  8
0
  6
CONTINUOUS
 10
4.553560
 20
5.375040
  0
VERTEX
  8
0
  6
CONTINUOUS
 10
3.932280
 20
5.030960
  0
VERTEX
  8
0
  6
CONTINUOUS
 10
3.972320
 20
5.083760
  0
SEQEND
  8
0
  0
SOLID
  8
0
 62
    15
 10
3.932280
 20
5.030960
 11
4.553560
 21
5.375040
 12
3.889160
 22
4.994000
 13
4.510440
 23
5.337640
  0
POLYLINE
  8
0
  6
CONTINUOUS
 66
     1
 40
0.000000
 41
0.000000
  0
VERTEX
  8
0
  6
CONTINUOUS
 10
3.932280
 20
5.030960
  0
VERTEX
  8
0
  6
CONTINUOUS
 10
4.553560
 20
5.375040
  0
VERTEX
  8
0
  6
CONTINUOUS
 10
4.510440
 20
5.337640
  0
VERTEX
  8
0
  6
CONTINUOUS
 10
3.889160
 20
4.994000
  0
VERTEX
  8
0
  6
CONTINUOUS
 10
3.932280
 20
5.030960
  0
SEQEND
  8
0
  0
SOLID
  8
0
 62
    15
 10
3.889160
 20
4.994000
 11
4.510440
 21
5.337640
 12
3.861440
 22
4.967160
 13
4.482720
 23
5.311240
  0
POLYLINE
  8
0
  6
CONTINUOUS
 66
     1
 40
0.000000
 41
0.000000
  0
VERTEX
  8
0
  6
CONTINUOUS
 10
3.889160
 20
4.994000
  0
VERTEX
  8
0
  6
CONTINUOUS
 10
4.510440
 20
5.337640
  0
VERTEX
  8
0
  6
CONTINUOUS
 10
4.482720
 20
5.311240
  0
VERTEX
  8
0
  6
CONTINUOUS
 10
3.861440
 20
4.967160
  0
VERTEX
  8
0
  6
CONTINUOUS
 10
3.889160
 20
4.994000
  0
SEQEND
  8
0
  0
SOLID
  8
0
 62
    15
 10
3.861440
 20
4.967160
 11
4.482720
 21
5.311240
 12
3.832400
 22
4.939440
 13
4.453680
 23
5.283080
  0
POLYLINE
  8
0
  6
CONTINUOUS
 66
     1
 40
0.000000
 41
0.000000
  0
VERTEX
  8
0
  6
CONTINUOUS
 10
3.861440
 20
4.967160
  0
VERTEX
  8
0
  6
CONTINUOUS
 10
4.482720
 20
5.311240
  0
VERTEX
  8
0
  6
CONTINUOUS
 10
4.453680
 20
5.283080
  0
VERTEX
  8
0
  6
CONTINUOUS
 10
3.832400
 20
4.939440
  0
VERTEX
  8
0
  6
CONTINUOUS
 10
3.861440
 20
4.967160
  0
SEQEND
  8
0
  0
SOLID
  8
0
 62
    15
 10
3.832400
 20
4.939440
 11
4.453680
 21
5.283080
 12
3.773440
 22
4.877840
 13
4.394720
 23
5.221920
  0
POLYLINE
  8
0
  6
CONTINUOUS
 66
     1
 40
0.000000
 41
0.000000
  0
VERTEX
  8
0
  6
CONTINUOUS
 10
3.832400
 20
4.939440
  0
VERTEX
  8
0
  6
CONTINUOUS
 10
4.453680
 20
5.283080
  0
VERTEX
  8
0
  6
CONTINUOUS
 10
4.394720
 20
5.221920
  0
VERTEX
  8
0
  6
CONTINUOUS
 10
3.773440
 20
4.877840
  0
VERTEX
  8
0
  6
CONTINUOUS
 10
3.832400
 20
4.939440
  0
SEQEND
  8
0
  0
SOLID
  8
0
 62
    15
 10
3.773440
 20
4.877840
 11
4.394720
 21
5.221920
 12
3.715800
 22
4.807440
 13
4.337080
 23
5.151080
  0
POLYLINE
  8
0
  6
CONTINUOUS
 66
     1
 40
0.000000
 41
0.000000
  0
VERTEX
  8
0
  6
CONTINUOUS
 10
3.773440
 20
4.877840
  0
VERTEX
  8
0
  6
CONTINUOUS
 10
4.394720
 20
5.221920
  0
VERTEX
  8
0
  6
CONTINUOUS
 10
4.337080
 20
5.151080
  0
VERTEX
  8
0
  6
CONTINUOUS
 10
3.715800
 20
4.807440
  0
VERTEX
  8
0
  6
CONTINUOUS
 10
3.773440
 20
4.877840
  0
SEQEND
  8
0
  0
SOLID
  8
0
 62
    15
 10
3.715800
 20
4.807440
 11
4.337080
 21
5.151080
 12
3.661680
 22
4.725160
 13
4.282960
 23
5.069240
  0
POLYLINE
  8
0
  6
CONTINUOUS
 66
     1
 40
0.000000
 41
0.000000
  0
VERTEX
  8
0
  6
CONTINUOUS
 10
3.715800
 20
4.807440
  0
VERTEX
  8
0
  6
CONTINUOUS
 10
4.337080
 20
5.151080
  0
VERTEX
  8
0
  6
CONTINUOUS
 10
4.282960
 20
5.069240
  0
VERTEX
  8
0
  6
CONTINUOUS
 10
3.661680
 20
4.725160
  0
VERTEX
  8
0
  6
CONTINUOUS
 10
3.715800
 20
4.807440
  0
SEQEND
  8
0
  0
SOLID
  8
0
 62
    15
 10
3.661680
 20
4.725160
 11
4.282960
 21
5.069240
 12
3.615040
 22
4.629240
 13
4.236320
 23
4.972880
  0
POLYLINE
  8
0
  6
CONTINUOUS
 66
     1
 40
0.000000
 41
0.000000
  0
VERTEX
  8
0
  6
CONTINUOUS
 10
3.661680
 20
4.725160
  0
VERTEX
  8
0
  6
CONTINUOUS
 10
4.282960
 20
5.069240
  0
VERTEX
  8
0
  6
CONTINUOUS
 10
4.236320
 20
4.972880
  0
VERTEX
  8
0
  6
CONTINUOUS
 10
3.615040
 20
4.629240
  0
VERTEX
  8
0
  6
CONTINUOUS
 10
3.661680
 20
4.725160
  0
SEQEND
  8
0
  0
SOLID
  8
0
 62
    15
 10
3.615040
 20
4.629240
 11
4.236320
 21
4.972880
 12
3.578960
 22
4.516600
 13
4.200240
 23
4.860240
  0
POLYLINE
  8
0
  6
CONTINUOUS
 66
     1
 40
0.000000
 41
0.000000
  0
VERTEX
  8
0
  6
CONTINUOUS
 10
3.615040
 20
4.629240
  0
VERTEX
  8
0
  6
CONTINUOUS
 10
4.236320
 20
4.972880
  0
VERTEX
  8
0
  6
CONTINUOUS
 10
4.200240
 20
4.860240
  0
VERTEX
  8
0
  6
CONTINUOUS
 10
3.578960
 20
4.516600
  0
VERTEX
  8
0
  6
CONTINUOUS
 10
3.615040
 20
4.629240
  0
SEQEND
  8
0
  0
SOLID
  8
0
 62
    15
 10
3.578960
 20
4.516600
 11
4.200240
 21
4.860240
 12
3.556520
 22
4.385040
 13
4.177800
 23
4.729120
  0
POLYLINE
  8
0
  6
CONTINUOUS
 66
     1
 40
0.000000
 41
0.000000
  0
VERTEX
  8
0
  6
CONTINUOUS
 10
3.578960
 20
4.516600
  0
VERTEX
  8
0
  6
CONTINUOUS
 10
4.200240
 20
4.860240
  0
VERTEX
  8
0
  6
CONTINUOUS
 10
4.177800
 20
4.729120
  0
VERTEX
  8
0
  6
CONTINUOUS
 10
3.556520
 20
4.385040
  0
VERTEX
  8
0
  6
CONTINUOUS
 10
3.578960
 20
4.516600
  0
SEQEND
  8
0
  0
SOLID
  8
0
 62
    15
 10
3.556520
 20
4.385040
 11
4.177800
 21
4.729120
 12
3.550360
 22
4.232360
 13
4.171640
 23
4.576440
  0
POLYLINE
  8
0
  6
CONTINUOUS
 66
     1
 40
0.000000
 41
0.000000
  0
VERTEX
  8
0
  6
CONTINUOUS
 10
3.556520
 20
4.385040
  0
VERTEX
  8
0
  6
CONTINUOUS
 10
4.177800
 20
4.729120
  0
VERTEX
  8
0
  6
CONTINUOUS
 10
4.171640
 20
4.576440
  0
VERTEX
  8
0
  6
CONTINUOUS
 10
3.550360
 20
4.232360
  0
VERTEX
  8
0
  6
CONTINUOUS
 10
3.556520
 20
4.385040
  0
SEQEND
  8
0
  0
POLYLINE
  8
0
  6
CONTINUOUS
 66
     1
 40
0.000000
 41
0.000000
  0
VERTEX
  8
0
  6
CONTINUOUS
 10
3.547720
 20
4.268440
  0
VERTEX
  8
0
  6
CONTINUOUS
 10
3.547720
 20
4.171200
  0
VERTEX
  8
0
  6
CONTINUOUS
 10
2.706440
 20
4.171200
  0
VERTEX
  8
0
  6
CONTINUOUS
 10
2.706440
 20
4.223120
  0
VERTEX
  8
0
  6
CONTINUOUS
 10
2.709080
 20
4.231040
  0
VERTEX
  8
0
  6
CONTINUOUS
 10
2.703360
 20
4.383720
  0
VERTEX
  8
0
  6
CONTINUOUS
 10
2.680480
 20
4.515280
  0
VERTEX
  8
0
  6
CONTINUOUS
 10
2.644400
 20
4.627920
  0
VERTEX
  8
0
  6
CONTINUOUS
 10
2.597760
 20
4.723840
  0
VERTEX
  8
0
  6
CONTINUOUS
 10
2.544080
 20
4.806120
  0
VERTEX
  8
0
  6
CONTINUOUS
 10
2.486000
 20
4.876520
  0
VERTEX
  8
0
  6
CONTINUOUS
 10
2.427040
 20
4.938120
  0
VERTEX
  8
0
  6
CONTINUOUS
 10
2.370280
 20
4.992680
  0
VERTEX
  8
0
  6
CONTINUOUS
 10
2.327160
 20
5.029640
  0
VERTEX
  8
0
  6
CONTINUOUS
 10
2.287560
 20
5.082440
  0
VERTEX
  8
0
  6
CONTINUOUS
 10
2.251920
 20
5.148440
  0
VERTEX
  8
0
  6
CONTINUOUS
 10
2.222880
 20
5.225880
  0
VERTEX
  8
0
  6
CONTINUOUS
 10
2.200880
 20
5.311680
  0
VERTEX
  8
0
  6
CONTINUOUS
 10
2.188120
 20
5.404520
  0
VERTEX
  8
0
  6
CONTINUOUS
 10
2.185480
 20
5.501320
  0
VERTEX
  8
0
  6
CONTINUOUS
 10
2.194280
 20
5.600760
  0
VERTEX
  8
0
  6
CONTINUOUS
 10
2.216720
 20
5.699320
  0
VERTEX
  8
0
  6
CONTINUOUS
 10
2.253240
 20
5.795680
  0
VERTEX
  8
0
  6
CONTINUOUS
 10
2.306040
 20
5.886760
  0
VERTEX
  8
0
  6
CONTINUOUS
 10
2.376000
 20
5.971240
  0
VERTEX
  8
0
  6
CONTINUOUS
 10
2.464880
 20
6.046480
  0
VERTEX
  8
0
  6
CONTINUOUS
 10
2.574000
 20
6.109840
  0
VERTEX
  8
0
  6
CONTINUOUS
 10
2.704680
 20
6.159120
  0
VERTEX
  8
0
  6
CONTINUOUS
 10
2.858680
 20
6.192560
  0
VERTEX
  8
0
  6
CONTINUOUS
 10
3.111680
 20
6.192560
  0
VERTEX
  8
0
  6
CONTINUOUS
 10
3.094520
 20
6.193880
  0
VERTEX
  8
0
  6
CONTINUOUS
 10
3.401200
 20
6.193880
  0
VERTEX
  8
0
  6
CONTINUOUS
 10
3.554760
 20
6.160440
  0
VERTEX
  8
0
  6
CONTINUOUS
 10
3.685440
 20
6.111160
  0
VERTEX
  8
0
  6
CONTINUOUS
 10
3.794560
 20
6.047800
  0
VERTEX
  8
0
  6
CONTINUOUS
 10
3.883440
 20
5.972560
  0
VERTEX
  8
0
  6
CONTINUOUS
 10
3.953400
 20
5.888080
  0
VERTEX
  8
0
  6
CONTINUOUS
 10
4.006200
 20
5.797000
  0
VERTEX
  8
0
  6
CONTINUOUS
 10
4.042720
 20
5.700640
  0
VERTEX
  8
0
  6
CONTINUOUS
 10
4.065160
 20
5.602080
  0
VERTEX
  8
0
  6
CONTINUOUS
 10
4.073960
 20
5.503080
  0
VERTEX
  8
0
  6
CONTINUOUS
 10
4.071320
 20
5.405840
  0
VERTEX
  8
0
  6
CONTINUOUS
 10
4.058560
 20
5.313440
  0
VERTEX
  8
0
  6
CONTINUOUS
 10
4.036560
 20
5.227200
  0
VERTEX
  8
0
  6
CONTINUOUS
 10
4.007520
 20
5.149760
  0
VERTEX
  8
0
  6
CONTINUOUS
 10
3.972320
 20
5.083760
  0
VERTEX
  8
0
  6
CONTINUOUS
 10
3.932280
 20
5.030960
  0
VERTEX
  8
0
  6
CONTINUOUS
 10
3.889160
 20
4.994000
  0
VERTEX
  8
0
  6
CONTINUOUS
 10
3.832400
 20
4.939440
  0
VERTEX
  8
0
  6
CONTINUOUS
 10
3.773440
 20
4.877840
  0
VERTEX
  8
0
  6
CONTINUOUS
 10
3.715800
 20
4.807440
  0
VERTEX
  8
0
  6
CONTINUOUS
 10
3.661680
 20
4.725160
  0
VERTEX
  8
0
  6
CONTINUOUS
 10
3.615040
 20
4.629240
  0
VERTEX
  8
0
  6
CONTINUOUS
 10
3.578960
 20
4.516600
  0
VERTEX
  8
0
  6
CONTINUOUS
 10
3.556520
 20
4.385040
  0
VERTEX
  8
0
  6
CONTINUOUS
 10
3.550360
 20
4.232360
  0
VERTEX
  8
0
  6
CONTINUOUS
 10
3.547720
 20
4.268440
  0
SEQEND
  8
0
  0
TEXT
  8
0
 10
3.134560
 20
3.908080
 40
0.137969
  1
BA  95B
 41
1.000000
  7
SN1
 71
     0
 72
     5
 11
3.742819
 21
3.908080
  0
TEXT
  8
0
 10
3.057120
 20
3.716240
 40
0.137969
  1
2" x 1-7/8"
 41
1.000000
  7
SN1
 71
     0
 72
     5
 11
3.819625
 21
3.716240
  0
ENDSEC
  0
EOF
