  0
SECTION
  2
HEADER
  9
$ACADVER
  1
AC1006
  9
$EXTMIN
 10
1.526360
 20
2.093960
  9
$EXTMAX
 10
6.370320
 20
5.088160
  9
$LTSCALE
 40
0.044000
  9
$PDMODE
 70
    35
  9
$PDSIZE
 40
0.035200
  0
ENDSEC
  0
SECTION
  2
TABLES
  0
TABLE
  2
LTYPE
 70
     9
  0
LTYPE
  2
CONTINUOUS
 70
    64
  3
Solid line
 72
    65
 73
     0
 40
0.000000
  0
LTYPE
  2
DASHED
 70
    64
  3
__ __ __ __ __ __ __ __ __ __ __ __ __ __ __
 72
    65
 73
     2
 40
0.000330
 49
0.000220
 49
-0.000110
  0
LTYPE
  2
HIDDEN
 70
    64
  3
 _ _ _ _ _ _ _ _ _ _ _ _ _ _ _ _ _ _ _ _ _ _
 72
    65
 73
     2
 40
0.000165
 49
0.000110
 49
-0.000055
  0
LTYPE
  2
CENTER
 70
    64
  3
____ _ ____ _ ____ _ ____ _ ____ _ ____ _ ____
 72
    65
 73
     4
 40
0.000880
 49
0.000550
 49
-0.000110
 49
0.000110
 49
-0.000110
  0
LTYPE
  2
PHANTOM
 70
    64
  3
_____ _ _ _____ _ _ _____ _ _ _____ _ _ ____
 72
    65
 73
     6
 40
0.001100
 49
0.000550
 49
-0.000110
 49
0.000110
 49
-0.000110
 49
0.000110
 49
-0.000110
  0
LTYPE
  2
DOT
 70
    64
  3
...............................................
 72
    65
 73
     2
 40
0.000110
 49
0.000000
 49
-0.000110
  0
LTYPE
  2
DASHDOT
 70
    64
  3
__ . __ . __ . __ . __ . __ . __ . __ . __ . __
 72
    65
 73
     4
 40
0.000440
 49
0.000220
 49
-0.000110
 49
0.000000
 49
-0.000110
  0
LTYPE
  2
BORDER
 70
    64
  3
__ __ . __ __ . __ __ . __ __ . __ __ . __ __
 72
    65
 73
     6
 40
0.000770
 49
0.000220
 49
-0.000110
 49
0.000220
 49
-0.000110
 49
0.000000
 49
-0.000110
  0
LTYPE
  2
DIVIDE
 70
    64
  3
__ . . __ . . __ . . __ . . __ . . __ . . __
 72
    65
 73
     6
 40
0.000550
 49
0.000220
 49
-0.000110
 49
0.000000
 49
-0.000110
 49
0.000000
 49
-0.000110
  0
LTYPE
  2
DOTDOT
 70
    64
  3
 . .  . .  . .  . .  . .  . . 
 72
    65
 73
     5
 40
0.000242
 49
-0.000110
 49
0.000000
 49
-0.000110
 49
0.000000
 49
-0.000110
  0
ENDTAB
  0
TABLE
  2
STYLE
 70
     2
  0
STYLE
 70
     0
  2
SN0
 40
0.000000
 41
0.000440
 50
0.000000
 71
     0
 42
0.000000
  3
ROMAND
  0
STYLE
 70
    68
  2
SV0
 40
0.000000
 41
0.000440
 50
0.000000
 71
     0
 42
0.000000
  3
ROMAND
  0
ENDTAB
  0
TABLE
  2
LAYER
 70
     3
  0
LAYER
  2
FOREGROUND
 70
    64
 62
     7
  6
CONTINUOUS
  0
LAYER
  2
BACKGROUND
 70
    65
 62
    -7
  6
CONTINUOUS
  0
LAYER
  2
0
 70
    64
 62
     7
  6
CONTINUOUS
  0
ENDTAB
  0
ENDSEC
  0
SECTION
  2
ENTITIES
  0
POLYLINE
  8
FOREGROUND
  6
CONTINUOUS
 66
     1
 40
0.000000
 41
0.000000
  0
VERTEX
  8
FOREGROUND
  6
CONTINUOUS
 10
0.000000
 20
7.182120
  0
VERTEX
  8
FOREGROUND
  6
CONTINUOUS
 10
8.499920
 20
7.182120
  0
VERTEX
  8
FOREGROUND
  6
CONTINUOUS
 10
8.499920
 20
-3.817880
  0
VERTEX
  8
FOREGROUND
  6
CONTINUOUS
 10
0.000000
 20
-3.817880
  0
VERTEX
  8
FOREGROUND
  6
CONTINUOUS
 10
0.000000
 20
7.182120
  0
SEQEND
  8
0
  0
POLYLINE
  8
FOREGROUND
  6
CONTINUOUS
 66
     1
 40
0.000000
 41
0.000000
  0
VERTEX
  8
FOREGROUND
  6
CONTINUOUS
 10
0.000000
 20
7.182120
  0
VERTEX
  8
FOREGROUND
  6
CONTINUOUS
 10
8.499920
 20
7.182120
  0
VERTEX
  8
FOREGROUND
  6
CONTINUOUS
 10
8.499920
 20
-3.817880
  0
VERTEX
  8
FOREGROUND
  6
CONTINUOUS
 10
0.000000
 20
-3.817880
  0
VERTEX
  8
FOREGROUND
  6
CONTINUOUS
 10
0.000000
 20
7.182120
  0
SEQEND
  8
0
  0
POLYLINE
  8
0
  6
CONTINUOUS
 66
     1
 40
0.014080
 41
0.014080
  0
VERTEX
  8
0
  6
CONTINUOUS
 10
5.558080
 20
5.080680
  0
VERTEX
  8
0
  6
CONTINUOUS
 10
6.363280
 20
5.080680
  0
VERTEX
  8
0
  6
CONTINUOUS
 10
6.363280
 20
4.297920
  0
VERTEX
  8
0
  6
CONTINUOUS
 10
1.550120
 20
4.297920
  0
VERTEX
  8
0
  6
CONTINUOUS
 10
1.552760
 20
4.297920
  0
VERTEX
  8
0
  6
CONTINUOUS
 10
1.533840
 20
4.297920
  0
VERTEX
  8
0
  6
CONTINUOUS
 10
1.533840
 20
5.060880
  0
VERTEX
  8
0
  6
CONTINUOUS
 10
2.296800
 20
5.060880
  0
VERTEX
  8
0
  6
CONTINUOUS
 10
2.299440
 20
5.059120
  0
VERTEX
  8
0
  6
CONTINUOUS
 10
2.343440
 20
4.999280
  0
VERTEX
  8
0
  6
CONTINUOUS
 10
2.388320
 20
4.946920
  0
VERTEX
  8
0
  6
CONTINUOUS
 10
2.434080
 20
4.902040
  0
VERTEX
  8
0
  6
CONTINUOUS
 10
2.481160
 20
4.864200
  0
VERTEX
  8
0
  6
CONTINUOUS
 10
2.529120
 20
4.832520
  0
VERTEX
  8
0
  6
CONTINUOUS
 10
2.577520
 20
4.807440
  0
VERTEX
  8
0
  6
CONTINUOUS
 10
2.626800
 20
4.787640
  0
VERTEX
  8
0
  6
CONTINUOUS
 10
2.676960
 20
4.773560
  0
VERTEX
  8
0
  6
CONTINUOUS
 10
2.728000
 20
4.764320
  0
VERTEX
  8
0
  6
CONTINUOUS
 10
2.779040
 20
4.759480
  0
VERTEX
  8
0
  6
CONTINUOUS
 10
2.830960
 20
4.759040
  0
VERTEX
  8
0
  6
CONTINUOUS
 10
2.883320
 20
4.762560
  0
VERTEX
  8
0
  6
CONTINUOUS
 10
2.962520
 20
4.774000
  0
VERTEX
  8
0
  6
CONTINUOUS
 10
3.042600
 20
4.792040
  0
VERTEX
  8
0
  6
CONTINUOUS
 10
3.096280
 20
4.806560
  0
VERTEX
  8
0
  6
CONTINUOUS
 10
3.150400
 20
4.823280
  0
VERTEX
  8
0
  6
CONTINUOUS
 10
3.258200
 20
4.860680
  0
VERTEX
  8
0
  6
CONTINUOUS
 10
3.474240
 20
4.941640
  0
VERTEX
  8
0
  6
CONTINUOUS
 10
3.580720
 20
4.978600
  0
VERTEX
  8
0
  6
CONTINUOUS
 10
3.633520
 20
4.994880
  0
VERTEX
  8
0
  6
CONTINUOUS
 10
3.712280
 20
5.015560
  0
VERTEX
  8
0
  6
CONTINUOUS
 10
3.789720
 20
5.030520
  0
VERTEX
  8
0
  6
CONTINUOUS
 10
3.840760
 20
5.036680
  0
VERTEX
  8
0
  6
CONTINUOUS
 10
3.890920
 20
5.039320
  0
VERTEX
  8
0
  6
CONTINUOUS
 10
3.916000
 20
5.039320
  0
VERTEX
  8
0
  6
CONTINUOUS
 10
3.965280
 20
5.035800
  0
VERTEX
  8
0
  6
CONTINUOUS
 10
4.040960
 20
5.025680
  0
VERTEX
  8
0
  6
CONTINUOUS
 10
4.092440
 20
5.015560
  0
VERTEX
  8
0
  6
CONTINUOUS
 10
4.197160
 20
4.989160
  0
VERTEX
  8
0
  6
CONTINUOUS
 10
4.303640
 20
4.957040
  0
VERTEX
  8
0
  6
CONTINUOUS
 10
4.629680
 20
4.850120
  0
VERTEX
  8
0
  6
CONTINUOUS
 10
4.738360
 20
4.819320
  0
VERTEX
  8
0
  6
CONTINUOUS
 10
4.845720
 20
4.795120
  0
VERTEX
  8
0
  6
CONTINUOUS
 10
4.898960
 20
4.786320
  0
VERTEX
  8
0
  6
CONTINUOUS
 10
4.951760
 20
4.780160
  0
VERTEX
  8
0
  6
CONTINUOUS
 10
5.003680
 20
4.777080
  0
VERTEX
  8
0
  6
CONTINUOUS
 10
5.055160
 20
4.777080
  0
VERTEX
  8
0
  6
CONTINUOUS
 10
5.105760
 20
4.780600
  0
VERTEX
  8
0
  6
CONTINUOUS
 10
5.155480
 20
4.788080
  0
VERTEX
  8
0
  6
CONTINUOUS
 10
5.204320
 20
4.799520
  0
VERTEX
  8
0
  6
CONTINUOUS
 10
5.252280
 20
4.815800
  0
VERTEX
  8
0
  6
CONTINUOUS
 10
5.299360
 20
4.836480
  0
VERTEX
  8
0
  6
CONTINUOUS
 10
5.345120
 20
4.862440
  0
VERTEX
  8
0
  6
CONTINUOUS
 10
5.389560
 20
4.894120
  0
VERTEX
  8
0
  6
CONTINUOUS
 10
5.432680
 20
4.931080
  0
VERTEX
  8
0
  6
CONTINUOUS
 10
5.474920
 20
4.974640
  0
VERTEX
  8
0
  6
CONTINUOUS
 10
5.514960
 20
5.024360
  0
VERTEX
  8
0
  6
CONTINUOUS
 10
5.554120
 20
5.080680
  0
VERTEX
  8
0
  6
CONTINUOUS
 10
5.558080
 20
5.080680
  0
SEQEND
  8
0
  0
SOLID
  8
0
 62
    15
 10
3.840760
 20
3.329480
 11
3.840760
 21
4.067800
 12
3.890920
 22
3.332120
 13
3.890920
 23
4.070440
  0
POLYLINE
  8
0
  6
CONTINUOUS
 66
     1
 40
0.000000
 41
0.000000
  0
VERTEX
  8
0
  6
CONTINUOUS
 10
3.840760
 20
3.329480
  0
VERTEX
  8
0
  6
CONTINUOUS
 10
3.840760
 20
4.067800
  0
VERTEX
  8
0
  6
CONTINUOUS
 10
3.890920
 20
4.070440
  0
VERTEX
  8
0
  6
CONTINUOUS
 10
3.890920
 20
3.332120
  0
VERTEX
  8
0
  6
CONTINUOUS
 10
3.840760
 20
3.329480
  0
SEQEND
  8
0
  0
SOLID
  8
0
 62
    15
 10
1.533840
 20
2.590720
 11
1.533840
 21
3.329040
 12
1.533840
 22
3.353240
 13
1.533840
 23
4.092000
  0
POLYLINE
  8
0
  6
CONTINUOUS
 66
     1
 40
0.000000
 41
0.000000
  0
VERTEX
  8
0
  6
CONTINUOUS
 10
1.533840
 20
2.590720
  0
VERTEX
  8
0
  6
CONTINUOUS
 10
1.533840
 20
3.329040
  0
VERTEX
  8
0
  6
CONTINUOUS
 10
1.533840
 20
4.092000
  0
VERTEX
  8
0
  6
CONTINUOUS
 10
1.533840
 20
3.353240
  0
VERTEX
  8
0
  6
CONTINUOUS
 10
1.533840
 20
2.590720
  0
SEQEND
  8
0
  0
SOLID
  8
0
 62
    15
 10
1.533840
 20
3.353240
 11
1.533840
 21
4.092000
 12
2.296800
 22
3.353240
 13
2.296360
 23
4.092000
  0
POLYLINE
  8
0
  6
CONTINUOUS
 66
     1
 40
0.000000
 41
0.000000
  0
VERTEX
  8
0
  6
CONTINUOUS
 10
1.533840
 20
3.353240
  0
VERTEX
  8
0
  6
CONTINUOUS
 10
1.533840
 20
4.092000
  0
VERTEX
  8
0
  6
CONTINUOUS
 10
2.296360
 20
4.092000
  0
VERTEX
  8
0
  6
CONTINUOUS
 10
2.296800
 20
3.353240
  0
VERTEX
  8
0
  6
CONTINUOUS
 10
1.533840
 20
3.353240
  0
SEQEND
  8
0
  0
SOLID
  8
0
 62
    15
 10
2.296800
 20
3.353240
 11
2.296360
 21
4.092000
 12
2.299440
 22
3.351920
 13
2.299000
 23
4.090680
  0
POLYLINE
  8
0
  6
CONTINUOUS
 66
     1
 40
0.000000
 41
0.000000
  0
VERTEX
  8
0
  6
CONTINUOUS
 10
2.296800
 20
3.353240
  0
VERTEX
  8
0
  6
CONTINUOUS
 10
2.296360
 20
4.092000
  0
VERTEX
  8
0
  6
CONTINUOUS
 10
2.299000
 20
4.090680
  0
VERTEX
  8
0
  6
CONTINUOUS
 10
2.299440
 20
3.351920
  0
VERTEX
  8
0
  6
CONTINUOUS
 10
2.296800
 20
3.353240
  0
SEQEND
  8
0
  0
SOLID
  8
0
 62
    15
 10
2.299440
 20
3.351920
 11
2.299000
 21
4.090680
 12
2.343000
 22
3.292080
 13
2.343000
 23
4.030840
  0
POLYLINE
  8
0
  6
CONTINUOUS
 66
     1
 40
0.000000
 41
0.000000
  0
VERTEX
  8
0
  6
CONTINUOUS
 10
2.299440
 20
3.351920
  0
VERTEX
  8
0
  6
CONTINUOUS
 10
2.299000
 20
4.090680
  0
VERTEX
  8
0
  6
CONTINUOUS
 10
2.343000
 20
4.030840
  0
VERTEX
  8
0
  6
CONTINUOUS
 10
2.343000
 20
3.292080
  0
VERTEX
  8
0
  6
CONTINUOUS
 10
2.299440
 20
3.351920
  0
SEQEND
  8
0
  0
SOLID
  8
0
 62
    15
 10
2.343000
 20
3.292080
 11
2.343000
 21
4.030840
 12
2.388320
 22
3.240160
 13
2.387880
 23
3.978480
  0
POLYLINE
  8
0
  6
CONTINUOUS
 66
     1
 40
0.000000
 41
0.000000
  0
VERTEX
  8
0
  6
CONTINUOUS
 10
2.343000
 20
3.292080
  0
VERTEX
  8
0
  6
CONTINUOUS
 10
2.343000
 20
4.030840
  0
VERTEX
  8
0
  6
CONTINUOUS
 10
2.387880
 20
3.978480
  0
VERTEX
  8
0
  6
CONTINUOUS
 10
2.388320
 20
3.240160
  0
VERTEX
  8
0
  6
CONTINUOUS
 10
2.343000
 20
3.292080
  0
SEQEND
  8
0
  0
SOLID
  8
0
 62
    15
 10
2.388320
 20
3.240160
 11
2.387880
 21
3.978480
 12
2.434080
 22
3.195280
 13
2.434080
 23
3.933600
  0
POLYLINE
  8
0
  6
CONTINUOUS
 66
     1
 40
0.000000
 41
0.000000
  0
VERTEX
  8
0
  6
CONTINUOUS
 10
2.388320
 20
3.240160
  0
VERTEX
  8
0
  6
CONTINUOUS
 10
2.387880
 20
3.978480
  0
VERTEX
  8
0
  6
CONTINUOUS
 10
2.434080
 20
3.933600
  0
VERTEX
  8
0
  6
CONTINUOUS
 10
2.434080
 20
3.195280
  0
VERTEX
  8
0
  6
CONTINUOUS
 10
2.388320
 20
3.240160
  0
SEQEND
  8
0
  0
SOLID
  8
0
 62
    15
 10
2.434080
 20
3.195280
 11
2.434080
 21
3.933600
 12
2.481160
 22
3.157000
 13
2.481160
 23
3.895320
  0
POLYLINE
  8
0
  6
CONTINUOUS
 66
     1
 40
0.000000
 41
0.000000
  0
VERTEX
  8
0
  6
CONTINUOUS
 10
2.434080
 20
3.195280
  0
VERTEX
  8
0
  6
CONTINUOUS
 10
2.434080
 20
3.933600
  0
VERTEX
  8
0
  6
CONTINUOUS
 10
2.481160
 20
3.895320
  0
VERTEX
  8
0
  6
CONTINUOUS
 10
2.481160
 20
3.157000
  0
VERTEX
  8
0
  6
CONTINUOUS
 10
2.434080
 20
3.195280
  0
SEQEND
  8
0
  0
SOLID
  8
0
 62
    15
 10
2.481160
 20
3.157000
 11
2.481160
 21
3.895320
 12
2.528680
 22
3.125760
 13
2.528680
 23
3.864080
  0
POLYLINE
  8
0
  6
CONTINUOUS
 66
     1
 40
0.000000
 41
0.000000
  0
VERTEX
  8
0
  6
CONTINUOUS
 10
2.481160
 20
3.157000
  0
VERTEX
  8
0
  6
CONTINUOUS
 10
2.481160
 20
3.895320
  0
VERTEX
  8
0
  6
CONTINUOUS
 10
2.528680
 20
3.864080
  0
VERTEX
  8
0
  6
CONTINUOUS
 10
2.528680
 20
3.125760
  0
VERTEX
  8
0
  6
CONTINUOUS
 10
2.481160
 20
3.157000
  0
SEQEND
  8
0
  0
SOLID
  8
0
 62
    15
 10
2.528680
 20
3.125760
 11
2.528680
 21
3.864080
 12
2.577520
 22
3.100240
 13
2.577520
 23
3.838560
  0
POLYLINE
  8
0
  6
CONTINUOUS
 66
     1
 40
0.000000
 41
0.000000
  0
VERTEX
  8
0
  6
CONTINUOUS
 10
2.528680
 20
3.125760
  0
VERTEX
  8
0
  6
CONTINUOUS
 10
2.528680
 20
3.864080
  0
VERTEX
  8
0
  6
CONTINUOUS
 10
2.577520
 20
3.838560
  0
VERTEX
  8
0
  6
CONTINUOUS
 10
2.577520
 20
3.100240
  0
VERTEX
  8
0
  6
CONTINUOUS
 10
2.528680
 20
3.125760
  0
SEQEND
  8
0
  0
SOLID
  8
0
 62
    15
 10
2.577520
 20
3.100240
 11
2.577520
 21
3.838560
 12
2.626800
 22
3.080880
 13
2.626800
 23
3.819200
  0
POLYLINE
  8
0
  6
CONTINUOUS
 66
     1
 40
0.000000
 41
0.000000
  0
VERTEX
  8
0
  6
CONTINUOUS
 10
2.577520
 20
3.100240
  0
VERTEX
  8
0
  6
CONTINUOUS
 10
2.577520
 20
3.838560
  0
VERTEX
  8
0
  6
CONTINUOUS
 10
2.626800
 20
3.819200
  0
VERTEX
  8
0
  6
CONTINUOUS
 10
2.626800
 20
3.080880
  0
VERTEX
  8
0
  6
CONTINUOUS
 10
2.577520
 20
3.100240
  0
SEQEND
  8
0
  0
SOLID
  8
0
 62
    15
 10
2.626800
 20
3.080880
 11
2.626800
 21
3.819200
 12
2.676960
 22
3.066360
 13
2.676960
 23
3.804680
  0
POLYLINE
  8
0
  6
CONTINUOUS
 66
     1
 40
0.000000
 41
0.000000
  0
VERTEX
  8
0
  6
CONTINUOUS
 10
2.626800
 20
3.080880
  0
VERTEX
  8
0
  6
CONTINUOUS
 10
2.626800
 20
3.819200
  0
VERTEX
  8
0
  6
CONTINUOUS
 10
2.676960
 20
3.804680
  0
VERTEX
  8
0
  6
CONTINUOUS
 10
2.676960
 20
3.066360
  0
VERTEX
  8
0
  6
CONTINUOUS
 10
2.626800
 20
3.080880
  0
SEQEND
  8
0
  0
SOLID
  8
0
 62
    15
 10
2.676960
 20
3.066360
 11
2.676960
 21
3.804680
 12
2.727560
 22
3.057120
 13
2.727560
 23
3.795880
  0
POLYLINE
  8
0
  6
CONTINUOUS
 66
     1
 40
0.000000
 41
0.000000
  0
VERTEX
  8
0
  6
CONTINUOUS
 10
2.676960
 20
3.066360
  0
VERTEX
  8
0
  6
CONTINUOUS
 10
2.676960
 20
3.804680
  0
VERTEX
  8
0
  6
CONTINUOUS
 10
2.727560
 20
3.795880
  0
VERTEX
  8
0
  6
CONTINUOUS
 10
2.727560
 20
3.057120
  0
VERTEX
  8
0
  6
CONTINUOUS
 10
2.676960
 20
3.066360
  0
SEQEND
  8
0
  0
SOLID
  8
0
 62
    15
 10
2.727560
 20
3.057120
 11
2.727560
 21
3.795880
 12
2.779040
 22
3.052720
 13
2.779040
 23
3.791040
  0
POLYLINE
  8
0
  6
CONTINUOUS
 66
     1
 40
0.000000
 41
0.000000
  0
VERTEX
  8
0
  6
CONTINUOUS
 10
2.727560
 20
3.057120
  0
VERTEX
  8
0
  6
CONTINUOUS
 10
2.727560
 20
3.795880
  0
VERTEX
  8
0
  6
CONTINUOUS
 10
2.779040
 20
3.791040
  0
VERTEX
  8
0
  6
CONTINUOUS
 10
2.779040
 20
3.052720
  0
VERTEX
  8
0
  6
CONTINUOUS
 10
2.727560
 20
3.057120
  0
SEQEND
  8
0
  0
SOLID
  8
0
 62
    15
 10
2.779040
 20
3.052720
 11
2.779040
 21
3.791040
 12
2.830960
 22
3.052280
 13
2.830960
 23
3.790600
  0
POLYLINE
  8
0
  6
CONTINUOUS
 66
     1
 40
0.000000
 41
0.000000
  0
VERTEX
  8
0
  6
CONTINUOUS
 10
2.779040
 20
3.052720
  0
VERTEX
  8
0
  6
CONTINUOUS
 10
2.779040
 20
3.791040
  0
VERTEX
  8
0
  6
CONTINUOUS
 10
2.830960
 20
3.790600
  0
VERTEX
  8
0
  6
CONTINUOUS
 10
2.830960
 20
3.052280
  0
VERTEX
  8
0
  6
CONTINUOUS
 10
2.779040
 20
3.052720
  0
SEQEND
  8
0
  0
SOLID
  8
0
 62
    15
 10
2.830960
 20
3.052280
 11
2.830960
 21
3.790600
 12
2.883320
 22
3.055360
 13
2.883320
 23
3.794120
  0
POLYLINE
  8
0
  6
CONTINUOUS
 66
     1
 40
0.000000
 41
0.000000
  0
VERTEX
  8
0
  6
CONTINUOUS
 10
2.830960
 20
3.052280
  0
VERTEX
  8
0
  6
CONTINUOUS
 10
2.830960
 20
3.790600
  0
VERTEX
  8
0
  6
CONTINUOUS
 10
2.883320
 20
3.794120
  0
VERTEX
  8
0
  6
CONTINUOUS
 10
2.883320
 20
3.055360
  0
VERTEX
  8
0
  6
CONTINUOUS
 10
2.830960
 20
3.052280
  0
SEQEND
  8
0
  0
SOLID
  8
0
 62
    15
 10
2.883320
 20
3.055360
 11
2.883320
 21
3.794120
 12
2.989360
 22
3.072080
 13
2.988920
 23
3.810840
  0
POLYLINE
  8
0
  6
CONTINUOUS
 66
     1
 40
0.000000
 41
0.000000
  0
VERTEX
  8
0
  6
CONTINUOUS
 10
2.883320
 20
3.055360
  0
VERTEX
  8
0
  6
CONTINUOUS
 10
2.883320
 20
3.794120
  0
VERTEX
  8
0
  6
CONTINUOUS
 10
2.988920
 20
3.810840
  0
VERTEX
  8
0
  6
CONTINUOUS
 10
2.989360
 20
3.072080
  0
VERTEX
  8
0
  6
CONTINUOUS
 10
2.883320
 20
3.055360
  0
SEQEND
  8
0
  0
SOLID
  8
0
 62
    15
 10
2.989360
 20
3.072080
 11
2.988920
 21
3.810840
 12
3.096280
 22
3.099360
 13
3.096280
 23
3.837680
  0
POLYLINE
  8
0
  6
CONTINUOUS
 66
     1
 40
0.000000
 41
0.000000
  0
VERTEX
  8
0
  6
CONTINUOUS
 10
2.989360
 20
3.072080
  0
VERTEX
  8
0
  6
CONTINUOUS
 10
2.988920
 20
3.810840
  0
VERTEX
  8
0
  6
CONTINUOUS
 10
3.096280
 20
3.837680
  0
VERTEX
  8
0
  6
CONTINUOUS
 10
3.096280
 20
3.099360
  0
VERTEX
  8
0
  6
CONTINUOUS
 10
2.989360
 20
3.072080
  0
SEQEND
  8
0
  0
SOLID
  8
0
 62
    15
 10
3.096280
 20
3.099360
 11
3.096280
 21
3.837680
 12
3.204080
 22
3.134120
 13
3.204080
 23
3.872880
  0
POLYLINE
  8
0
  6
CONTINUOUS
 66
     1
 40
0.000000
 41
0.000000
  0
VERTEX
  8
0
  6
CONTINUOUS
 10
3.096280
 20
3.099360
  0
VERTEX
  8
0
  6
CONTINUOUS
 10
3.096280
 20
3.837680
  0
VERTEX
  8
0
  6
CONTINUOUS
 10
3.204080
 20
3.872880
  0
VERTEX
  8
0
  6
CONTINUOUS
 10
3.204080
 20
3.134120
  0
VERTEX
  8
0
  6
CONTINUOUS
 10
3.096280
 20
3.099360
  0
SEQEND
  8
0
  0
SOLID
  8
0
 62
    15
 10
3.204080
 20
3.134120
 11
3.204080
 21
3.872880
 12
3.312320
 22
3.173720
 13
3.312320
 23
3.912040
  0
POLYLINE
  8
0
  6
CONTINUOUS
 66
     1
 40
0.000000
 41
0.000000
  0
VERTEX
  8
0
  6
CONTINUOUS
 10
3.204080
 20
3.134120
  0
VERTEX
  8
0
  6
CONTINUOUS
 10
3.204080
 20
3.872880
  0
VERTEX
  8
0
  6
CONTINUOUS
 10
3.312320
 20
3.912040
  0
VERTEX
  8
0
  6
CONTINUOUS
 10
3.312320
 20
3.173720
  0
VERTEX
  8
0
  6
CONTINUOUS
 10
3.204080
 20
3.134120
  0
SEQEND
  8
0
  0
SOLID
  8
0
 62
    15
 10
3.312320
 20
3.173720
 11
3.312320
 21
3.912040
 12
3.527480
 22
3.253360
 13
3.527480
 23
3.992120
  0
POLYLINE
  8
0
  6
CONTINUOUS
 66
     1
 40
0.000000
 41
0.000000
  0
VERTEX
  8
0
  6
CONTINUOUS
 10
3.312320
 20
3.173720
  0
VERTEX
  8
0
  6
CONTINUOUS
 10
3.312320
 20
3.912040
  0
VERTEX
  8
0
  6
CONTINUOUS
 10
3.527480
 20
3.992120
  0
VERTEX
  8
0
  6
CONTINUOUS
 10
3.527480
 20
3.253360
  0
VERTEX
  8
0
  6
CONTINUOUS
 10
3.312320
 20
3.173720
  0
SEQEND
  8
0
  0
SOLID
  8
0
 62
    15
 10
3.527480
 20
3.253360
 11
3.527480
 21
3.992120
 12
3.633520
 22
3.287680
 13
3.633520
 23
4.026000
  0
POLYLINE
  8
0
  6
CONTINUOUS
 66
     1
 40
0.000000
 41
0.000000
  0
VERTEX
  8
0
  6
CONTINUOUS
 10
3.527480
 20
3.253360
  0
VERTEX
  8
0
  6
CONTINUOUS
 10
3.527480
 20
3.992120
  0
VERTEX
  8
0
  6
CONTINUOUS
 10
3.633520
 20
4.026000
  0
VERTEX
  8
0
  6
CONTINUOUS
 10
3.633520
 20
3.287680
  0
VERTEX
  8
0
  6
CONTINUOUS
 10
3.527480
 20
3.253360
  0
SEQEND
  8
0
  0
SOLID
  8
0
 62
    15
 10
3.633520
 20
3.287680
 11
3.633520
 21
4.026000
 12
3.738240
 22
3.314080
 13
3.738240
 23
4.052400
  0
POLYLINE
  8
0
  6
CONTINUOUS
 66
     1
 40
0.000000
 41
0.000000
  0
VERTEX
  8
0
  6
CONTINUOUS
 10
3.633520
 20
3.287680
  0
VERTEX
  8
0
  6
CONTINUOUS
 10
3.633520
 20
4.026000
  0
VERTEX
  8
0
  6
CONTINUOUS
 10
3.738240
 20
4.052400
  0
VERTEX
  8
0
  6
CONTINUOUS
 10
3.738240
 20
3.314080
  0
VERTEX
  8
0
  6
CONTINUOUS
 10
3.633520
 20
3.287680
  0
SEQEND
  8
0
  0
SOLID
  8
0
 62
    15
 10
3.738240
 20
3.314080
 11
3.738240
 21
4.052400
 12
3.840760
 22
3.329480
 13
3.840760
 23
4.067800
  0
POLYLINE
  8
0
  6
CONTINUOUS
 66
     1
 40
0.000000
 41
0.000000
  0
VERTEX
  8
0
  6
CONTINUOUS
 10
3.738240
 20
3.314080
  0
VERTEX
  8
0
  6
CONTINUOUS
 10
3.738240
 20
4.052400
  0
VERTEX
  8
0
  6
CONTINUOUS
 10
3.840760
 20
4.067800
  0
VERTEX
  8
0
  6
CONTINUOUS
 10
3.840760
 20
3.329480
  0
VERTEX
  8
0
  6
CONTINUOUS
 10
3.738240
 20
3.314080
  0
SEQEND
  8
0
  0
SOLID
  8
0
 62
    15
 10
5.558080
 20
3.373480
 11
5.558080
 21
4.111800
 12
6.363280
 22
3.373480
 13
6.363280
 23
4.111800
  0
POLYLINE
  8
0
  6
CONTINUOUS
 66
     1
 40
0.000000
 41
0.000000
  0
VERTEX
  8
0
  6
CONTINUOUS
 10
5.558080
 20
3.373480
  0
VERTEX
  8
0
  6
CONTINUOUS
 10
5.558080
 20
4.111800
  0
VERTEX
  8
0
  6
CONTINUOUS
 10
6.363280
 20
4.111800
  0
VERTEX
  8
0
  6
CONTINUOUS
 10
6.363280
 20
3.373480
  0
VERTEX
  8
0
  6
CONTINUOUS
 10
5.558080
 20
3.373480
  0
SEQEND
  8
0
  0
SOLID
  8
0
 62
    15
 10
3.890920
 20
3.332120
 11
3.890920
 21
4.070440
 12
3.940640
 22
3.330800
 13
3.940640
 23
4.069120
  0
POLYLINE
  8
0
  6
CONTINUOUS
 66
     1
 40
0.000000
 41
0.000000
  0
VERTEX
  8
0
  6
CONTINUOUS
 10
3.890920
 20
3.332120
  0
VERTEX
  8
0
  6
CONTINUOUS
 10
3.890920
 20
4.070440
  0
VERTEX
  8
0
  6
CONTINUOUS
 10
3.940640
 20
4.069120
  0
VERTEX
  8
0
  6
CONTINUOUS
 10
3.940640
 20
3.330800
  0
VERTEX
  8
0
  6
CONTINUOUS
 10
3.890920
 20
3.332120
  0
SEQEND
  8
0
  0
SOLID
  8
0
 62
    15
 10
3.940640
 20
3.330800
 11
3.940640
 21
4.069120
 12
4.040960
 22
3.318480
 13
4.040960
 23
4.056800
  0
POLYLINE
  8
0
  6
CONTINUOUS
 66
     1
 40
0.000000
 41
0.000000
  0
VERTEX
  8
0
  6
CONTINUOUS
 10
3.940640
 20
3.330800
  0
VERTEX
  8
0
  6
CONTINUOUS
 10
3.940640
 20
4.069120
  0
VERTEX
  8
0
  6
CONTINUOUS
 10
4.040960
 20
4.056800
  0
VERTEX
  8
0
  6
CONTINUOUS
 10
4.040960
 20
3.318480
  0
VERTEX
  8
0
  6
CONTINUOUS
 10
3.940640
 20
3.330800
  0
SEQEND
  8
0
  0
SOLID
  8
0
 62
    15
 10
4.040960
 20
3.318480
 11
4.040960
 21
4.056800
 12
4.144360
 22
3.296040
 13
4.144360
 23
4.034360
  0
POLYLINE
  8
0
  6
CONTINUOUS
 66
     1
 40
0.000000
 41
0.000000
  0
VERTEX
  8
0
  6
CONTINUOUS
 10
4.040960
 20
3.318480
  0
VERTEX
  8
0
  6
CONTINUOUS
 10
4.040960
 20
4.056800
  0
VERTEX
  8
0
  6
CONTINUOUS
 10
4.144360
 20
4.034360
  0
VERTEX
  8
0
  6
CONTINUOUS
 10
4.144360
 20
3.296040
  0
VERTEX
  8
0
  6
CONTINUOUS
 10
4.040960
 20
3.318480
  0
SEQEND
  8
0
  0
SOLID
  8
0
 62
    15
 10
4.144360
 20
3.296040
 11
4.144360
 21
4.034360
 12
4.249960
 22
3.266560
 13
4.249960
 23
4.005320
  0
POLYLINE
  8
0
  6
CONTINUOUS
 66
     1
 40
0.000000
 41
0.000000
  0
VERTEX
  8
0
  6
CONTINUOUS
 10
4.144360
 20
3.296040
  0
VERTEX
  8
0
  6
CONTINUOUS
 10
4.144360
 20
4.034360
  0
VERTEX
  8
0
  6
CONTINUOUS
 10
4.249960
 20
4.005320
  0
VERTEX
  8
0
  6
CONTINUOUS
 10
4.249960
 20
3.266560
  0
VERTEX
  8
0
  6
CONTINUOUS
 10
4.144360
 20
3.296040
  0
SEQEND
  8
0
  0
SOLID
  8
0
 62
    15
 10
4.249960
 20
3.266560
 11
4.249960
 21
4.005320
 12
4.357760
 22
3.232680
 13
4.357760
 23
3.971000
  0
POLYLINE
  8
0
  6
CONTINUOUS
 66
     1
 40
0.000000
 41
0.000000
  0
VERTEX
  8
0
  6
CONTINUOUS
 10
4.249960
 20
3.266560
  0
VERTEX
  8
0
  6
CONTINUOUS
 10
4.249960
 20
4.005320
  0
VERTEX
  8
0
  6
CONTINUOUS
 10
4.357760
 20
3.971000
  0
VERTEX
  8
0
  6
CONTINUOUS
 10
4.357760
 20
3.232680
  0
VERTEX
  8
0
  6
CONTINUOUS
 10
4.249960
 20
3.266560
  0
SEQEND
  8
0
  0
SOLID
  8
0
 62
    15
 10
4.357760
 20
3.232680
 11
4.357760
 21
3.971000
 12
4.575120
 22
3.160080
 13
4.575120
 23
3.898400
  0
POLYLINE
  8
0
  6
CONTINUOUS
 66
     1
 40
0.000000
 41
0.000000
  0
VERTEX
  8
0
  6
CONTINUOUS
 10
4.357760
 20
3.232680
  0
VERTEX
  8
0
  6
CONTINUOUS
 10
4.357760
 20
3.971000
  0
VERTEX
  8
0
  6
CONTINUOUS
 10
4.575120
 20
3.898400
  0
VERTEX
  8
0
  6
CONTINUOUS
 10
4.575120
 20
3.160080
  0
VERTEX
  8
0
  6
CONTINUOUS
 10
4.357760
 20
3.232680
  0
SEQEND
  8
0
  0
SOLID
  8
0
 62
    15
 10
4.575120
 20
3.160080
 11
4.575120
 21
3.898400
 12
4.684240
 22
3.127080
 13
4.683800
 23
3.865400
  0
POLYLINE
  8
0
  6
CONTINUOUS
 66
     1
 40
0.000000
 41
0.000000
  0
VERTEX
  8
0
  6
CONTINUOUS
 10
4.575120
 20
3.160080
  0
VERTEX
  8
0
  6
CONTINUOUS
 10
4.575120
 20
3.898400
  0
VERTEX
  8
0
  6
CONTINUOUS
 10
4.683800
 20
3.865400
  0
VERTEX
  8
0
  6
CONTINUOUS
 10
4.684240
 20
3.127080
  0
VERTEX
  8
0
  6
CONTINUOUS
 10
4.575120
 20
3.160080
  0
SEQEND
  8
0
  0
SOLID
  8
0
 62
    15
 10
4.684240
 20
3.127080
 11
4.683800
 21
3.865400
 12
4.792480
 22
3.098920
 13
4.792040
 23
3.837680
  0
POLYLINE
  8
0
  6
CONTINUOUS
 66
     1
 40
0.000000
 41
0.000000
  0
VERTEX
  8
0
  6
CONTINUOUS
 10
4.684240
 20
3.127080
  0
VERTEX
  8
0
  6
CONTINUOUS
 10
4.683800
 20
3.865400
  0
VERTEX
  8
0
  6
CONTINUOUS
 10
4.792040
 20
3.837680
  0
VERTEX
  8
0
  6
CONTINUOUS
 10
4.792480
 20
3.098920
  0
VERTEX
  8
0
  6
CONTINUOUS
 10
4.684240
 20
3.127080
  0
SEQEND
  8
0
  0
SOLID
  8
0
 62
    15
 10
4.792480
 20
3.098920
 11
4.792040
 21
3.837680
 12
4.898960
 22
3.079120
 13
4.898960
 23
3.817880
  0
POLYLINE
  8
0
  6
CONTINUOUS
 66
     1
 40
0.000000
 41
0.000000
  0
VERTEX
  8
0
  6
CONTINUOUS
 10
4.792480
 20
3.098920
  0
VERTEX
  8
0
  6
CONTINUOUS
 10
4.792040
 20
3.837680
  0
VERTEX
  8
0
  6
CONTINUOUS
 10
4.898960
 20
3.817880
  0
VERTEX
  8
0
  6
CONTINUOUS
 10
4.898960
 20
3.079120
  0
VERTEX
  8
0
  6
CONTINUOUS
 10
4.792480
 20
3.098920
  0
SEQEND
  8
0
  0
SOLID
  8
0
 62
    15
 10
4.898960
 20
3.079120
 11
4.898960
 21
3.817880
 12
5.003680
 22
3.069880
 13
5.003680
 23
3.808200
  0
POLYLINE
  8
0
  6
CONTINUOUS
 66
     1
 40
0.000000
 41
0.000000
  0
VERTEX
  8
0
  6
CONTINUOUS
 10
4.898960
 20
3.079120
  0
VERTEX
  8
0
  6
CONTINUOUS
 10
4.898960
 20
3.817880
  0
VERTEX
  8
0
  6
CONTINUOUS
 10
5.003680
 20
3.808200
  0
VERTEX
  8
0
  6
CONTINUOUS
 10
5.003680
 20
3.069880
  0
VERTEX
  8
0
  6
CONTINUOUS
 10
4.898960
 20
3.079120
  0
SEQEND
  8
0
  0
SOLID
  8
0
 62
    15
 10
5.003680
 20
3.069880
 11
5.003680
 21
3.808200
 12
5.054720
 22
3.069880
 13
5.054720
 23
3.808200
  0
POLYLINE
  8
0
  6
CONTINUOUS
 66
     1
 40
0.000000
 41
0.000000
  0
VERTEX
  8
0
  6
CONTINUOUS
 10
5.003680
 20
3.069880
  0
VERTEX
  8
0
  6
CONTINUOUS
 10
5.003680
 20
3.808200
  0
VERTEX
  8
0
  6
CONTINUOUS
 10
5.054720
 20
3.808200
  0
VERTEX
  8
0
  6
CONTINUOUS
 10
5.054720
 20
3.069880
  0
VERTEX
  8
0
  6
CONTINUOUS
 10
5.003680
 20
3.069880
  0
SEQEND
  8
0
  0
SOLID
  8
0
 62
    15
 10
5.054720
 20
3.069880
 11
5.054720
 21
3.808200
 12
5.105760
 22
3.073400
 13
5.105320
 23
3.811720
  0
POLYLINE
  8
0
  6
CONTINUOUS
 66
     1
 40
0.000000
 41
0.000000
  0
VERTEX
  8
0
  6
CONTINUOUS
 10
5.054720
 20
3.069880
  0
VERTEX
  8
0
  6
CONTINUOUS
 10
5.054720
 20
3.808200
  0
VERTEX
  8
0
  6
CONTINUOUS
 10
5.105320
 20
3.811720
  0
VERTEX
  8
0
  6
CONTINUOUS
 10
5.105760
 20
3.073400
  0
VERTEX
  8
0
  6
CONTINUOUS
 10
5.054720
 20
3.069880
  0
SEQEND
  8
0
  0
SOLID
  8
0
 62
    15
 10
5.105760
 20
3.073400
 11
5.105320
 21
3.811720
 12
5.155480
 22
3.080880
 13
5.155480
 23
3.819200
  0
POLYLINE
  8
0
  6
CONTINUOUS
 66
     1
 40
0.000000
 41
0.000000
  0
VERTEX
  8
0
  6
CONTINUOUS
 10
5.105760
 20
3.073400
  0
VERTEX
  8
0
  6
CONTINUOUS
 10
5.105320
 20
3.811720
  0
VERTEX
  8
0
  6
CONTINUOUS
 10
5.155480
 20
3.819200
  0
VERTEX
  8
0
  6
CONTINUOUS
 10
5.155480
 20
3.080880
  0
VERTEX
  8
0
  6
CONTINUOUS
 10
5.105760
 20
3.073400
  0
SEQEND
  8
0
  0
SOLID
  8
0
 62
    15
 10
5.155480
 20
3.080880
 11
5.155480
 21
3.819200
 12
5.204320
 22
3.092320
 13
5.204320
 23
3.830640
  0
POLYLINE
  8
0
  6
CONTINUOUS
 66
     1
 40
0.000000
 41
0.000000
  0
VERTEX
  8
0
  6
CONTINUOUS
 10
5.155480
 20
3.080880
  0
VERTEX
  8
0
  6
CONTINUOUS
 10
5.155480
 20
3.819200
  0
VERTEX
  8
0
  6
CONTINUOUS
 10
5.204320
 20
3.830640
  0
VERTEX
  8
0
  6
CONTINUOUS
 10
5.204320
 20
3.092320
  0
VERTEX
  8
0
  6
CONTINUOUS
 10
5.155480
 20
3.080880
  0
SEQEND
  8
0
  0
SOLID
  8
0
 62
    15
 10
5.204320
 20
3.092320
 11
5.204320
 21
3.830640
 12
5.252280
 22
3.108600
 13
5.252280
 23
3.846920
  0
POLYLINE
  8
0
  6
CONTINUOUS
 66
     1
 40
0.000000
 41
0.000000
  0
VERTEX
  8
0
  6
CONTINUOUS
 10
5.204320
 20
3.092320
  0
VERTEX
  8
0
  6
CONTINUOUS
 10
5.204320
 20
3.830640
  0
VERTEX
  8
0
  6
CONTINUOUS
 10
5.252280
 20
3.846920
  0
VERTEX
  8
0
  6
CONTINUOUS
 10
5.252280
 20
3.108600
  0
VERTEX
  8
0
  6
CONTINUOUS
 10
5.204320
 20
3.092320
  0
SEQEND
  8
0
  0
SOLID
  8
0
 62
    15
 10
5.252280
 20
3.108600
 11
5.252280
 21
3.846920
 12
5.298920
 22
3.129280
 13
5.298920
 23
3.867600
  0
POLYLINE
  8
0
  6
CONTINUOUS
 66
     1
 40
0.000000
 41
0.000000
  0
VERTEX
  8
0
  6
CONTINUOUS
 10
5.252280
 20
3.108600
  0
VERTEX
  8
0
  6
CONTINUOUS
 10
5.252280
 20
3.846920
  0
VERTEX
  8
0
  6
CONTINUOUS
 10
5.298920
 20
3.867600
  0
VERTEX
  8
0
  6
CONTINUOUS
 10
5.298920
 20
3.129280
  0
VERTEX
  8
0
  6
CONTINUOUS
 10
5.252280
 20
3.108600
  0
SEQEND
  8
0
  0
SOLID
  8
0
 62
    15
 10
5.298920
 20
3.129280
 11
5.298920
 21
3.867600
 12
5.344680
 22
3.155240
 13
5.344680
 23
3.893560
  0
POLYLINE
  8
0
  6
CONTINUOUS
 66
     1
 40
0.000000
 41
0.000000
  0
VERTEX
  8
0
  6
CONTINUOUS
 10
5.298920
 20
3.129280
  0
VERTEX
  8
0
  6
CONTINUOUS
 10
5.298920
 20
3.867600
  0
VERTEX
  8
0
  6
CONTINUOUS
 10
5.344680
 20
3.893560
  0
VERTEX
  8
0
  6
CONTINUOUS
 10
5.344680
 20
3.155240
  0
VERTEX
  8
0
  6
CONTINUOUS
 10
5.298920
 20
3.129280
  0
SEQEND
  8
0
  0
SOLID
  8
0
 62
    15
 10
5.344680
 20
3.155240
 11
5.344680
 21
3.893560
 12
5.389560
 22
3.186920
 13
5.389120
 23
3.925240
  0
POLYLINE
  8
0
  6
CONTINUOUS
 66
     1
 40
0.000000
 41
0.000000
  0
VERTEX
  8
0
  6
CONTINUOUS
 10
5.344680
 20
3.155240
  0
VERTEX
  8
0
  6
CONTINUOUS
 10
5.344680
 20
3.893560
  0
VERTEX
  8
0
  6
CONTINUOUS
 10
5.389120
 20
3.925240
  0
VERTEX
  8
0
  6
CONTINUOUS
 10
5.389560
 20
3.186920
  0
VERTEX
  8
0
  6
CONTINUOUS
 10
5.344680
 20
3.155240
  0
SEQEND
  8
0
  0
SOLID
  8
0
 62
    15
 10
5.389560
 20
3.186920
 11
5.389120
 21
3.925240
 12
5.432680
 22
3.223880
 13
5.432680
 23
3.962640
  0
POLYLINE
  8
0
  6
CONTINUOUS
 66
     1
 40
0.000000
 41
0.000000
  0
VERTEX
  8
0
  6
CONTINUOUS
 10
5.389560
 20
3.186920
  0
VERTEX
  8
0
  6
CONTINUOUS
 10
5.389120
 20
3.925240
  0
VERTEX
  8
0
  6
CONTINUOUS
 10
5.432680
 20
3.962640
  0
VERTEX
  8
0
  6
CONTINUOUS
 10
5.432680
 20
3.223880
  0
VERTEX
  8
0
  6
CONTINUOUS
 10
5.389560
 20
3.186920
  0
SEQEND
  8
0
  0
SOLID
  8
0
 62
    15
 10
5.432680
 20
3.223880
 11
5.432680
 21
3.962640
 12
5.474480
 22
3.267440
 13
5.474480
 23
4.005760
  0
POLYLINE
  8
0
  6
CONTINUOUS
 66
     1
 40
0.000000
 41
0.000000
  0
VERTEX
  8
0
  6
CONTINUOUS
 10
5.432680
 20
3.223880
  0
VERTEX
  8
0
  6
CONTINUOUS
 10
5.432680
 20
3.962640
  0
VERTEX
  8
0
  6
CONTINUOUS
 10
5.474480
 20
4.005760
  0
VERTEX
  8
0
  6
CONTINUOUS
 10
5.474480
 20
3.267440
  0
VERTEX
  8
0
  6
CONTINUOUS
 10
5.432680
 20
3.223880
  0
SEQEND
  8
0
  0
SOLID
  8
0
 62
    15
 10
5.474480
 20
3.267440
 11
5.474480
 21
4.005760
 12
5.514960
 22
3.317160
 13
5.514960
 23
4.055480
  0
POLYLINE
  8
0
  6
CONTINUOUS
 66
     1
 40
0.000000
 41
0.000000
  0
VERTEX
  8
0
  6
CONTINUOUS
 10
5.474480
 20
3.267440
  0
VERTEX
  8
0
  6
CONTINUOUS
 10
5.474480
 20
4.005760
  0
VERTEX
  8
0
  6
CONTINUOUS
 10
5.514960
 20
4.055480
  0
VERTEX
  8
0
  6
CONTINUOUS
 10
5.514960
 20
3.317160
  0
VERTEX
  8
0
  6
CONTINUOUS
 10
5.474480
 20
3.267440
  0
SEQEND
  8
0
  0
SOLID
  8
0
 62
    15
 10
5.514960
 20
3.317160
 11
5.514960
 21
4.055480
 12
5.554120
 22
3.373480
 13
5.553680
 23
4.111800
  0
POLYLINE
  8
0
  6
CONTINUOUS
 66
     1
 40
0.000000
 41
0.000000
  0
VERTEX
  8
0
  6
CONTINUOUS
 10
5.514960
 20
3.317160
  0
VERTEX
  8
0
  6
CONTINUOUS
 10
5.514960
 20
4.055480
  0
VERTEX
  8
0
  6
CONTINUOUS
 10
5.553680
 20
4.111800
  0
VERTEX
  8
0
  6
CONTINUOUS
 10
5.554120
 20
3.373480
  0
VERTEX
  8
0
  6
CONTINUOUS
 10
5.514960
 20
3.317160
  0
SEQEND
  8
0
  0
SOLID
  8
0
 62
    15
 10
5.554120
 20
3.373480
 11
5.553680
 21
4.111800
 12
5.558080
 22
3.373480
 13
5.558080
 23
4.111800
  0
POLYLINE
  8
0
  6
CONTINUOUS
 66
     1
 40
0.000000
 41
0.000000
  0
VERTEX
  8
0
  6
CONTINUOUS
 10
5.554120
 20
3.373480
  0
VERTEX
  8
0
  6
CONTINUOUS
 10
5.553680
 20
4.111800
  0
VERTEX
  8
0
  6
CONTINUOUS
 10
5.558080
 20
4.111800
  0
VERTEX
  8
0
  6
CONTINUOUS
 10
5.558080
 20
3.373480
  0
VERTEX
  8
0
  6
CONTINUOUS
 10
5.554120
 20
3.373480
  0
SEQEND
  8
0
  0
POLYLINE
  8
0
  6
CONTINUOUS
 66
     1
 40
0.000000
 41
0.000000
  0
VERTEX
  8
0
  6
CONTINUOUS
 10
5.558080
 20
3.373480
  0
VERTEX
  8
0
  6
CONTINUOUS
 10
6.363280
 20
3.373480
  0
VERTEX
  8
0
  6
CONTINUOUS
 10
6.363280
 20
2.590720
  0
VERTEX
  8
0
  6
CONTINUOUS
 10
1.533840
 20
2.590720
  0
VERTEX
  8
0
  6
CONTINUOUS
 10
1.533840
 20
3.353240
  0
VERTEX
  8
0
  6
CONTINUOUS
 10
2.296800
 20
3.353240
  0
VERTEX
  8
0
  6
CONTINUOUS
 10
2.299440
 20
3.351920
  0
VERTEX
  8
0
  6
CONTINUOUS
 10
2.343000
 20
3.292080
  0
VERTEX
  8
0
  6
CONTINUOUS
 10
2.388320
 20
3.240160
  0
VERTEX
  8
0
  6
CONTINUOUS
 10
2.434080
 20
3.195280
  0
VERTEX
  8
0
  6
CONTINUOUS
 10
2.481160
 20
3.157000
  0
VERTEX
  8
0
  6
CONTINUOUS
 10
2.528680
 20
3.125760
  0
VERTEX
  8
0
  6
CONTINUOUS
 10
2.577520
 20
3.100240
  0
VERTEX
  8
0
  6
CONTINUOUS
 10
2.626800
 20
3.080880
  0
VERTEX
  8
0
  6
CONTINUOUS
 10
2.676960
 20
3.066360
  0
VERTEX
  8
0
  6
CONTINUOUS
 10
2.727560
 20
3.057120
  0
VERTEX
  8
0
  6
CONTINUOUS
 10
2.779040
 20
3.052720
  0
VERTEX
  8
0
  6
CONTINUOUS
 10
2.830960
 20
3.052280
  0
VERTEX
  8
0
  6
CONTINUOUS
 10
2.883320
 20
3.055360
  0
VERTEX
  8
0
  6
CONTINUOUS
 10
2.989360
 20
3.072080
  0
VERTEX
  8
0
  6
CONTINUOUS
 10
3.096280
 20
3.099360
  0
VERTEX
  8
0
  6
CONTINUOUS
 10
3.204080
 20
3.134120
  0
VERTEX
  8
0
  6
CONTINUOUS
 10
3.527480
 20
3.253360
  0
VERTEX
  8
0
  6
CONTINUOUS
 10
3.633520
 20
3.287680
  0
VERTEX
  8
0
  6
CONTINUOUS
 10
3.738240
 20
3.314080
  0
VERTEX
  8
0
  6
CONTINUOUS
 10
3.840760
 20
3.329480
  0
VERTEX
  8
0
  6
CONTINUOUS
 10
3.890920
 20
3.332120
  0
VERTEX
  8
0
  6
CONTINUOUS
 10
3.940640
 20
3.330800
  0
VERTEX
  8
0
  6
CONTINUOUS
 10
4.040960
 20
3.318480
  0
VERTEX
  8
0
  6
CONTINUOUS
 10
4.144360
 20
3.296040
  0
VERTEX
  8
0
  6
CONTINUOUS
 10
4.249960
 20
3.266560
  0
VERTEX
  8
0
  6
CONTINUOUS
 10
4.357760
 20
3.232680
  0
VERTEX
  8
0
  6
CONTINUOUS
 10
4.575120
 20
3.160080
  0
VERTEX
  8
0
  6
CONTINUOUS
 10
4.684240
 20
3.127080
  0
VERTEX
  8
0
  6
CONTINUOUS
 10
4.792480
 20
3.098920
  0
VERTEX
  8
0
  6
CONTINUOUS
 10
4.898960
 20
3.079120
  0
VERTEX
  8
0
  6
CONTINUOUS
 10
5.003680
 20
3.069880
  0
VERTEX
  8
0
  6
CONTINUOUS
 10
5.054720
 20
3.069880
  0
VERTEX
  8
0
  6
CONTINUOUS
 10
5.105760
 20
3.073400
  0
VERTEX
  8
0
  6
CONTINUOUS
 10
5.155480
 20
3.080880
  0
VERTEX
  8
0
  6
CONTINUOUS
 10
5.204320
 20
3.092320
  0
VERTEX
  8
0
  6
CONTINUOUS
 10
5.252280
 20
3.108600
  0
VERTEX
  8
0
  6
CONTINUOUS
 10
5.298920
 20
3.129280
  0
VERTEX
  8
0
  6
CONTINUOUS
 10
5.344680
 20
3.155240
  0
VERTEX
  8
0
  6
CONTINUOUS
 10
5.389560
 20
3.186920
  0
VERTEX
  8
0
  6
CONTINUOUS
 10
5.432680
 20
3.223880
  0
VERTEX
  8
0
  6
CONTINUOUS
 10
5.474480
 20
3.267440
  0
VERTEX
  8
0
  6
CONTINUOUS
 10
5.514960
 20
3.317160
  0
VERTEX
  8
0
  6
CONTINUOUS
 10
5.554120
 20
3.373480
  0
VERTEX
  8
0
  6
CONTINUOUS
 10
5.558080
 20
3.373480
  0
SEQEND
  8
0
  0
TEXT
  8
0
 10
3.699960
 20
2.329360
 40
0.138098
  1
BA  94
 41
1.000000
  7
SN0
 71
     0
 72
     5
 11
4.198161
 21
2.329360
  0
TEXT
  8
0
 10
3.498000
 20
2.137520
 40
0.138098
  1
3/4" x 4-3/4"
 41
1.000000
  7
SN0
 71
     0
 72
     5
 11
4.399703
 21
2.137520
  0
ENDSEC
  0
EOF
