  0
SECTION
  2
HEADER
  9
$ACADVER
  1
AC1006
  9
$EXTMIN
 10
1.701040
 20
0.505560
  9
$EXTMAX
 10
6.526080
 20
5.533440
  9
$LTSCALE
 40
0.044000
  9
$PDMODE
 70
    35
  9
$PDSIZE
 40
0.035200
  0
ENDSEC
  0
SECTION
  2
TABLES
  0
TABLE
  2
LTYPE
 70
     9
  0
LTYPE
  2
CONTINUOUS
 70
    64
  3
Solid line
 72
    65
 73
     0
 40
0.000000
  0
LTYPE
  2
DASHED
 70
    64
  3
__ __ __ __ __ __ __ __ __ __ __ __ __ __ __
 72
    65
 73
     2
 40
0.000330
 49
0.000220
 49
-0.000110
  0
LTYPE
  2
HIDDEN
 70
    64
  3
 _ _ _ _ _ _ _ _ _ _ _ _ _ _ _ _ _ _ _ _ _ _
 72
    65
 73
     2
 40
0.000165
 49
0.000110
 49
-0.000055
  0
LTYPE
  2
CENTER
 70
    64
  3
____ _ ____ _ ____ _ ____ _ ____ _ ____ _ ____
 72
    65
 73
     4
 40
0.000880
 49
0.000550
 49
-0.000110
 49
0.000110
 49
-0.000110
  0
LTYPE
  2
PHANTOM
 70
    64
  3
_____ _ _ _____ _ _ _____ _ _ _____ _ _ ____
 72
    65
 73
     6
 40
0.001100
 49
0.000550
 49
-0.000110
 49
0.000110
 49
-0.000110
 49
0.000110
 49
-0.000110
  0
LTYPE
  2
DOT
 70
    64
  3
...............................................
 72
    65
 73
     2
 40
0.000110
 49
0.000000
 49
-0.000110
  0
LTYPE
  2
DASHDOT
 70
    64
  3
__ . __ . __ . __ . __ . __ . __ . __ . __ . __
 72
    65
 73
     4
 40
0.000440
 49
0.000220
 49
-0.000110
 49
0.000000
 49
-0.000110
  0
LTYPE
  2
BORDER
 70
    64
  3
__ __ . __ __ . __ __ . __ __ . __ __ . __ __
 72
    65
 73
     6
 40
0.000770
 49
0.000220
 49
-0.000110
 49
0.000220
 49
-0.000110
 49
0.000000
 49
-0.000110
  0
LTYPE
  2
DIVIDE
 70
    64
  3
__ . . __ . . __ . . __ . . __ . . __ . . __
 72
    65
 73
     6
 40
0.000550
 49
0.000220
 49
-0.000110
 49
0.000000
 49
-0.000110
 49
0.000000
 49
-0.000110
  0
LTYPE
  2
DOTDOT
 70
    64
  3
 . .  . .  . .  . .  . .  . . 
 72
    65
 73
     5
 40
0.000242
 49
-0.000110
 49
0.000000
 49
-0.000110
 49
0.000000
 49
-0.000110
  0
ENDTAB
  0
TABLE
  2
STYLE
 70
     2
  0
STYLE
 70
     0
  2
SN0
 40
0.000000
 41
0.000440
 50
0.000000
 71
     0
 42
0.000000
  3
ROMAND
  0
STYLE
 70
    68
  2
SV0
 40
0.000000
 41
0.000440
 50
0.000000
 71
     0
 42
0.000000
  3
ROMAND
  0
ENDTAB
  0
TABLE
  2
LAYER
 70
     3
  0
LAYER
  2
FOREGROUND
 70
    64
 62
     7
  6
CONTINUOUS
  0
LAYER
  2
BACKGROUND
 70
    65
 62
    -7
  6
CONTINUOUS
  0
LAYER
  2
0
 70
    64
 62
     7
  6
CONTINUOUS
  0
ENDTAB
  0
ENDSEC
  0
SECTION
  2
ENTITIES
  0
POLYLINE
  8
FOREGROUND
  6
CONTINUOUS
 66
     1
 40
0.000000
 41
0.000000
  0
VERTEX
  8
FOREGROUND
  6
CONTINUOUS
 10
0.000000
 20
6.039000
  0
VERTEX
  8
FOREGROUND
  6
CONTINUOUS
 10
8.499920
 20
6.039000
  0
VERTEX
  8
FOREGROUND
  6
CONTINUOUS
 10
8.499920
 20
-4.961000
  0
VERTEX
  8
FOREGROUND
  6
CONTINUOUS
 10
0.000000
 20
-4.961000
  0
VERTEX
  8
FOREGROUND
  6
CONTINUOUS
 10
0.000000
 20
6.039000
  0
SEQEND
  8
0
  0
POLYLINE
  8
FOREGROUND
  6
CONTINUOUS
 66
     1
 40
0.000000
 41
0.000000
  0
VERTEX
  8
FOREGROUND
  6
CONTINUOUS
 10
0.000000
 20
6.039000
  0
VERTEX
  8
FOREGROUND
  6
CONTINUOUS
 10
8.499920
 20
6.039000
  0
VERTEX
  8
FOREGROUND
  6
CONTINUOUS
 10
8.499920
 20
-4.961000
  0
VERTEX
  8
FOREGROUND
  6
CONTINUOUS
 10
0.000000
 20
-4.961000
  0
VERTEX
  8
FOREGROUND
  6
CONTINUOUS
 10
0.000000
 20
6.039000
  0
SEQEND
  8
0
  0
POLYLINE
  8
0
  6
CONTINUOUS
 66
     1
 40
0.014080
 41
0.014080
  0
VERTEX
  8
0
  6
CONTINUOUS
 10
3.768600
 20
4.724720
  0
VERTEX
  8
0
  6
CONTINUOUS
 10
3.768600
 20
4.520560
  0
VERTEX
  8
0
  6
CONTINUOUS
 10
3.772560
 20
4.517920
  0
VERTEX
  8
0
  6
CONTINUOUS
 10
3.772560
 20
4.722080
  0
VERTEX
  8
0
  6
CONTINUOUS
 10
4.243360
 20
4.737920
  0
VERTEX
  8
0
  6
CONTINUOUS
 10
4.286920
 20
4.737920
  0
VERTEX
  8
0
  6
CONTINUOUS
 10
4.344560
 20
4.741880
  0
VERTEX
  8
0
  6
CONTINUOUS
 10
4.392520
 20
4.751120
  0
VERTEX
  8
0
  6
CONTINUOUS
 10
4.418920
 20
4.759920
  0
VERTEX
  8
0
  6
CONTINUOUS
 10
4.441360
 20
4.771360
  0
VERTEX
  8
0
  6
CONTINUOUS
 10
4.451480
 20
4.777520
  0
VERTEX
  8
0
  6
CONTINUOUS
 10
4.467760
 20
4.792480
  0
VERTEX
  8
0
  6
CONTINUOUS
 10
4.480080
 20
4.810080
  0
VERTEX
  8
0
  6
CONTINUOUS
 10
4.488440
 20
4.829880
  0
VERTEX
  8
0
  6
CONTINUOUS
 10
4.493280
 20
4.852320
  0
VERTEX
  8
0
  6
CONTINUOUS
 10
4.494160
 20
4.877840
  0
VERTEX
  8
0
  6
CONTINUOUS
 10
4.491080
 20
4.905560
  0
VERTEX
  8
0
  6
CONTINUOUS
 10
4.484480
 20
4.936360
  0
VERTEX
  8
0
  6
CONTINUOUS
 10
4.474360
 20
4.970240
  0
VERTEX
  8
0
  6
CONTINUOUS
 10
4.452360
 20
5.026120
  0
VERTEX
  8
0
  6
CONTINUOUS
 10
4.424640
 20
5.082000
  0
VERTEX
  8
0
  6
CONTINUOUS
 10
4.402640
 20
5.117200
  0
VERTEX
  8
0
  6
CONTINUOUS
 10
4.364800
 20
5.167360
  0
VERTEX
  8
0
  6
CONTINUOUS
 10
4.335320
 20
5.198600
  0
VERTEX
  8
0
  6
CONTINUOUS
 10
4.284720
 20
5.241720
  0
VERTEX
  8
0
  6
CONTINUOUS
 10
4.225320
 20
5.280000
  0
VERTEX
  8
0
  6
CONTINUOUS
 10
4.180440
 20
5.302440
  0
VERTEX
  8
0
  6
CONTINUOUS
 10
4.131600
 20
5.322240
  0
VERTEX
  8
0
  6
CONTINUOUS
 10
4.049320
 20
5.347320
  0
VERTEX
  8
0
  6
CONTINUOUS
 10
3.988160
 20
5.360080
  0
VERTEX
  8
0
  6
CONTINUOUS
 10
3.921720
 20
5.370200
  0
VERTEX
  8
0
  6
CONTINUOUS
 10
3.849560
 20
5.376800
  0
VERTEX
  8
0
  6
CONTINUOUS
 10
3.772120
 20
5.380320
  0
VERTEX
  8
0
  6
CONTINUOUS
 10
3.731200
 20
5.380760
  0
VERTEX
  8
0
  6
CONTINUOUS
 10
3.731200
 20
5.522000
  0
VERTEX
  8
0
  6
CONTINUOUS
 10
3.733840
 20
5.523320
  0
VERTEX
  8
0
  6
CONTINUOUS
 10
2.434080
 20
5.523320
  0
VERTEX
  8
0
  6
CONTINUOUS
 10
2.434080
 20
3.710080
  0
VERTEX
  8
0
  6
CONTINUOUS
 10
3.727240
 20
3.710080
  0
VERTEX
  8
0
  6
CONTINUOUS
 10
3.727240
 20
3.853960
  0
VERTEX
  8
0
  6
CONTINUOUS
 10
3.807760
 20
3.855720
  0
VERTEX
  8
0
  6
CONTINUOUS
 10
3.882560
 20
3.861000
  0
VERTEX
  8
0
  6
CONTINUOUS
 10
3.951640
 20
3.869360
  0
VERTEX
  8
0
  6
CONTINUOUS
 10
4.015000
 20
3.880800
  0
VERTEX
  8
0
  6
CONTINUOUS
 10
4.073960
 20
3.894880
  0
VERTEX
  8
0
  6
CONTINUOUS
 10
4.127640
 20
3.912480
  0
VERTEX
  8
0
  6
CONTINUOUS
 10
4.176480
 20
3.932280
  0
VERTEX
  8
0
  6
CONTINUOUS
 10
4.221360
 20
3.954720
  0
VERTEX
  8
0
  6
CONTINUOUS
 10
4.261840
 20
3.979360
  0
VERTEX
  8
0
  6
CONTINUOUS
 10
4.298360
 20
4.006640
  0
VERTEX
  8
0
  6
CONTINUOUS
 10
4.331360
 20
4.035680
  0
VERTEX
  8
0
  6
CONTINUOUS
 10
4.360840
 20
4.066920
  0
VERTEX
  8
0
  6
CONTINUOUS
 10
4.398680
 20
4.117080
  0
VERTEX
  8
0
  6
CONTINUOUS
 10
4.420680
 20
4.152720
  0
VERTEX
  8
0
  6
CONTINUOUS
 10
4.448400
 20
4.208600
  0
VERTEX
  8
0
  6
CONTINUOUS
 10
4.470400
 20
4.264480
  0
VERTEX
  8
0
  6
CONTINUOUS
 10
4.484480
 20
4.313760
  0
VERTEX
  8
0
  6
CONTINUOUS
 10
4.489320
 20
4.343240
  0
VERTEX
  8
0
  6
CONTINUOUS
 10
4.490200
 20
4.370080
  0
VERTEX
  8
0
  6
CONTINUOUS
 10
4.487560
 20
4.393840
  0
VERTEX
  8
0
  6
CONTINUOUS
 10
4.480960
 20
4.414960
  0
VERTEX
  8
0
  6
CONTINUOUS
 10
4.470400
 20
4.433880
  0
VERTEX
  8
0
  6
CONTINUOUS
 10
4.455880
 20
4.449720
  0
VERTEX
  8
0
  6
CONTINUOUS
 10
4.447520
 20
4.457200
  0
VERTEX
  8
0
  6
CONTINUOUS
 10
4.426840
 20
4.469520
  0
VERTEX
  8
0
  6
CONTINUOUS
 10
4.402200
 20
4.479640
  0
VERTEX
  8
0
  6
CONTINUOUS
 10
4.357760
 20
4.490200
  0
VERTEX
  8
0
  6
CONTINUOUS
 10
4.322560
 20
4.494600
  0
VERTEX
  8
0
  6
CONTINUOUS
 10
4.261840
 20
4.497240
  0
VERTEX
  8
0
  6
CONTINUOUS
 10
4.239400
 20
4.496800
  0
VERTEX
  8
0
  6
CONTINUOUS
 10
3.768600
 20
4.512640
  0
VERTEX
  8
0
  6
CONTINUOUS
 10
3.768600
 20
4.724720
  0
SEQEND
  8
0
  0
POLYLINE
  8
0
  6
CONTINUOUS
 66
     1
 40
0.014080
 41
0.014080
  0
VERTEX
  8
0
  6
CONTINUOUS
 10
4.212560
 20
4.515280
  0
VERTEX
  8
0
  6
CONTINUOUS
 10
4.683360
 20
4.499440
  0
VERTEX
  8
0
  6
CONTINUOUS
 10
4.726920
 20
4.499440
  0
VERTEX
  8
0
  6
CONTINUOUS
 10
4.784560
 20
4.495480
  0
VERTEX
  8
0
  6
CONTINUOUS
 10
4.832520
 20
4.486240
  0
VERTEX
  8
0
  6
CONTINUOUS
 10
4.858920
 20
4.477440
  0
VERTEX
  8
0
  6
CONTINUOUS
 10
4.881360
 20
4.466000
  0
VERTEX
  8
0
  6
CONTINUOUS
 10
4.891480
 20
4.459840
  0
VERTEX
  8
0
  6
CONTINUOUS
 10
4.907760
 20
4.444880
  0
VERTEX
  8
0
  6
CONTINUOUS
 10
4.920080
 20
4.427280
  0
VERTEX
  8
0
  6
CONTINUOUS
 10
4.928880
 20
4.407480
  0
VERTEX
  8
0
  6
CONTINUOUS
 10
4.933280
 20
4.385040
  0
VERTEX
  8
0
  6
CONTINUOUS
 10
4.934160
 20
4.359520
  0
VERTEX
  8
0
  6
CONTINUOUS
 10
4.931520
 20
4.331800
  0
VERTEX
  8
0
  6
CONTINUOUS
 10
4.920080
 20
4.284280
  0
VERTEX
  8
0
  6
CONTINUOUS
 10
4.901160
 20
4.230600
  0
VERTEX
  8
0
  6
CONTINUOUS
 10
4.874760
 20
4.173840
  0
VERTEX
  8
0
  6
CONTINUOUS
 10
4.854520
 20
4.137320
  0
VERTEX
  8
0
  6
CONTINUOUS
 10
4.818440
 20
4.086280
  0
VERTEX
  8
0
  6
CONTINUOUS
 10
4.775760
 20
4.038760
  0
VERTEX
  8
0
  6
CONTINUOUS
 10
4.724720
 20
3.995640
  0
VERTEX
  8
0
  6
CONTINUOUS
 10
4.686440
 20
3.969680
  0
VERTEX
  8
0
  6
CONTINUOUS
 10
4.643760
 20
3.945920
  0
VERTEX
  8
0
  6
CONTINUOUS
 10
4.596680
 20
3.924800
  0
VERTEX
  8
0
  6
CONTINUOUS
 10
4.545200
 20
3.906320
  0
VERTEX
  8
0
  6
CONTINUOUS
 10
4.489320
 20
3.890040
  0
VERTEX
  8
0
  6
CONTINUOUS
 10
4.428160
 20
3.877280
  0
VERTEX
  8
0
  6
CONTINUOUS
 10
4.361720
 20
3.867160
  0
VERTEX
  8
0
  6
CONTINUOUS
 10
4.289560
 20
3.860560
  0
VERTEX
  8
0
  6
CONTINUOUS
 10
4.212120
 20
3.857040
  0
VERTEX
  8
0
  6
CONTINUOUS
 10
4.171200
 20
3.856600
  0
VERTEX
  8
0
  6
CONTINUOUS
 10
4.171200
 20
3.715360
  0
VERTEX
  8
0
  6
CONTINUOUS
 10
4.173840
 20
3.712720
  0
VERTEX
  8
0
  6
CONTINUOUS
 10
5.892480
 20
3.712720
  0
VERTEX
  8
0
  6
CONTINUOUS
 10
5.892480
 20
5.525960
  0
VERTEX
  8
0
  6
CONTINUOUS
 10
4.173840
 20
5.525960
  0
VERTEX
  8
0
  6
CONTINUOUS
 10
4.175160
 20
5.524640
  0
VERTEX
  8
0
  6
CONTINUOUS
 10
4.175160
 20
5.383400
  0
VERTEX
  8
0
  6
CONTINUOUS
 10
4.255680
 20
5.381640
  0
VERTEX
  8
0
  6
CONTINUOUS
 10
4.330480
 20
5.376360
  0
VERTEX
  8
0
  6
CONTINUOUS
 10
4.365680
 20
5.372840
  0
VERTEX
  8
0
  6
CONTINUOUS
 10
4.432120
 20
5.362720
  0
VERTEX
  8
0
  6
CONTINUOUS
 10
4.493280
 20
5.349960
  0
VERTEX
  8
0
  6
CONTINUOUS
 10
4.549160
 20
5.334120
  0
VERTEX
  8
0
  6
CONTINUOUS
 10
4.624840
 20
5.305080
  0
VERTEX
  8
0
  6
CONTINUOUS
 10
4.669280
 20
5.282640
  0
VERTEX
  8
0
  6
CONTINUOUS
 10
4.710200
 20
5.258000
  0
VERTEX
  8
0
  6
CONTINUOUS
 10
4.746720
 20
5.230720
  0
VERTEX
  8
0
  6
CONTINUOUS
 10
4.779720
 20
5.201680
  0
VERTEX
  8
0
  6
CONTINUOUS
 10
4.822400
 20
5.154160
  0
VERTEX
  8
0
  6
CONTINUOUS
 10
4.858480
 20
5.102680
  0
VERTEX
  8
0
  6
CONTINUOUS
 10
4.887960
 20
5.047680
  0
VERTEX
  8
0
  6
CONTINUOUS
 10
4.912160
 20
4.990920
  0
VERTEX
  8
0
  6
CONTINUOUS
 10
4.928880
 20
4.939000
  0
VERTEX
  8
0
  6
CONTINUOUS
 10
4.935480
 20
4.908200
  0
VERTEX
  8
0
  6
CONTINUOUS
 10
4.938560
 20
4.867280
  0
VERTEX
  8
0
  6
CONTINUOUS
 10
4.935480
 20
4.843520
  0
VERTEX
  8
0
  6
CONTINUOUS
 10
4.928880
 20
4.822400
  0
VERTEX
  8
0
  6
CONTINUOUS
 10
4.918760
 20
4.803480
  0
VERTEX
  8
0
  6
CONTINUOUS
 10
4.904240
 20
4.787640
  0
VERTEX
  8
0
  6
CONTINUOUS
 10
4.885760
 20
4.774000
  0
VERTEX
  8
0
  6
CONTINUOUS
 10
4.863320
 20
4.762560
  0
VERTEX
  8
0
  6
CONTINUOUS
 10
4.836480
 20
4.753760
  0
VERTEX
  8
0
  6
CONTINUOUS
 10
4.788520
 20
4.744520
  0
VERTEX
  8
0
  6
CONTINUOUS
 10
4.731320
 20
4.740560
  0
VERTEX
  8
0
  6
CONTINUOUS
 10
4.687320
 20
4.740560
  0
VERTEX
  8
0
  6
CONTINUOUS
 10
4.216520
 20
4.724720
  0
VERTEX
  8
0
  6
CONTINUOUS
 10
4.212560
 20
4.727360
  0
VERTEX
  8
0
  6
CONTINUOUS
 10
4.212560
 20
4.515280
  0
SEQEND
  8
0
  0
TEXT
  8
0
 10
3.476440
 20
3.494480
 40
0.138041
  1
93A            93B
 41
1.000000
  7
SN0
 71
     0
 72
     5
 11
4.619529
 21
3.494480
  0
SOLID
  8
0
 62
    15
 10
2.999040
 20
2.824360
 11
3.624720
 21
3.170200
 12
2.999040
 22
2.682680
 13
3.624720
 23
3.028960
  0
POLYLINE
  8
0
  6
CONTINUOUS
 66
     1
 40
0.000000
 41
0.000000
  0
VERTEX
  8
0
  6
CONTINUOUS
 10
2.999040
 20
2.824360
  0
VERTEX
  8
0
  6
CONTINUOUS
 10
3.624720
 20
3.170200
  0
VERTEX
  8
0
  6
CONTINUOUS
 10
3.624720
 20
3.028960
  0
VERTEX
  8
0
  6
CONTINUOUS
 10
2.999040
 20
2.682680
  0
VERTEX
  8
0
  6
CONTINUOUS
 10
2.999040
 20
2.824360
  0
SEQEND
  8
0
  0
POLYLINE
  8
0
  6
CONTINUOUS
 66
     1
 40
0.000000
 41
0.000000
  0
VERTEX
  8
0
  6
CONTINUOUS
 10
3.507240
 20
1.798720
  0
VERTEX
  8
0
  6
CONTINUOUS
 10
4.132920
 20
2.145000
  0
VERTEX
  8
0
  6
CONTINUOUS
 10
3.507240
 20
1.798720
  0
SEQEND
  8
0
  0
SOLID
  8
0
 62
    15
 10
3.507240
 20
1.798720
 11
4.132920
 21
2.145000
 12
3.590400
 22
1.796520
 13
4.216080
 23
2.142800
  0
POLYLINE
  8
0
  6
CONTINUOUS
 66
     1
 40
0.000000
 41
0.000000
  0
VERTEX
  8
0
  6
CONTINUOUS
 10
3.507240
 20
1.798720
  0
VERTEX
  8
0
  6
CONTINUOUS
 10
4.132920
 20
2.145000
  0
VERTEX
  8
0
  6
CONTINUOUS
 10
4.216080
 20
2.142800
  0
VERTEX
  8
0
  6
CONTINUOUS
 10
3.590400
 20
1.796520
  0
VERTEX
  8
0
  6
CONTINUOUS
 10
3.507240
 20
1.798720
  0
SEQEND
  8
0
  0
SOLID
  8
0
 62
    15
 10
3.590400
 20
1.796520
 11
4.216080
 21
2.142800
 12
3.656400
 22
1.785520
 13
4.282080
 23
2.131800
  0
POLYLINE
  8
0
  6
CONTINUOUS
 66
     1
 40
0.000000
 41
0.000000
  0
VERTEX
  8
0
  6
CONTINUOUS
 10
3.590400
 20
1.796520
  0
VERTEX
  8
0
  6
CONTINUOUS
 10
4.216080
 20
2.142800
  0
VERTEX
  8
0
  6
CONTINUOUS
 10
4.282080
 20
2.131800
  0
VERTEX
  8
0
  6
CONTINUOUS
 10
3.656400
 20
1.785520
  0
VERTEX
  8
0
  6
CONTINUOUS
 10
3.590400
 20
1.796520
  0
SEQEND
  8
0
  0
SOLID
  8
0
 62
     7
 10
3.656400
 20
1.785520
 11
4.282080
 21
2.131800
 12
3.705240
 22
1.765720
 13
4.330920
 23
2.111560
  0
POLYLINE
  8
0
  6
CONTINUOUS
 66
     1
 40
0.000000
 41
0.000000
  0
VERTEX
  8
0
  6
CONTINUOUS
 10
3.656400
 20
1.785520
  0
VERTEX
  8
0
  6
CONTINUOUS
 10
4.282080
 20
2.131800
  0
VERTEX
  8
0
  6
CONTINUOUS
 10
4.330920
 20
2.111560
  0
VERTEX
  8
0
  6
CONTINUOUS
 10
3.705240
 20
1.765720
  0
VERTEX
  8
0
  6
CONTINUOUS
 10
3.656400
 20
1.785520
  0
SEQEND
  8
0
  0
SOLID
  8
0
 62
     7
 10
3.705240
 20
1.765720
 11
4.330920
 21
2.111560
 12
3.738240
 22
1.735800
 13
4.363920
 23
2.081640
  0
POLYLINE
  8
0
  6
CONTINUOUS
 66
     1
 40
0.000000
 41
0.000000
  0
VERTEX
  8
0
  6
CONTINUOUS
 10
3.705240
 20
1.765720
  0
VERTEX
  8
0
  6
CONTINUOUS
 10
4.330920
 20
2.111560
  0
VERTEX
  8
0
  6
CONTINUOUS
 10
4.363920
 20
2.081640
  0
VERTEX
  8
0
  6
CONTINUOUS
 10
3.738240
 20
1.735800
  0
VERTEX
  8
0
  6
CONTINUOUS
 10
3.705240
 20
1.765720
  0
SEQEND
  8
0
  0
SOLID
  8
0
 62
     7
 10
3.738240
 20
1.735800
 11
4.363920
 21
2.081640
 12
3.755400
 22
1.695760
 13
4.381080
 23
2.042040
  0
POLYLINE
  8
0
  6
CONTINUOUS
 66
     1
 40
0.000000
 41
0.000000
  0
VERTEX
  8
0
  6
CONTINUOUS
 10
3.738240
 20
1.735800
  0
VERTEX
  8
0
  6
CONTINUOUS
 10
4.363920
 20
2.081640
  0
VERTEX
  8
0
  6
CONTINUOUS
 10
4.381080
 20
2.042040
  0
VERTEX
  8
0
  6
CONTINUOUS
 10
3.755400
 20
1.695760
  0
VERTEX
  8
0
  6
CONTINUOUS
 10
3.738240
 20
1.735800
  0
SEQEND
  8
0
  0
SOLID
  8
0
 62
    15
 10
3.755400
 20
1.695760
 11
4.381080
 21
2.042040
 12
3.757160
 22
1.645600
 13
4.382840
 23
1.991440
  0
POLYLINE
  8
0
  6
CONTINUOUS
 66
     1
 40
0.000000
 41
0.000000
  0
VERTEX
  8
0
  6
CONTINUOUS
 10
3.755400
 20
1.695760
  0
VERTEX
  8
0
  6
CONTINUOUS
 10
4.381080
 20
2.042040
  0
VERTEX
  8
0
  6
CONTINUOUS
 10
4.382840
 20
1.991440
  0
VERTEX
  8
0
  6
CONTINUOUS
 10
3.757160
 20
1.645600
  0
VERTEX
  8
0
  6
CONTINUOUS
 10
3.755400
 20
1.695760
  0
SEQEND
  8
0
  0
SOLID
  8
0
 62
    15
 10
3.757160
 20
1.645600
 11
4.382840
 21
1.991440
 12
3.743960
 22
1.584000
 13
4.369640
 23
1.929840
  0
POLYLINE
  8
0
  6
CONTINUOUS
 66
     1
 40
0.000000
 41
0.000000
  0
VERTEX
  8
0
  6
CONTINUOUS
 10
3.757160
 20
1.645600
  0
VERTEX
  8
0
  6
CONTINUOUS
 10
4.382840
 20
1.991440
  0
VERTEX
  8
0
  6
CONTINUOUS
 10
4.369640
 20
1.929840
  0
VERTEX
  8
0
  6
CONTINUOUS
 10
3.743960
 20
1.584000
  0
VERTEX
  8
0
  6
CONTINUOUS
 10
3.757160
 20
1.645600
  0
SEQEND
  8
0
  0
SOLID
  8
0
 62
    15
 10
3.743960
 20
1.584000
 11
4.369640
 21
1.929840
 12
3.716240
 22
1.510960
 13
4.341920
 23
1.856800
  0
POLYLINE
  8
0
  6
CONTINUOUS
 66
     1
 40
0.000000
 41
0.000000
  0
VERTEX
  8
0
  6
CONTINUOUS
 10
3.743960
 20
1.584000
  0
VERTEX
  8
0
  6
CONTINUOUS
 10
4.369640
 20
1.929840
  0
VERTEX
  8
0
  6
CONTINUOUS
 10
4.341920
 20
1.856800
  0
VERTEX
  8
0
  6
CONTINUOUS
 10
3.716240
 20
1.510960
  0
VERTEX
  8
0
  6
CONTINUOUS
 10
3.743960
 20
1.584000
  0
SEQEND
  8
0
  0
SOLID
  8
0
 62
    15
 10
3.716240
 20
1.510960
 11
4.341920
 21
1.856800
 12
3.677960
 22
1.437040
 13
4.303640
 23
1.782880
  0
POLYLINE
  8
0
  6
CONTINUOUS
 66
     1
 40
0.000000
 41
0.000000
  0
VERTEX
  8
0
  6
CONTINUOUS
 10
3.716240
 20
1.510960
  0
VERTEX
  8
0
  6
CONTINUOUS
 10
4.341920
 20
1.856800
  0
VERTEX
  8
0
  6
CONTINUOUS
 10
4.303640
 20
1.782880
  0
VERTEX
  8
0
  6
CONTINUOUS
 10
3.677960
 20
1.437040
  0
VERTEX
  8
0
  6
CONTINUOUS
 10
3.716240
 20
1.510960
  0
SEQEND
  8
0
  0
SOLID
  8
0
 62
    15
 10
3.677960
 20
1.437040
 11
4.303640
 21
1.782880
 12
3.628680
 22
1.369280
 13
4.254360
 23
1.715120
  0
POLYLINE
  8
0
  6
CONTINUOUS
 66
     1
 40
0.000000
 41
0.000000
  0
VERTEX
  8
0
  6
CONTINUOUS
 10
3.677960
 20
1.437040
  0
VERTEX
  8
0
  6
CONTINUOUS
 10
4.303640
 20
1.782880
  0
VERTEX
  8
0
  6
CONTINUOUS
 10
4.254360
 20
1.715120
  0
VERTEX
  8
0
  6
CONTINUOUS
 10
3.628680
 20
1.369280
  0
VERTEX
  8
0
  6
CONTINUOUS
 10
3.677960
 20
1.437040
  0
SEQEND
  8
0
  0
SOLID
  8
0
 62
    15
 10
3.566200
 20
1.309000
 11
4.191880
 21
1.654840
 12
3.489200
 22
1.257080
 13
4.114880
 23
1.602920
  0
POLYLINE
  8
0
  6
CONTINUOUS
 66
     1
 40
0.000000
 41
0.000000
  0
VERTEX
  8
0
  6
CONTINUOUS
 10
3.566200
 20
1.309000
  0
VERTEX
  8
0
  6
CONTINUOUS
 10
4.191880
 20
1.654840
  0
VERTEX
  8
0
  6
CONTINUOUS
 10
4.114880
 20
1.602920
  0
VERTEX
  8
0
  6
CONTINUOUS
 10
3.489200
 20
1.257080
  0
VERTEX
  8
0
  6
CONTINUOUS
 10
3.566200
 20
1.309000
  0
SEQEND
  8
0
  0
SOLID
  8
0
 62
    15
 10
2.995080
 20
1.156320
 11
3.620760
 21
1.502160
 12
2.995080
 22
1.012000
 13
3.620760
 23
1.358280
  0
POLYLINE
  8
0
  6
CONTINUOUS
 66
     1
 40
0.000000
 41
0.000000
  0
VERTEX
  8
0
  6
CONTINUOUS
 10
2.995080
 20
1.156320
  0
VERTEX
  8
0
  6
CONTINUOUS
 10
3.620760
 20
1.502160
  0
VERTEX
  8
0
  6
CONTINUOUS
 10
3.620760
 20
1.358280
  0
VERTEX
  8
0
  6
CONTINUOUS
 10
2.995080
 20
1.012000
  0
VERTEX
  8
0
  6
CONTINUOUS
 10
2.995080
 20
1.156320
  0
SEQEND
  8
0
  0
SOLID
  8
0
 62
    15
 10
3.628680
 20
1.369280
 11
4.254360
 21
1.715120
 12
3.566200
 22
1.309000
 13
4.191880
 23
1.654840
  0
POLYLINE
  8
0
  6
CONTINUOUS
 66
     1
 40
0.000000
 41
0.000000
  0
VERTEX
  8
0
  6
CONTINUOUS
 10
3.628680
 20
1.369280
  0
VERTEX
  8
0
  6
CONTINUOUS
 10
4.254360
 20
1.715120
  0
VERTEX
  8
0
  6
CONTINUOUS
 10
4.191880
 20
1.654840
  0
VERTEX
  8
0
  6
CONTINUOUS
 10
3.566200
 20
1.309000
  0
VERTEX
  8
0
  6
CONTINUOUS
 10
3.628680
 20
1.369280
  0
SEQEND
  8
0
  0
SOLID
  8
0
 62
    15
 10
1.701920
 20
2.825680
 11
2.327600
 21
3.171520
 12
3.001680
 22
2.825680
 13
3.627360
 23
3.171520
  0
POLYLINE
  8
0
  6
CONTINUOUS
 66
     1
 40
0.000000
 41
0.000000
  0
VERTEX
  8
0
  6
CONTINUOUS
 10
1.701920
 20
2.825680
  0
VERTEX
  8
0
  6
CONTINUOUS
 10
2.327600
 20
3.171520
  0
VERTEX
  8
0
  6
CONTINUOUS
 10
3.627360
 20
3.171520
  0
VERTEX
  8
0
  6
CONTINUOUS
 10
3.001680
 20
2.825680
  0
VERTEX
  8
0
  6
CONTINUOUS
 10
1.701920
 20
2.825680
  0
SEQEND
  8
0
  0
SOLID
  8
0
 62
    15
 10
3.036440
 20
1.815000
 11
3.662120
 21
2.160840
 12
3.507240
 22
1.798720
 13
4.132920
 23
2.145000
  0
POLYLINE
  8
0
  6
CONTINUOUS
 66
     1
 40
0.000000
 41
0.000000
  0
VERTEX
  8
0
  6
CONTINUOUS
 10
3.036440
 20
1.815000
  0
VERTEX
  8
0
  6
CONTINUOUS
 10
3.662120
 20
2.160840
  0
VERTEX
  8
0
  6
CONTINUOUS
 10
4.132920
 20
2.145000
  0
VERTEX
  8
0
  6
CONTINUOUS
 10
3.507240
 20
1.798720
  0
VERTEX
  8
0
  6
CONTINUOUS
 10
3.036440
 20
1.815000
  0
SEQEND
  8
0
  0
SOLID
  8
0
 62
    15
 10
2.999040
 20
2.682680
 11
3.624720
 21
3.028960
 12
3.154360
 22
2.676080
 13
3.780040
 23
3.021920
  0
POLYLINE
  8
0
  6
CONTINUOUS
 66
     1
 40
0.000000
 41
0.000000
  0
VERTEX
  8
0
  6
CONTINUOUS
 10
2.999040
 20
2.682680
  0
VERTEX
  8
0
  6
CONTINUOUS
 10
3.624720
 20
3.028960
  0
VERTEX
  8
0
  6
CONTINUOUS
 10
3.780040
 20
3.021920
  0
VERTEX
  8
0
  6
CONTINUOUS
 10
3.154360
 20
2.676080
  0
VERTEX
  8
0
  6
CONTINUOUS
 10
2.999040
 20
2.682680
  0
SEQEND
  8
0
  0
SOLID
  8
0
 62
    15
 10
3.154360
 20
2.676080
 11
3.780040
 21
3.021920
 12
3.287240
 22
2.656280
 13
3.912920
 23
3.002120
  0
POLYLINE
  8
0
  6
CONTINUOUS
 66
     1
 40
0.000000
 41
0.000000
  0
VERTEX
  8
0
  6
CONTINUOUS
 10
3.154360
 20
2.676080
  0
VERTEX
  8
0
  6
CONTINUOUS
 10
3.780040
 20
3.021920
  0
VERTEX
  8
0
  6
CONTINUOUS
 10
3.912920
 20
3.002120
  0
VERTEX
  8
0
  6
CONTINUOUS
 10
3.287240
 20
2.656280
  0
VERTEX
  8
0
  6
CONTINUOUS
 10
3.154360
 20
2.676080
  0
SEQEND
  8
0
  0
SOLID
  8
0
 62
     7
 10
3.287240
 20
2.656280
 11
3.912920
 21
3.002120
 12
3.399440
 22
2.624600
 13
4.025120
 23
2.970440
  0
POLYLINE
  8
0
  6
CONTINUOUS
 66
     1
 40
0.000000
 41
0.000000
  0
VERTEX
  8
0
  6
CONTINUOUS
 10
3.287240
 20
2.656280
  0
VERTEX
  8
0
  6
CONTINUOUS
 10
3.912920
 20
3.002120
  0
VERTEX
  8
0
  6
CONTINUOUS
 10
4.025120
 20
2.970440
  0
VERTEX
  8
0
  6
CONTINUOUS
 10
3.399440
 20
2.624600
  0
VERTEX
  8
0
  6
CONTINUOUS
 10
3.287240
 20
2.656280
  0
SEQEND
  8
0
  0
SOLID
  8
0
 62
     7
 10
3.399440
 20
2.624600
 11
4.025120
 21
2.970440
 12
3.493160
 22
2.581920
 13
4.118840
 23
2.927760
  0
POLYLINE
  8
0
  6
CONTINUOUS
 66
     1
 40
0.000000
 41
0.000000
  0
VERTEX
  8
0
  6
CONTINUOUS
 10
3.399440
 20
2.624600
  0
VERTEX
  8
0
  6
CONTINUOUS
 10
4.025120
 20
2.970440
  0
VERTEX
  8
0
  6
CONTINUOUS
 10
4.118840
 20
2.927760
  0
VERTEX
  8
0
  6
CONTINUOUS
 10
3.493160
 20
2.581920
  0
VERTEX
  8
0
  6
CONTINUOUS
 10
3.399440
 20
2.624600
  0
SEQEND
  8
0
  0
SOLID
  8
0
 62
     7
 10
3.493160
 20
2.581920
 11
4.118840
 21
2.927760
 12
3.570160
 22
2.530000
 13
4.195840
 23
2.875840
  0
POLYLINE
  8
0
  6
CONTINUOUS
 66
     1
 40
0.000000
 41
0.000000
  0
VERTEX
  8
0
  6
CONTINUOUS
 10
3.493160
 20
2.581920
  0
VERTEX
  8
0
  6
CONTINUOUS
 10
4.118840
 20
2.927760
  0
VERTEX
  8
0
  6
CONTINUOUS
 10
4.195840
 20
2.875840
  0
VERTEX
  8
0
  6
CONTINUOUS
 10
3.570160
 20
2.530000
  0
VERTEX
  8
0
  6
CONTINUOUS
 10
3.493160
 20
2.581920
  0
SEQEND
  8
0
  0
SOLID
  8
0
 62
     7
 10
3.570160
 20
2.530000
 11
4.195840
 21
2.875840
 12
3.632640
 22
2.469720
 13
4.258320
 23
2.815560
  0
POLYLINE
  8
0
  6
CONTINUOUS
 66
     1
 40
0.000000
 41
0.000000
  0
VERTEX
  8
0
  6
CONTINUOUS
 10
3.570160
 20
2.530000
  0
VERTEX
  8
0
  6
CONTINUOUS
 10
4.195840
 20
2.875840
  0
VERTEX
  8
0
  6
CONTINUOUS
 10
4.258320
 20
2.815560
  0
VERTEX
  8
0
  6
CONTINUOUS
 10
3.632640
 20
2.469720
  0
VERTEX
  8
0
  6
CONTINUOUS
 10
3.570160
 20
2.530000
  0
SEQEND
  8
0
  0
SOLID
  8
0
 62
     7
 10
3.632640
 20
2.469720
 11
4.258320
 21
2.815560
 12
3.681920
 22
2.401960
 13
4.307600
 23
2.747800
  0
POLYLINE
  8
0
  6
CONTINUOUS
 66
     1
 40
0.000000
 41
0.000000
  0
VERTEX
  8
0
  6
CONTINUOUS
 10
3.632640
 20
2.469720
  0
VERTEX
  8
0
  6
CONTINUOUS
 10
4.258320
 20
2.815560
  0
VERTEX
  8
0
  6
CONTINUOUS
 10
4.307600
 20
2.747800
  0
VERTEX
  8
0
  6
CONTINUOUS
 10
3.681920
 20
2.401960
  0
VERTEX
  8
0
  6
CONTINUOUS
 10
3.632640
 20
2.469720
  0
SEQEND
  8
0
  0
SOLID
  8
0
 62
     7
 10
3.681920
 20
2.401960
 11
4.307600
 21
2.747800
 12
3.720200
 22
2.328040
 13
4.345880
 23
2.674320
  0
POLYLINE
  8
0
  6
CONTINUOUS
 66
     1
 40
0.000000
 41
0.000000
  0
VERTEX
  8
0
  6
CONTINUOUS
 10
3.681920
 20
2.401960
  0
VERTEX
  8
0
  6
CONTINUOUS
 10
4.307600
 20
2.747800
  0
VERTEX
  8
0
  6
CONTINUOUS
 10
4.345880
 20
2.674320
  0
VERTEX
  8
0
  6
CONTINUOUS
 10
3.720200
 20
2.328040
  0
VERTEX
  8
0
  6
CONTINUOUS
 10
3.681920
 20
2.401960
  0
SEQEND
  8
0
  0
SOLID
  8
0
 62
     7
 10
3.720200
 20
2.328040
 11
4.345880
 21
2.674320
 12
3.747920
 22
2.255000
 13
4.373600
 23
2.601280
  0
POLYLINE
  8
0
  6
CONTINUOUS
 66
     1
 40
0.000000
 41
0.000000
  0
VERTEX
  8
0
  6
CONTINUOUS
 10
3.720200
 20
2.328040
  0
VERTEX
  8
0
  6
CONTINUOUS
 10
4.345880
 20
2.674320
  0
VERTEX
  8
0
  6
CONTINUOUS
 10
4.373600
 20
2.601280
  0
VERTEX
  8
0
  6
CONTINUOUS
 10
3.747920
 20
2.255000
  0
VERTEX
  8
0
  6
CONTINUOUS
 10
3.720200
 20
2.328040
  0
SEQEND
  8
0
  0
SOLID
  8
0
 62
    15
 10
3.747920
 20
2.255000
 11
4.373600
 21
2.601280
 12
3.761120
 22
2.193400
 13
4.386800
 23
2.539680
  0
POLYLINE
  8
0
  6
CONTINUOUS
 66
     1
 40
0.000000
 41
0.000000
  0
VERTEX
  8
0
  6
CONTINUOUS
 10
3.747920
 20
2.255000
  0
VERTEX
  8
0
  6
CONTINUOUS
 10
4.373600
 20
2.601280
  0
VERTEX
  8
0
  6
CONTINUOUS
 10
4.386800
 20
2.539680
  0
VERTEX
  8
0
  6
CONTINUOUS
 10
3.761120
 20
2.193400
  0
VERTEX
  8
0
  6
CONTINUOUS
 10
3.747920
 20
2.255000
  0
SEQEND
  8
0
  0
SOLID
  8
0
 62
    15
 10
3.761120
 20
2.193400
 11
4.386800
 21
2.539680
 12
3.759360
 22
2.143240
 13
4.385040
 23
2.489080
  0
POLYLINE
  8
0
  6
CONTINUOUS
 66
     1
 40
0.000000
 41
0.000000
  0
VERTEX
  8
0
  6
CONTINUOUS
 10
3.761120
 20
2.193400
  0
VERTEX
  8
0
  6
CONTINUOUS
 10
4.386800
 20
2.539680
  0
VERTEX
  8
0
  6
CONTINUOUS
 10
4.385040
 20
2.489080
  0
VERTEX
  8
0
  6
CONTINUOUS
 10
3.759360
 20
2.143240
  0
VERTEX
  8
0
  6
CONTINUOUS
 10
3.761120
 20
2.193400
  0
SEQEND
  8
0
  0
SOLID
  8
0
 62
    15
 10
3.759360
 20
2.143240
 11
4.385040
 21
2.489080
 12
3.742200
 22
2.103200
 13
4.367880
 23
2.449040
  0
POLYLINE
  8
0
  6
CONTINUOUS
 66
     1
 40
0.000000
 41
0.000000
  0
VERTEX
  8
0
  6
CONTINUOUS
 10
3.759360
 20
2.143240
  0
VERTEX
  8
0
  6
CONTINUOUS
 10
4.385040
 20
2.489080
  0
VERTEX
  8
0
  6
CONTINUOUS
 10
4.367880
 20
2.449040
  0
VERTEX
  8
0
  6
CONTINUOUS
 10
3.742200
 20
2.103200
  0
VERTEX
  8
0
  6
CONTINUOUS
 10
3.759360
 20
2.143240
  0
SEQEND
  8
0
  0
SOLID
  8
0
 62
    15
 10
3.742200
 20
2.103200
 11
4.367880
 21
2.449040
 12
3.709200
 22
2.073280
 13
4.334880
 23
2.419560
  0
POLYLINE
  8
0
  6
CONTINUOUS
 66
     1
 40
0.000000
 41
0.000000
  0
VERTEX
  8
0
  6
CONTINUOUS
 10
3.742200
 20
2.103200
  0
VERTEX
  8
0
  6
CONTINUOUS
 10
4.367880
 20
2.449040
  0
VERTEX
  8
0
  6
CONTINUOUS
 10
4.334880
 20
2.419560
  0
VERTEX
  8
0
  6
CONTINUOUS
 10
3.709200
 20
2.073280
  0
VERTEX
  8
0
  6
CONTINUOUS
 10
3.742200
 20
2.103200
  0
SEQEND
  8
0
  0
SOLID
  8
0
 62
    15
 10
3.036440
 20
2.026640
 11
3.662120
 21
2.372920
 12
3.036440
 22
1.815000
 13
3.662120
 23
2.160840
  0
POLYLINE
  8
0
  6
CONTINUOUS
 66
     1
 40
0.000000
 41
0.000000
  0
VERTEX
  8
0
  6
CONTINUOUS
 10
3.036440
 20
2.026640
  0
VERTEX
  8
0
  6
CONTINUOUS
 10
3.662120
 20
2.372920
  0
VERTEX
  8
0
  6
CONTINUOUS
 10
3.662120
 20
2.160840
  0
VERTEX
  8
0
  6
CONTINUOUS
 10
3.036440
 20
1.815000
  0
VERTEX
  8
0
  6
CONTINUOUS
 10
3.036440
 20
2.026640
  0
SEQEND
  8
0
  0
SOLID
  8
0
 62
    15
 10
3.040400
 20
2.024000
 11
3.666080
 21
2.370280
 12
3.040400
 22
1.820280
 13
3.666080
 23
2.166120
  0
POLYLINE
  8
0
  6
CONTINUOUS
 66
     1
 40
0.000000
 41
0.000000
  0
VERTEX
  8
0
  6
CONTINUOUS
 10
3.040400
 20
2.024000
  0
VERTEX
  8
0
  6
CONTINUOUS
 10
3.666080
 20
2.370280
  0
VERTEX
  8
0
  6
CONTINUOUS
 10
3.666080
 20
2.166120
  0
VERTEX
  8
0
  6
CONTINUOUS
 10
3.040400
 20
1.820280
  0
VERTEX
  8
0
  6
CONTINUOUS
 10
3.040400
 20
2.024000
  0
SEQEND
  8
0
  0
POLYLINE
  8
0
  6
CONTINUOUS
 66
     1
 40
0.000000
 41
0.000000
  0
VERTEX
  8
0
  6
CONTINUOUS
 10
3.036440
 20
1.815000
  0
VERTEX
  8
0
  6
CONTINUOUS
 10
3.507240
 20
1.798720
  0
VERTEX
  8
0
  6
CONTINUOUS
 10
3.590400
 20
1.796520
  0
VERTEX
  8
0
  6
CONTINUOUS
 10
3.656400
 20
1.785520
  0
VERTEX
  8
0
  6
CONTINUOUS
 10
3.705240
 20
1.765720
  0
VERTEX
  8
0
  6
CONTINUOUS
 10
3.738240
 20
1.735800
  0
VERTEX
  8
0
  6
CONTINUOUS
 10
3.755400
 20
1.695760
  0
VERTEX
  8
0
  6
CONTINUOUS
 10
3.757160
 20
1.645600
  0
VERTEX
  8
0
  6
CONTINUOUS
 10
3.743960
 20
1.584000
  0
VERTEX
  8
0
  6
CONTINUOUS
 10
3.716240
 20
1.510960
  0
VERTEX
  8
0
  6
CONTINUOUS
 10
3.677960
 20
1.437040
  0
VERTEX
  8
0
  6
CONTINUOUS
 10
3.628680
 20
1.369280
  0
VERTEX
  8
0
  6
CONTINUOUS
 10
3.566200
 20
1.309000
  0
VERTEX
  8
0
  6
CONTINUOUS
 10
3.489200
 20
1.257080
  0
VERTEX
  8
0
  6
CONTINUOUS
 10
3.395480
 20
1.214400
  0
VERTEX
  8
0
  6
CONTINUOUS
 10
3.283280
 20
1.182720
  0
VERTEX
  8
0
  6
CONTINUOUS
 10
3.150400
 20
1.162920
  0
VERTEX
  8
0
  6
CONTINUOUS
 10
2.995080
 20
1.156320
  0
VERTEX
  8
0
  6
CONTINUOUS
 10
2.995080
 20
1.012000
  0
VERTEX
  8
0
  6
CONTINUOUS
 10
1.701920
 20
1.012000
  0
VERTEX
  8
0
  6
CONTINUOUS
 10
1.701920
 20
2.825680
  0
VERTEX
  8
0
  6
CONTINUOUS
 10
3.001680
 20
2.825680
  0
VERTEX
  8
0
  6
CONTINUOUS
 10
2.999040
 20
2.824360
  0
VERTEX
  8
0
  6
CONTINUOUS
 10
2.999040
 20
2.682680
  0
VERTEX
  8
0
  6
CONTINUOUS
 10
3.154360
 20
2.676080
  0
VERTEX
  8
0
  6
CONTINUOUS
 10
3.287240
 20
2.656280
  0
VERTEX
  8
0
  6
CONTINUOUS
 10
3.399440
 20
2.624600
  0
VERTEX
  8
0
  6
CONTINUOUS
 10
3.493160
 20
2.581920
  0
VERTEX
  8
0
  6
CONTINUOUS
 10
3.570160
 20
2.530000
  0
VERTEX
  8
0
  6
CONTINUOUS
 10
3.632640
 20
2.469720
  0
VERTEX
  8
0
  6
CONTINUOUS
 10
3.681920
 20
2.401960
  0
VERTEX
  8
0
  6
CONTINUOUS
 10
3.720200
 20
2.328040
  0
VERTEX
  8
0
  6
CONTINUOUS
 10
3.747920
 20
2.255000
  0
VERTEX
  8
0
  6
CONTINUOUS
 10
3.761120
 20
2.193400
  0
VERTEX
  8
0
  6
CONTINUOUS
 10
3.759360
 20
2.143240
  0
VERTEX
  8
0
  6
CONTINUOUS
 10
3.742200
 20
2.103200
  0
VERTEX
  8
0
  6
CONTINUOUS
 10
3.709200
 20
2.073280
  0
VERTEX
  8
0
  6
CONTINUOUS
 10
3.660360
 20
2.053480
  0
VERTEX
  8
0
  6
CONTINUOUS
 10
3.594360
 20
2.042480
  0
VERTEX
  8
0
  6
CONTINUOUS
 10
3.511200
 20
2.040280
  0
VERTEX
  8
0
  6
CONTINUOUS
 10
3.040400
 20
2.024000
  0
VERTEX
  8
0
  6
CONTINUOUS
 10
3.040400
 20
1.820280
  0
VERTEX
  8
0
  6
CONTINUOUS
 10
3.036440
 20
1.822920
  0
VERTEX
  8
0
  6
CONTINUOUS
 10
3.036440
 20
2.026640
  0
VERTEX
  8
0
  6
CONTINUOUS
 10
3.036440
 20
1.815000
  0
SEQEND
  8
0
  0
SOLID
  8
0
 62
    15
 10
4.177360
 20
2.828320
 11
4.807000
 21
3.184280
 12
5.896000
 22
2.828320
 13
6.525640
 23
3.184280
  0
POLYLINE
  8
0
  6
CONTINUOUS
 66
     1
 40
0.000000
 41
0.000000
  0
VERTEX
  8
0
  6
CONTINUOUS
 10
4.177360
 20
2.828320
  0
VERTEX
  8
0
  6
CONTINUOUS
 10
4.807000
 20
3.184280
  0
VERTEX
  8
0
  6
CONTINUOUS
 10
6.525640
 20
3.184280
  0
VERTEX
  8
0
  6
CONTINUOUS
 10
5.896000
 20
2.828320
  0
VERTEX
  8
0
  6
CONTINUOUS
 10
4.177360
 20
2.828320
  0
SEQEND
  8
0
  0
SOLID
  8
0
 62
    15
 10
4.220040
 20
2.027080
 11
4.849680
 21
2.383040
 12
4.690400
 22
2.042920
 13
5.320480
 23
2.398880
  0
POLYLINE
  8
0
  6
CONTINUOUS
 66
     1
 40
0.000000
 41
0.000000
  0
VERTEX
  8
0
  6
CONTINUOUS
 10
4.220040
 20
2.027080
  0
VERTEX
  8
0
  6
CONTINUOUS
 10
4.849680
 20
2.383040
  0
VERTEX
  8
0
  6
CONTINUOUS
 10
5.320480
 20
2.398880
  0
VERTEX
  8
0
  6
CONTINUOUS
 10
4.690400
 20
2.042920
  0
VERTEX
  8
0
  6
CONTINUOUS
 10
4.220040
 20
2.027080
  0
SEQEND
  8
0
  0
SOLID
  8
0
 62
    15
 10
4.690400
 20
2.042920
 11
5.320480
 21
2.398880
 12
4.773560
 22
2.045120
 13
5.403640
 23
2.401080
  0
POLYLINE
  8
0
  6
CONTINUOUS
 66
     1
 40
0.000000
 41
0.000000
  0
VERTEX
  8
0
  6
CONTINUOUS
 10
4.690400
 20
2.042920
  0
VERTEX
  8
0
  6
CONTINUOUS
 10
5.320480
 20
2.398880
  0
VERTEX
  8
0
  6
CONTINUOUS
 10
5.403640
 20
2.401080
  0
VERTEX
  8
0
  6
CONTINUOUS
 10
4.773560
 20
2.045120
  0
VERTEX
  8
0
  6
CONTINUOUS
 10
4.690400
 20
2.042920
  0
SEQEND
  8
0
  0
SOLID
  8
0
 62
    15
 10
4.773560
 20
2.045120
 11
5.403640
 21
2.401080
 12
4.839560
 22
2.056120
 13
5.469640
 23
2.412080
  0
POLYLINE
  8
0
  6
CONTINUOUS
 66
     1
 40
0.000000
 41
0.000000
  0
VERTEX
  8
0
  6
CONTINUOUS
 10
4.773560
 20
2.045120
  0
VERTEX
  8
0
  6
CONTINUOUS
 10
5.403640
 20
2.401080
  0
VERTEX
  8
0
  6
CONTINUOUS
 10
5.469640
 20
2.412080
  0
VERTEX
  8
0
  6
CONTINUOUS
 10
4.839560
 20
2.056120
  0
VERTEX
  8
0
  6
CONTINUOUS
 10
4.773560
 20
2.045120
  0
SEQEND
  8
0
  0
SOLID
  8
0
 62
    15
 10
4.839560
 20
2.056120
 11
5.469640
 21
2.412080
 12
4.888840
 22
2.075920
 13
5.518920
 23
2.431880
  0
POLYLINE
  8
0
  6
CONTINUOUS
 66
     1
 40
0.000000
 41
0.000000
  0
VERTEX
  8
0
  6
CONTINUOUS
 10
4.839560
 20
2.056120
  0
VERTEX
  8
0
  6
CONTINUOUS
 10
5.469640
 20
2.412080
  0
VERTEX
  8
0
  6
CONTINUOUS
 10
5.518920
 20
2.431880
  0
VERTEX
  8
0
  6
CONTINUOUS
 10
4.888840
 20
2.075920
  0
VERTEX
  8
0
  6
CONTINUOUS
 10
4.839560
 20
2.056120
  0
SEQEND
  8
0
  0
SOLID
  8
0
 62
     7
 10
4.215640
 20
2.029280
 11
4.845720
 21
2.385240
 12
4.220040
 22
2.027080
 13
4.849680
 23
2.383040
  0
POLYLINE
  8
0
  6
CONTINUOUS
 66
     1
 40
0.000000
 41
0.000000
  0
VERTEX
  8
0
  6
CONTINUOUS
 10
4.215640
 20
2.029280
  0
VERTEX
  8
0
  6
CONTINUOUS
 10
4.845720
 20
2.385240
  0
VERTEX
  8
0
  6
CONTINUOUS
 10
4.849680
 20
2.383040
  0
VERTEX
  8
0
  6
CONTINUOUS
 10
4.220040
 20
2.027080
  0
VERTEX
  8
0
  6
CONTINUOUS
 10
4.215640
 20
2.029280
  0
SEQEND
  8
0
  0
SOLID
  8
0
 62
    15
 10
5.896000
 20
2.828320
 11
6.525640
 21
3.184280
 12
5.896000
 22
1.014640
 13
6.525640
 23
1.370600
  0
POLYLINE
  8
0
  6
CONTINUOUS
 66
     1
 40
0.000000
 41
0.000000
  0
VERTEX
  8
0
  6
CONTINUOUS
 10
5.896000
 20
2.828320
  0
VERTEX
  8
0
  6
CONTINUOUS
 10
6.525640
 20
3.184280
  0
VERTEX
  8
0
  6
CONTINUOUS
 10
6.525640
 20
1.370600
  0
VERTEX
  8
0
  6
CONTINUOUS
 10
5.896000
 20
1.014640
  0
VERTEX
  8
0
  6
CONTINUOUS
 10
5.896000
 20
2.828320
  0
SEQEND
  8
0
  0
SOLID
  8
0
 62
    15
 10
4.174280
 20
1.158960
 11
4.804360
 21
1.514920
 12
4.329600
 22
1.165560
 13
4.959680
 23
1.521520
  0
POLYLINE
  8
0
  6
CONTINUOUS
 66
     1
 40
0.000000
 41
0.000000
  0
VERTEX
  8
0
  6
CONTINUOUS
 10
4.174280
 20
1.158960
  0
VERTEX
  8
0
  6
CONTINUOUS
 10
4.804360
 20
1.514920
  0
VERTEX
  8
0
  6
CONTINUOUS
 10
4.959680
 20
1.521520
  0
VERTEX
  8
0
  6
CONTINUOUS
 10
4.329600
 20
1.165560
  0
VERTEX
  8
0
  6
CONTINUOUS
 10
4.174280
 20
1.158960
  0
SEQEND
  8
0
  0
SOLID
  8
0
 62
    15
 10
4.329600
 20
1.165560
 11
4.959680
 21
1.521520
 12
4.462480
 22
1.185360
 13
5.092560
 23
1.541760
  0
POLYLINE
  8
0
  6
CONTINUOUS
 66
     1
 40
0.000000
 41
0.000000
  0
VERTEX
  8
0
  6
CONTINUOUS
 10
4.329600
 20
1.165560
  0
VERTEX
  8
0
  6
CONTINUOUS
 10
4.959680
 20
1.521520
  0
VERTEX
  8
0
  6
CONTINUOUS
 10
5.092560
 20
1.541760
  0
VERTEX
  8
0
  6
CONTINUOUS
 10
4.462480
 20
1.185360
  0
VERTEX
  8
0
  6
CONTINUOUS
 10
4.329600
 20
1.165560
  0
SEQEND
  8
0
  0
SOLID
  8
0
 62
    15
 10
4.462480
 20
1.185360
 11
5.092560
 21
1.541760
 12
4.574680
 22
1.217480
 13
5.204760
 23
1.573440
  0
POLYLINE
  8
0
  6
CONTINUOUS
 66
     1
 40
0.000000
 41
0.000000
  0
VERTEX
  8
0
  6
CONTINUOUS
 10
4.462480
 20
1.185360
  0
VERTEX
  8
0
  6
CONTINUOUS
 10
5.092560
 20
1.541760
  0
VERTEX
  8
0
  6
CONTINUOUS
 10
5.204760
 20
1.573440
  0
VERTEX
  8
0
  6
CONTINUOUS
 10
4.574680
 20
1.217480
  0
VERTEX
  8
0
  6
CONTINUOUS
 10
4.462480
 20
1.185360
  0
SEQEND
  8
0
  0
SOLID
  8
0
 62
    15
 10
4.574680
 20
1.217480
 11
5.204760
 21
1.573440
 12
4.668840
 22
1.259720
 13
5.298480
 23
1.615680
  0
POLYLINE
  8
0
  6
CONTINUOUS
 66
     1
 40
0.000000
 41
0.000000
  0
VERTEX
  8
0
  6
CONTINUOUS
 10
4.574680
 20
1.217480
  0
VERTEX
  8
0
  6
CONTINUOUS
 10
5.204760
 20
1.573440
  0
VERTEX
  8
0
  6
CONTINUOUS
 10
5.298480
 20
1.615680
  0
VERTEX
  8
0
  6
CONTINUOUS
 10
4.668840
 20
1.259720
  0
VERTEX
  8
0
  6
CONTINUOUS
 10
4.574680
 20
1.217480
  0
SEQEND
  8
0
  0
POLYLINE
  8
0
  6
CONTINUOUS
 66
     1
 40
0.000000
 41
0.000000
  0
VERTEX
  8
0
  6
CONTINUOUS
 10
4.215640
 20
1.825560
  0
VERTEX
  8
0
  6
CONTINUOUS
 10
4.215640
 20
2.029280
  0
VERTEX
  8
0
  6
CONTINUOUS
 10
4.220040
 20
2.027080
  0
VERTEX
  8
0
  6
CONTINUOUS
 10
4.690400
 20
2.042920
  0
VERTEX
  8
0
  6
CONTINUOUS
 10
4.773560
 20
2.045120
  0
VERTEX
  8
0
  6
CONTINUOUS
 10
4.839560
 20
2.056120
  0
VERTEX
  8
0
  6
CONTINUOUS
 10
4.888840
 20
2.075920
  0
VERTEX
  8
0
  6
CONTINUOUS
 10
4.921840
 20
2.105840
  0
VERTEX
  8
0
  6
CONTINUOUS
 10
4.938560
 20
2.145880
  0
VERTEX
  8
0
  6
CONTINUOUS
 10
4.940320
 20
2.196040
  0
VERTEX
  8
0
  6
CONTINUOUS
 10
4.927120
 20
2.257640
  0
VERTEX
  8
0
  6
CONTINUOUS
 10
4.899840
 20
2.330680
  0
VERTEX
  8
0
  6
CONTINUOUS
 10
4.861560
 20
2.404600
  0
VERTEX
  8
0
  6
CONTINUOUS
 10
4.811840
 20
2.472360
  0
VERTEX
  8
0
  6
CONTINUOUS
 10
4.749800
 20
2.532640
  0
VERTEX
  8
0
  6
CONTINUOUS
 10
4.672800
 20
2.584560
  0
VERTEX
  8
0
  6
CONTINUOUS
 10
4.578640
 20
2.627240
  0
VERTEX
  8
0
  6
CONTINUOUS
 10
4.466440
 20
2.658920
  0
VERTEX
  8
0
  6
CONTINUOUS
 10
4.333560
 20
2.678720
  0
VERTEX
  8
0
  6
CONTINUOUS
 10
4.178680
 20
2.685320
  0
VERTEX
  8
0
  6
CONTINUOUS
 10
4.178680
 20
2.827000
  0
VERTEX
  8
0
  6
CONTINUOUS
 10
4.177360
 20
2.828320
  0
VERTEX
  8
0
  6
CONTINUOUS
 10
5.896000
 20
2.828320
  0
VERTEX
  8
0
  6
CONTINUOUS
 10
5.896000
 20
1.014640
  0
VERTEX
  8
0
  6
CONTINUOUS
 10
4.177360
 20
1.014640
  0
VERTEX
  8
0
  6
CONTINUOUS
 10
4.174280
 20
1.017720
  0
VERTEX
  8
0
  6
CONTINUOUS
 10
4.174280
 20
1.158960
  0
VERTEX
  8
0
  6
CONTINUOUS
 10
4.329600
 20
1.165560
  0
VERTEX
  8
0
  6
CONTINUOUS
 10
4.462480
 20
1.185360
  0
VERTEX
  8
0
  6
CONTINUOUS
 10
4.574680
 20
1.217480
  0
VERTEX
  8
0
  6
CONTINUOUS
 10
4.668840
 20
1.259720
  0
VERTEX
  8
0
  6
CONTINUOUS
 10
4.745840
 20
1.311640
  0
VERTEX
  8
0
  6
CONTINUOUS
 10
4.807880
 20
1.371920
  0
VERTEX
  8
0
  6
CONTINUOUS
 10
4.857600
 20
1.439680
  0
VERTEX
  8
0
  6
CONTINUOUS
 10
4.895880
 20
1.513600
  0
VERTEX
  8
0
  6
CONTINUOUS
 10
4.923160
 20
1.586640
  0
VERTEX
  8
0
  6
CONTINUOUS
 10
4.936360
 20
1.648240
  0
VERTEX
  8
0
  6
CONTINUOUS
 10
4.934600
 20
1.698400
  0
VERTEX
  8
0
  6
CONTINUOUS
 10
4.917440
 20
1.738440
  0
VERTEX
  8
0
  6
CONTINUOUS
 10
4.884880
 20
1.768360
  0
VERTEX
  8
0
  6
CONTINUOUS
 10
4.835600
 20
1.788160
  0
VERTEX
  8
0
  6
CONTINUOUS
 10
4.769600
 20
1.799160
  0
VERTEX
  8
0
  6
CONTINUOUS
 10
4.686440
 20
1.801360
  0
VERTEX
  8
0
  6
CONTINUOUS
 10
4.216080
 20
1.817640
  0
VERTEX
  8
0
  6
CONTINUOUS
 10
4.215640
 20
1.825560
  0
SEQEND
  8
0
  0
TEXT
  8
0
 10
3.697760
 20
0.741400
 40
0.138041
  1
BA  93A&B
 41
1.000000
  7
SN0
 71
     0
 72
     5
 11
4.528869
 21
0.741400
  0
TEXT
  8
0
 10
3.802480
 20
0.550000
 40
0.138041
  1
1-13/16"
 41
1.000000
  7
SN0
 71
     0
 72
     5
 11
4.423926
 21
0.550000
  0
ENDSEC
  0
EOF
