  0
SECTION
  2
HEADER
  9
$ACADVER
  1
AC1006
  9
$EXTMIN
 10
2.871440
 20
1.419440
  9
$EXTMAX
 10
5.235560
 20
4.360400
  9
$LTSCALE
 40
0.044000
  9
$PDMODE
 70
    35
  9
$PDSIZE
 40
0.035200
  0
ENDSEC
  0
SECTION
  2
TABLES
  0
TABLE
  2
LTYPE
 70
     9
  0
LTYPE
  2
CONTINUOUS
 70
    64
  3
Solid line
 72
    65
 73
     0
 40
0.000000
  0
LTYPE
  2
DASHED
 70
    64
  3
__ __ __ __ __ __ __ __ __ __ __ __ __ __ __
 72
    65
 73
     2
 40
0.000330
 49
0.000220
 49
-0.000110
  0
LTYPE
  2
HIDDEN
 70
    64
  3
 _ _ _ _ _ _ _ _ _ _ _ _ _ _ _ _ _ _ _ _ _ _
 72
    65
 73
     2
 40
0.000165
 49
0.000110
 49
-0.000055
  0
LTYPE
  2
CENTER
 70
    64
  3
____ _ ____ _ ____ _ ____ _ ____ _ ____ _ ____
 72
    65
 73
     4
 40
0.000880
 49
0.000550
 49
-0.000110
 49
0.000110
 49
-0.000110
  0
LTYPE
  2
PHANTOM
 70
    64
  3
_____ _ _ _____ _ _ _____ _ _ _____ _ _ ____
 72
    65
 73
     6
 40
0.001100
 49
0.000550
 49
-0.000110
 49
0.000110
 49
-0.000110
 49
0.000110
 49
-0.000110
  0
LTYPE
  2
DOT
 70
    64
  3
...............................................
 72
    65
 73
     2
 40
0.000110
 49
0.000000
 49
-0.000110
  0
LTYPE
  2
DASHDOT
 70
    64
  3
__ . __ . __ . __ . __ . __ . __ . __ . __ . __
 72
    65
 73
     4
 40
0.000440
 49
0.000220
 49
-0.000110
 49
0.000000
 49
-0.000110
  0
LTYPE
  2
BORDER
 70
    64
  3
__ __ . __ __ . __ __ . __ __ . __ __ . __ __
 72
    65
 73
     6
 40
0.000770
 49
0.000220
 49
-0.000110
 49
0.000220
 49
-0.000110
 49
0.000000
 49
-0.000110
  0
LTYPE
  2
DIVIDE
 70
    64
  3
__ . . __ . . __ . . __ . . __ . . __ . . __
 72
    65
 73
     6
 40
0.000550
 49
0.000220
 49
-0.000110
 49
0.000000
 49
-0.000110
 49
0.000000
 49
-0.000110
  0
LTYPE
  2
DOTDOT
 70
    64
  3
 . .  . .  . .  . .  . .  . . 
 72
    65
 73
     5
 40
0.000242
 49
-0.000110
 49
0.000000
 49
-0.000110
 49
0.000000
 49
-0.000110
  0
ENDTAB
  0
TABLE
  2
STYLE
 70
     2
  0
STYLE
 70
     0
  2
SN0
 40
0.000000
 41
0.000440
 50
0.000000
 71
     0
 42
0.000000
  3
ROMAND
  0
STYLE
 70
    68
  2
SV0
 40
0.000000
 41
0.000440
 50
0.000000
 71
     0
 42
0.000000
  3
ROMAND
  0
ENDTAB
  0
TABLE
  2
LAYER
 70
     3
  0
LAYER
  2
FOREGROUND
 70
    64
 62
     7
  6
CONTINUOUS
  0
LAYER
  2
BACKGROUND
 70
    65
 62
    -7
  6
CONTINUOUS
  0
LAYER
  2
0
 70
    64
 62
     7
  6
CONTINUOUS
  0
ENDTAB
  0
ENDSEC
  0
SECTION
  2
ENTITIES
  0
POLYLINE
  8
FOREGROUND
  6
CONTINUOUS
 66
     1
 40
0.000000
 41
0.000000
  0
VERTEX
  8
FOREGROUND
  6
CONTINUOUS
 10
0.000000
 20
5.779840
  0
VERTEX
  8
FOREGROUND
  6
CONTINUOUS
 10
8.499920
 20
5.779840
  0
VERTEX
  8
FOREGROUND
  6
CONTINUOUS
 10
8.499920
 20
-5.220160
  0
VERTEX
  8
FOREGROUND
  6
CONTINUOUS
 10
0.000000
 20
-5.220160
  0
VERTEX
  8
FOREGROUND
  6
CONTINUOUS
 10
0.000000
 20
5.779840
  0
SEQEND
  8
0
  0
POLYLINE
  8
FOREGROUND
  6
CONTINUOUS
 66
     1
 40
0.000000
 41
0.000000
  0
VERTEX
  8
FOREGROUND
  6
CONTINUOUS
 10
0.000000
 20
5.779840
  0
VERTEX
  8
FOREGROUND
  6
CONTINUOUS
 10
8.499920
 20
5.779840
  0
VERTEX
  8
FOREGROUND
  6
CONTINUOUS
 10
8.499920
 20
-5.220160
  0
VERTEX
  8
FOREGROUND
  6
CONTINUOUS
 10
0.000000
 20
-5.220160
  0
VERTEX
  8
FOREGROUND
  6
CONTINUOUS
 10
0.000000
 20
5.779840
  0
SEQEND
  8
0
  0
POLYLINE
  8
0
  6
CONTINUOUS
 66
     1
 40
0.014080
 41
0.014080
  0
VERTEX
  8
0
  6
CONTINUOUS
 10
3.139840
 20
4.346760
  0
VERTEX
  8
0
  6
CONTINUOUS
 10
3.203200
 20
4.312440
  0
VERTEX
  8
0
  6
CONTINUOUS
 10
3.264360
 20
4.284720
  0
VERTEX
  8
0
  6
CONTINUOUS
 10
3.323760
 20
4.262280
  0
VERTEX
  8
0
  6
CONTINUOUS
 10
3.381400
 20
4.244680
  0
VERTEX
  8
0
  6
CONTINUOUS
 10
3.436840
 20
4.232360
  0
VERTEX
  8
0
  6
CONTINUOUS
 10
3.490960
 20
4.224000
  0
VERTEX
  8
0
  6
CONTINUOUS
 10
3.543760
 20
4.220040
  0
VERTEX
  8
0
  6
CONTINUOUS
 10
3.595240
 20
4.219160
  0
VERTEX
  8
0
  6
CONTINUOUS
 10
3.645400
 20
4.221800
  0
VERTEX
  8
0
  6
CONTINUOUS
 10
3.694240
 20
4.227080
  0
VERTEX
  8
0
  6
CONTINUOUS
 10
3.742200
 20
4.234560
  0
VERTEX
  8
0
  6
CONTINUOUS
 10
3.835480
 20
4.254360
  0
VERTEX
  8
0
  6
CONTINUOUS
 10
4.059000
 20
4.316400
  0
VERTEX
  8
0
  6
CONTINUOUS
 10
4.146560
 20
4.337080
  0
VERTEX
  8
0
  6
CONTINUOUS
 10
4.191000
 20
4.344560
  0
VERTEX
  8
0
  6
CONTINUOUS
 10
4.235440
 20
4.350280
  0
VERTEX
  8
0
  6
CONTINUOUS
 10
4.280320
 20
4.352920
  0
VERTEX
  8
0
  6
CONTINUOUS
 10
4.302760
 20
4.353360
  0
VERTEX
  8
0
  6
CONTINUOUS
 10
4.348520
 20
4.351160
  0
VERTEX
  8
0
  6
CONTINUOUS
 10
4.394720
 20
4.345880
  0
VERTEX
  8
0
  6
CONTINUOUS
 10
4.441800
 20
4.335760
  0
VERTEX
  8
0
  6
CONTINUOUS
 10
4.489760
 20
4.321680
  0
VERTEX
  8
0
  6
CONTINUOUS
 10
4.538600
 20
4.302320
  0
VERTEX
  8
0
  6
CONTINUOUS
 10
4.588760
 20
4.278120
  0
VERTEX
  8
0
  6
CONTINUOUS
 10
4.640240
 20
4.247760
  0
VERTEX
  8
0
  6
CONTINUOUS
 10
4.693040
 20
4.211240
  0
VERTEX
  8
0
  6
CONTINUOUS
 10
4.719880
 20
4.190560
  0
VERTEX
  8
0
  6
CONTINUOUS
 10
4.845280
 20
4.306720
  0
VERTEX
  8
0
  6
CONTINUOUS
 10
5.031840
 20
4.126760
  0
VERTEX
  8
0
  6
CONTINUOUS
 10
4.565440
 20
3.662560
  0
VERTEX
  8
0
  6
CONTINUOUS
 10
3.497120
 20
3.662560
  0
VERTEX
  8
0
  6
CONTINUOUS
 10
2.948000
 20
4.227960
  0
VERTEX
  8
0
  6
CONTINUOUS
 10
3.133240
 20
4.346760
  0
VERTEX
  8
0
  6
CONTINUOUS
 10
3.139840
 20
4.346760
  0
SEQEND
  8
0
  0
SOLID
  8
0
 62
    15
 10
3.646280
 20
2.319680
 11
4.270640
 21
1.951840
 12
3.593040
 22
2.247960
 13
4.217400
 23
1.879680
  0
POLYLINE
  8
0
  6
CONTINUOUS
 66
     1
 40
0.000000
 41
0.000000
  0
VERTEX
  8
0
  6
CONTINUOUS
 10
3.646280
 20
2.319680
  0
VERTEX
  8
0
  6
CONTINUOUS
 10
4.270640
 20
1.951840
  0
VERTEX
  8
0
  6
CONTINUOUS
 10
4.217400
 20
1.879680
  0
VERTEX
  8
0
  6
CONTINUOUS
 10
3.593040
 20
2.247960
  0
VERTEX
  8
0
  6
CONTINUOUS
 10
3.646280
 20
2.319680
  0
SEQEND
  8
0
  0
SOLID
  8
0
 62
    15
 10
4.233240
 20
2.980560
 11
4.857600
 21
2.612720
 12
4.122800
 22
2.926440
 13
4.747160
 23
2.558160
  0
POLYLINE
  8
0
  6
CONTINUOUS
 66
     1
 40
0.000000
 41
0.000000
  0
VERTEX
  8
0
  6
CONTINUOUS
 10
4.233240
 20
2.980560
  0
VERTEX
  8
0
  6
CONTINUOUS
 10
4.857600
 20
2.612720
  0
VERTEX
  8
0
  6
CONTINUOUS
 10
4.747160
 20
2.558160
  0
VERTEX
  8
0
  6
CONTINUOUS
 10
4.122800
 20
2.926440
  0
VERTEX
  8
0
  6
CONTINUOUS
 10
4.233240
 20
2.980560
  0
SEQEND
  8
0
  0
SOLID
  8
0
 62
    15
 10
4.122800
 20
2.926440
 11
4.747160
 21
2.558160
 12
4.030400
 22
2.863080
 13
4.654760
 23
2.495240
  0
POLYLINE
  8
0
  6
CONTINUOUS
 66
     1
 40
0.000000
 41
0.000000
  0
VERTEX
  8
0
  6
CONTINUOUS
 10
4.122800
 20
2.926440
  0
VERTEX
  8
0
  6
CONTINUOUS
 10
4.747160
 20
2.558160
  0
VERTEX
  8
0
  6
CONTINUOUS
 10
4.654760
 20
2.495240
  0
VERTEX
  8
0
  6
CONTINUOUS
 10
4.030400
 20
2.863080
  0
VERTEX
  8
0
  6
CONTINUOUS
 10
4.122800
 20
2.926440
  0
SEQEND
  8
0
  0
SOLID
  8
0
 62
    15
 10
4.030400
 20
2.863080
 11
4.654760
 21
2.495240
 12
3.953400
 22
2.793120
 13
4.577760
 23
2.425280
  0
POLYLINE
  8
0
  6
CONTINUOUS
 66
     1
 40
0.000000
 41
0.000000
  0
VERTEX
  8
0
  6
CONTINUOUS
 10
4.030400
 20
2.863080
  0
VERTEX
  8
0
  6
CONTINUOUS
 10
4.654760
 20
2.495240
  0
VERTEX
  8
0
  6
CONTINUOUS
 10
4.577760
 20
2.425280
  0
VERTEX
  8
0
  6
CONTINUOUS
 10
3.953400
 20
2.793120
  0
VERTEX
  8
0
  6
CONTINUOUS
 10
4.030400
 20
2.863080
  0
SEQEND
  8
0
  0
SOLID
  8
0
 62
    15
 10
3.953400
 20
2.793120
 11
4.577760
 21
2.425280
 12
3.888720
 22
2.717880
 13
4.513080
 23
2.349600
  0
POLYLINE
  8
0
  6
CONTINUOUS
 66
     1
 40
0.000000
 41
0.000000
  0
VERTEX
  8
0
  6
CONTINUOUS
 10
3.953400
 20
2.793120
  0
VERTEX
  8
0
  6
CONTINUOUS
 10
4.577760
 20
2.425280
  0
VERTEX
  8
0
  6
CONTINUOUS
 10
4.513080
 20
2.349600
  0
VERTEX
  8
0
  6
CONTINUOUS
 10
3.888720
 20
2.717880
  0
VERTEX
  8
0
  6
CONTINUOUS
 10
3.953400
 20
2.793120
  0
SEQEND
  8
0
  0
SOLID
  8
0
 62
    15
 10
3.888720
 20
2.717880
 11
4.513080
 21
2.349600
 12
3.833720
 22
2.638680
 13
4.458080
 23
2.270840
  0
POLYLINE
  8
0
  6
CONTINUOUS
 66
     1
 40
0.000000
 41
0.000000
  0
VERTEX
  8
0
  6
CONTINUOUS
 10
3.888720
 20
2.717880
  0
VERTEX
  8
0
  6
CONTINUOUS
 10
4.513080
 20
2.349600
  0
VERTEX
  8
0
  6
CONTINUOUS
 10
4.458080
 20
2.270840
  0
VERTEX
  8
0
  6
CONTINUOUS
 10
3.833720
 20
2.638680
  0
VERTEX
  8
0
  6
CONTINUOUS
 10
3.888720
 20
2.717880
  0
SEQEND
  8
0
  0
SOLID
  8
0
 62
    15
 10
3.833720
 20
2.638680
 11
4.458080
 21
2.270840
 12
3.784880
 22
2.557720
 13
4.408800
 23
2.189880
  0
POLYLINE
  8
0
  6
CONTINUOUS
 66
     1
 40
0.000000
 41
0.000000
  0
VERTEX
  8
0
  6
CONTINUOUS
 10
3.833720
 20
2.638680
  0
VERTEX
  8
0
  6
CONTINUOUS
 10
4.458080
 20
2.270840
  0
VERTEX
  8
0
  6
CONTINUOUS
 10
4.408800
 20
2.189880
  0
VERTEX
  8
0
  6
CONTINUOUS
 10
3.784880
 20
2.557720
  0
VERTEX
  8
0
  6
CONTINUOUS
 10
3.833720
 20
2.638680
  0
SEQEND
  8
0
  0
SOLID
  8
0
 62
    15
 10
3.784880
 20
2.557720
 11
4.408800
 21
2.189880
 12
3.761560
 22
2.517240
 13
4.385920
 23
2.148960
  0
POLYLINE
  8
0
  6
CONTINUOUS
 66
     1
 40
0.000000
 41
0.000000
  0
VERTEX
  8
0
  6
CONTINUOUS
 10
3.784880
 20
2.557720
  0
VERTEX
  8
0
  6
CONTINUOUS
 10
4.408800
 20
2.189880
  0
VERTEX
  8
0
  6
CONTINUOUS
 10
4.385920
 20
2.148960
  0
VERTEX
  8
0
  6
CONTINUOUS
 10
3.761560
 20
2.517240
  0
VERTEX
  8
0
  6
CONTINUOUS
 10
3.784880
 20
2.557720
  0
SEQEND
  8
0
  0
SOLID
  8
0
 62
    15
 10
3.761560
 20
2.517240
 11
4.385920
 21
2.148960
 12
3.750560
 22
2.496560
 13
4.374920
 23
2.128720
  0
POLYLINE
  8
0
  6
CONTINUOUS
 66
     1
 40
0.000000
 41
0.000000
  0
VERTEX
  8
0
  6
CONTINUOUS
 10
3.761560
 20
2.517240
  0
VERTEX
  8
0
  6
CONTINUOUS
 10
4.385920
 20
2.148960
  0
VERTEX
  8
0
  6
CONTINUOUS
 10
4.374920
 20
2.128720
  0
VERTEX
  8
0
  6
CONTINUOUS
 10
3.750560
 20
2.496560
  0
VERTEX
  8
0
  6
CONTINUOUS
 10
3.761560
 20
2.517240
  0
SEQEND
  8
0
  0
SOLID
  8
0
 62
    15
 10
3.750560
 20
2.496560
 11
4.374920
 21
2.128720
 12
3.739120
 22
2.476320
 13
4.363480
 23
2.108480
  0
POLYLINE
  8
0
  6
CONTINUOUS
 66
     1
 40
0.000000
 41
0.000000
  0
VERTEX
  8
0
  6
CONTINUOUS
 10
3.750560
 20
2.496560
  0
VERTEX
  8
0
  6
CONTINUOUS
 10
4.374920
 20
2.128720
  0
VERTEX
  8
0
  6
CONTINUOUS
 10
4.363480
 20
2.108480
  0
VERTEX
  8
0
  6
CONTINUOUS
 10
3.739120
 20
2.476320
  0
VERTEX
  8
0
  6
CONTINUOUS
 10
3.750560
 20
2.496560
  0
SEQEND
  8
0
  0
SOLID
  8
0
 62
    15
 10
3.739120
 20
2.476320
 11
4.363480
 21
2.108480
 12
3.646280
 22
2.319680
 13
4.270640
 23
1.951840
  0
POLYLINE
  8
0
  6
CONTINUOUS
 66
     1
 40
0.000000
 41
0.000000
  0
VERTEX
  8
0
  6
CONTINUOUS
 10
3.739120
 20
2.476320
  0
VERTEX
  8
0
  6
CONTINUOUS
 10
4.363480
 20
2.108480
  0
VERTEX
  8
0
  6
CONTINUOUS
 10
4.270640
 20
1.951840
  0
VERTEX
  8
0
  6
CONTINUOUS
 10
3.646280
 20
2.319680
  0
VERTEX
  8
0
  6
CONTINUOUS
 10
3.739120
 20
2.476320
  0
SEQEND
  8
0
  0
SOLID
  8
0
 62
    15
 10
4.365240
 20
3.025000
 11
4.989600
 21
2.656720
 12
4.233240
 22
2.980560
 13
4.857600
 23
2.612720
  0
POLYLINE
  8
0
  6
CONTINUOUS
 66
     1
 40
0.000000
 41
0.000000
  0
VERTEX
  8
0
  6
CONTINUOUS
 10
4.365240
 20
3.025000
  0
VERTEX
  8
0
  6
CONTINUOUS
 10
4.989600
 20
2.656720
  0
VERTEX
  8
0
  6
CONTINUOUS
 10
4.857600
 20
2.612720
  0
VERTEX
  8
0
  6
CONTINUOUS
 10
4.233240
 20
2.980560
  0
VERTEX
  8
0
  6
CONTINUOUS
 10
4.365240
 20
3.025000
  0
SEQEND
  8
0
  0
SOLID
  8
0
 62
    15
 10
3.593040
 20
2.247960
 11
4.217400
 21
1.879680
 12
3.531440
 22
2.182400
 13
4.155800
 23
1.814120
  0
POLYLINE
  8
0
  6
CONTINUOUS
 66
     1
 40
0.000000
 41
0.000000
  0
VERTEX
  8
0
  6
CONTINUOUS
 10
3.593040
 20
2.247960
  0
VERTEX
  8
0
  6
CONTINUOUS
 10
4.217400
 20
1.879680
  0
VERTEX
  8
0
  6
CONTINUOUS
 10
4.155800
 20
1.814120
  0
VERTEX
  8
0
  6
CONTINUOUS
 10
3.531440
 20
2.182400
  0
VERTEX
  8
0
  6
CONTINUOUS
 10
3.593040
 20
2.247960
  0
SEQEND
  8
0
  0
SOLID
  8
0
 62
    15
 10
3.531440
 20
2.182400
 11
4.155800
 21
1.814120
 12
3.457960
 22
2.124760
 13
4.082320
 23
1.756920
  0
POLYLINE
  8
0
  6
CONTINUOUS
 66
     1
 40
0.000000
 41
0.000000
  0
VERTEX
  8
0
  6
CONTINUOUS
 10
3.531440
 20
2.182400
  0
VERTEX
  8
0
  6
CONTINUOUS
 10
4.155800
 20
1.814120
  0
VERTEX
  8
0
  6
CONTINUOUS
 10
4.082320
 20
1.756920
  0
VERTEX
  8
0
  6
CONTINUOUS
 10
3.457960
 20
2.124760
  0
VERTEX
  8
0
  6
CONTINUOUS
 10
3.531440
 20
2.182400
  0
SEQEND
  8
0
  0
SOLID
  8
0
 62
    15
 10
3.457960
 20
2.124760
 11
4.082320
 21
1.756920
 12
3.369520
 22
2.077240
 13
3.993880
 23
1.708960
  0
POLYLINE
  8
0
  6
CONTINUOUS
 66
     1
 40
0.000000
 41
0.000000
  0
VERTEX
  8
0
  6
CONTINUOUS
 10
3.457960
 20
2.124760
  0
VERTEX
  8
0
  6
CONTINUOUS
 10
4.082320
 20
1.756920
  0
VERTEX
  8
0
  6
CONTINUOUS
 10
3.993880
 20
1.708960
  0
VERTEX
  8
0
  6
CONTINUOUS
 10
3.369520
 20
2.077240
  0
VERTEX
  8
0
  6
CONTINUOUS
 10
3.457960
 20
2.124760
  0
SEQEND
  8
0
  0
SOLID
  8
0
 62
    15
 10
3.369520
 20
2.077240
 11
3.993880
 21
1.708960
 12
3.263920
 22
2.041160
 13
3.888280
 23
1.672880
  0
POLYLINE
  8
0
  6
CONTINUOUS
 66
     1
 40
0.000000
 41
0.000000
  0
VERTEX
  8
0
  6
CONTINUOUS
 10
3.369520
 20
2.077240
  0
VERTEX
  8
0
  6
CONTINUOUS
 10
3.993880
 20
1.708960
  0
VERTEX
  8
0
  6
CONTINUOUS
 10
3.888280
 20
1.672880
  0
VERTEX
  8
0
  6
CONTINUOUS
 10
3.263920
 20
2.041160
  0
VERTEX
  8
0
  6
CONTINUOUS
 10
3.369520
 20
2.077240
  0
SEQEND
  8
0
  0
SOLID
  8
0
 62
    15
 10
3.263920
 20
2.041160
 11
3.888280
 21
1.672880
 12
3.203640
 22
2.027520
 13
3.828000
 23
1.659680
  0
POLYLINE
  8
0
  6
CONTINUOUS
 66
     1
 40
0.000000
 41
0.000000
  0
VERTEX
  8
0
  6
CONTINUOUS
 10
3.263920
 20
2.041160
  0
VERTEX
  8
0
  6
CONTINUOUS
 10
3.888280
 20
1.672880
  0
VERTEX
  8
0
  6
CONTINUOUS
 10
3.828000
 20
1.659680
  0
VERTEX
  8
0
  6
CONTINUOUS
 10
3.203640
 20
2.027520
  0
VERTEX
  8
0
  6
CONTINUOUS
 10
3.263920
 20
2.041160
  0
SEQEND
  8
0
  0
SOLID
  8
0
 62
     7
 10
3.137640
 20
2.017840
 11
3.762000
 21
1.650000
 12
3.131040
 22
1.847120
 13
3.755400
 23
1.479280
  0
POLYLINE
  8
0
  6
CONTINUOUS
 66
     1
 40
0.000000
 41
0.000000
  0
VERTEX
  8
0
  6
CONTINUOUS
 10
3.137640
 20
2.017840
  0
VERTEX
  8
0
  6
CONTINUOUS
 10
3.762000
 20
1.650000
  0
VERTEX
  8
0
  6
CONTINUOUS
 10
3.755400
 20
1.479280
  0
VERTEX
  8
0
  6
CONTINUOUS
 10
3.131040
 20
1.847120
  0
VERTEX
  8
0
  6
CONTINUOUS
 10
3.137640
 20
2.017840
  0
SEQEND
  8
0
  0
SOLID
  8
0
 62
    15
 10
3.203640
 20
2.027520
 11
3.828000
 21
1.659680
 12
3.137640
 22
2.017840
 13
3.762000
 23
1.650000
  0
POLYLINE
  8
0
  6
CONTINUOUS
 66
     1
 40
0.000000
 41
0.000000
  0
VERTEX
  8
0
  6
CONTINUOUS
 10
3.203640
 20
2.027520
  0
VERTEX
  8
0
  6
CONTINUOUS
 10
3.828000
 20
1.659680
  0
VERTEX
  8
0
  6
CONTINUOUS
 10
3.762000
 20
1.650000
  0
VERTEX
  8
0
  6
CONTINUOUS
 10
3.137640
 20
2.017840
  0
VERTEX
  8
0
  6
CONTINUOUS
 10
3.203640
 20
2.027520
  0
SEQEND
  8
0
  0
SOLID
  8
0
 62
    15
 10
3.131040
 20
1.847120
 11
3.755400
 21
1.479280
 12
2.871880
 22
1.842720
 13
3.496240
 23
1.474440
  0
POLYLINE
  8
0
  6
CONTINUOUS
 66
     1
 40
0.000000
 41
0.000000
  0
VERTEX
  8
0
  6
CONTINUOUS
 10
3.131040
 20
1.847120
  0
VERTEX
  8
0
  6
CONTINUOUS
 10
3.755400
 20
1.479280
  0
VERTEX
  8
0
  6
CONTINUOUS
 10
3.496240
 20
1.474440
  0
VERTEX
  8
0
  6
CONTINUOUS
 10
2.871880
 20
1.842720
  0
VERTEX
  8
0
  6
CONTINUOUS
 10
3.131040
 20
1.847120
  0
SEQEND
  8
0
  0
SOLID
  8
0
 62
    15
 10
4.417160
 20
3.244560
 11
5.041520
 21
2.876280
 12
4.370080
 22
3.029400
 13
4.994440
 23
2.661560
  0
POLYLINE
  8
0
  6
CONTINUOUS
 66
     1
 40
0.000000
 41
0.000000
  0
VERTEX
  8
0
  6
CONTINUOUS
 10
4.417160
 20
3.244560
  0
VERTEX
  8
0
  6
CONTINUOUS
 10
5.041520
 20
2.876280
  0
VERTEX
  8
0
  6
CONTINUOUS
 10
4.994440
 20
2.661560
  0
VERTEX
  8
0
  6
CONTINUOUS
 10
4.370080
 20
3.029400
  0
VERTEX
  8
0
  6
CONTINUOUS
 10
4.417160
 20
3.244560
  0
SEQEND
  8
0
  0
SOLID
  8
0
 62
    15
 10
4.370080
 20
3.029400
 11
4.994440
 21
2.661560
 12
4.365240
 22
3.025000
 13
4.989600
 23
2.656720
  0
POLYLINE
  8
0
  6
CONTINUOUS
 66
     1
 40
0.000000
 41
0.000000
  0
VERTEX
  8
0
  6
CONTINUOUS
 10
4.370080
 20
3.029400
  0
VERTEX
  8
0
  6
CONTINUOUS
 10
4.994440
 20
2.661560
  0
VERTEX
  8
0
  6
CONTINUOUS
 10
4.989600
 20
2.656720
  0
VERTEX
  8
0
  6
CONTINUOUS
 10
4.365240
 20
3.025000
  0
VERTEX
  8
0
  6
CONTINUOUS
 10
4.370080
 20
3.029400
  0
SEQEND
  8
0
  0
POLYLINE
  8
0
  6
CONTINUOUS
 66
     1
 40
0.000000
 41
0.000000
  0
VERTEX
  8
0
  6
CONTINUOUS
 10
4.365240
 20
3.025000
  0
VERTEX
  8
0
  6
CONTINUOUS
 10
4.233240
 20
2.980560
  0
VERTEX
  8
0
  6
CONTINUOUS
 10
4.122800
 20
2.926440
  0
VERTEX
  8
0
  6
CONTINUOUS
 10
4.030400
 20
2.863080
  0
VERTEX
  8
0
  6
CONTINUOUS
 10
3.953400
 20
2.793120
  0
VERTEX
  8
0
  6
CONTINUOUS
 10
3.888720
 20
2.717880
  0
VERTEX
  8
0
  6
CONTINUOUS
 10
3.833720
 20
2.638680
  0
VERTEX
  8
0
  6
CONTINUOUS
 10
3.784880
 20
2.557720
  0
VERTEX
  8
0
  6
CONTINUOUS
 10
3.761560
 20
2.517240
  0
VERTEX
  8
0
  6
CONTINUOUS
 10
3.750560
 20
2.496560
  0
VERTEX
  8
0
  6
CONTINUOUS
 10
3.739120
 20
2.476320
  0
VERTEX
  8
0
  6
CONTINUOUS
 10
3.646280
 20
2.319680
  0
VERTEX
  8
0
  6
CONTINUOUS
 10
3.593040
 20
2.247960
  0
VERTEX
  8
0
  6
CONTINUOUS
 10
3.531440
 20
2.182400
  0
VERTEX
  8
0
  6
CONTINUOUS
 10
3.457960
 20
2.124760
  0
VERTEX
  8
0
  6
CONTINUOUS
 10
3.369520
 20
2.077240
  0
VERTEX
  8
0
  6
CONTINUOUS
 10
3.263920
 20
2.041160
  0
VERTEX
  8
0
  6
CONTINUOUS
 10
3.203640
 20
2.027520
  0
VERTEX
  8
0
  6
CONTINUOUS
 10
3.137640
 20
2.017840
  0
VERTEX
  8
0
  6
CONTINUOUS
 10
3.131040
 20
1.847120
  0
VERTEX
  8
0
  6
CONTINUOUS
 10
2.871880
 20
1.842720
  0
VERTEX
  8
0
  6
CONTINUOUS
 10
2.873640
 20
2.500520
  0
VERTEX
  8
0
  6
CONTINUOUS
 10
3.626920
 20
3.253800
  0
VERTEX
  8
0
  6
CONTINUOUS
 10
3.629120
 20
3.256000
  0
VERTEX
  8
0
  6
CONTINUOUS
 10
4.417160
 20
3.244560
  0
VERTEX
  8
0
  6
CONTINUOUS
 10
4.370080
 20
3.029400
  0
VERTEX
  8
0
  6
CONTINUOUS
 10
4.365240
 20
3.025000
  0
SEQEND
  8
0
  0
TEXT
  8
0
 10
4.278120
 20
1.654400
 40
0.138169
  1
BA  90
 41
1.000000
  7
SN0
 71
     0
 72
     5
 11
4.776613
 21
1.654400
  0
TEXT
  8
0
 10
3.937560
 20
1.462560
 40
0.138169
  1
11/16" x 2-1/16"
 41
1.000000
  7
SN0
 71
     0
 72
     5
 11
5.116444
 21
1.462560
  0
ENDSEC
  0
EOF
