  0
SECTION
  2
HEADER
  9
$ACADVER
  1
AC1006
  9
$EXTMIN
 10
2.189273
 20
1.875098
  9
$EXTMAX
 10
20.724727
 20
7.281549
  9
$LTSCALE
 40
0.082896
  9
$PDMODE
 70
    35
  9
$PDSIZE
 40
0.066316
  0
ENDSEC
  0
SECTION
  2
TABLES
  0
TABLE
  2
LTYPE
 70
     9
  0
LTYPE
  2
CONTINUOUS
 70
    64
  3
Solid line
 72
    65
 73
     0
 40
0.000000
  0
LTYPE
  2
DASHED
 70
    64
  3
__ __ __ __ __ __ __ __ __ __ __ __ __ __ __
 72
    65
 73
     2
 40
0.000622
 49
0.000414
 49
-0.000207
  0
LTYPE
  2
HIDDEN
 70
    64
  3
 _ _ _ _ _ _ _ _ _ _ _ _ _ _ _ _ _ _ _ _ _ _
 72
    65
 73
     2
 40
0.000311
 49
0.000207
 49
-0.000104
  0
LTYPE
  2
CENTER
 70
    64
  3
____ _ ____ _ ____ _ ____ _ ____ _ ____ _ ____
 72
    65
 73
     4
 40
0.001658
 49
0.001036
 49
-0.000207
 49
0.000207
 49
-0.000207
  0
LTYPE
  2
PHANTOM
 70
    64
  3
_____ _ _ _____ _ _ _____ _ _ _____ _ _ ____
 72
    65
 73
     6
 40
0.002072
 49
0.001036
 49
-0.000207
 49
0.000207
 49
-0.000207
 49
0.000207
 49
-0.000207
  0
LTYPE
  2
DOT
 70
    64
  3
...............................................
 72
    65
 73
     2
 40
0.000207
 49
0.000000
 49
-0.000207
  0
LTYPE
  2
DASHDOT
 70
    64
  3
__ . __ . __ . __ . __ . __ . __ . __ . __ . __
 72
    65
 73
     4
 40
0.000829
 49
0.000414
 49
-0.000207
 49
0.000000
 49
-0.000207
  0
LTYPE
  2
BORDER
 70
    64
  3
__ __ . __ __ . __ __ . __ __ . __ __ . __ __
 72
    65
 73
     6
 40
0.001451
 49
0.000414
 49
-0.000207
 49
0.000414
 49
-0.000207
 49
0.000000
 49
-0.000207
  0
LTYPE
  2
DIVIDE
 70
    64
  3
__ . . __ . . __ . . __ . . __ . . __ . . __
 72
    65
 73
     6
 40
0.001036
 49
0.000414
 49
-0.000207
 49
0.000000
 49
-0.000207
 49
0.000000
 49
-0.000207
  0
LTYPE
  2
DOTDOT
 70
    64
  3
 . .  . .  . .  . .  . .  . . 
 72
    65
 73
     5
 40
0.000456
 49
-0.000207
 49
0.000000
 49
-0.000207
 49
0.000000
 49
-0.000207
  0
ENDTAB
  0
TABLE
  2
STYLE
 70
     4
  0
STYLE
 70
     0
  2
SN0
 40
0.000000
 41
0.000829
 50
0.000000
 71
     0
 42
0.000000
  3
ROMAND
  0
STYLE
 70
    68
  2
SV0
 40
0.000000
 41
0.000829
 50
0.000000
 71
     0
 42
0.000000
  3
ROMAND
  0
STYLE
 70
     0
  2
SN1
 40
0.000000
 41
0.000829
 50
0.000000
 71
     0
 42
0.000000
  3
ROMAND
  0
STYLE
 70
    68
  2
SV1
 40
0.000000
 41
0.000829
 50
0.000000
 71
     0
 42
0.000000
  3
ROMAND
  0
ENDTAB
  0
TABLE
  2
LAYER
 70
     3
  0
LAYER
  2
FOREGROUND
 70
    64
 62
     7
  6
CONTINUOUS
  0
LAYER
  2
BACKGROUND
 70
    65
 62
    -7
  6
CONTINUOUS
  0
LAYER
  2
0
 70
    64
 62
     7
  6
CONTINUOUS
  0
ENDTAB
  0
ENDSEC
  0
SECTION
  2
ENTITIES
  0
POLYLINE
  8
FOREGROUND
  6
CONTINUOUS
 66
     1
 40
0.000000
 41
0.000000
  0
VERTEX
  8
FOREGROUND
  6
CONTINUOUS
 10
0.000000
 20
9.156647
  0
VERTEX
  8
FOREGROUND
  6
CONTINUOUS
 10
8.500114
 20
9.156647
  0
VERTEX
  8
FOREGROUND
  6
CONTINUOUS
 10
8.500114
 20
-1.843598
  0
VERTEX
  8
FOREGROUND
  6
CONTINUOUS
 10
0.000000
 20
-1.843598
  0
VERTEX
  8
FOREGROUND
  6
CONTINUOUS
 10
0.000000
 20
9.156647
  0
SEQEND
  8
0
  0
POLYLINE
  8
FOREGROUND
  6
CONTINUOUS
 66
     1
 40
0.000000
 41
0.000000
  0
VERTEX
  8
FOREGROUND
  6
CONTINUOUS
 10
0.000000
 20
9.156647
  0
VERTEX
  8
FOREGROUND
  6
CONTINUOUS
 10
8.500114
 20
9.156647
  0
VERTEX
  8
FOREGROUND
  6
CONTINUOUS
 10
8.500114
 20
-1.843598
  0
VERTEX
  8
FOREGROUND
  6
CONTINUOUS
 10
0.000000
 20
-1.843598
  0
VERTEX
  8
FOREGROUND
  6
CONTINUOUS
 10
0.000000
 20
9.156647
  0
SEQEND
  8
0
  0
POLYLINE
  8
0
  6
CONTINUOUS
 66
     1
 40
0.014092
 41
0.014092
  0
VERTEX
  8
0
  6
CONTINUOUS
 10
2.204194
 20
7.273259
  0
VERTEX
  8
0
  6
CONTINUOUS
 10
2.936162
 20
7.273259
  0
VERTEX
  8
0
  6
CONTINUOUS
 10
2.936162
 20
7.214403
  0
VERTEX
  8
0
  6
CONTINUOUS
 10
2.936162
 20
7.216061
  0
VERTEX
  8
0
  6
CONTINUOUS
 10
2.936162
 20
7.206943
  0
VERTEX
  8
0
  6
CONTINUOUS
 10
3.004136
 20
7.206114
  0
VERTEX
  8
0
  6
CONTINUOUS
 10
3.058018
 20
7.198653
  0
VERTEX
  8
0
  6
CONTINUOUS
 10
3.087861
 20
7.189535
  0
VERTEX
  8
0
  6
CONTINUOUS
 10
3.135111
 20
7.167153
  0
VERTEX
  8
0
  6
CONTINUOUS
 10
3.170756
 20
7.138968
  0
VERTEX
  8
0
  6
CONTINUOUS
 10
3.233757
 20
7.080941
  0
VERTEX
  8
0
  6
CONTINUOUS
 10
3.272718
 20
7.058560
  0
VERTEX
  8
0
  6
CONTINUOUS
 10
3.310021
 20
7.046954
  0
VERTEX
  8
0
  6
CONTINUOUS
 10
3.328258
 20
7.043638
  0
VERTEX
  8
0
  6
CONTINUOUS
 10
3.467523
 20
7.042809
  0
VERTEX
  8
0
  6
CONTINUOUS
 10
3.467523
 20
6.969032
  0
VERTEX
  8
0
  6
CONTINUOUS
 10
3.799934
 20
6.969861
  0
VERTEX
  8
0
  6
CONTINUOUS
 10
3.814026
 20
6.964888
  0
VERTEX
  8
0
  6
CONTINUOUS
 10
3.825632
 20
6.946650
  0
VERTEX
  8
0
  6
CONTINUOUS
 10
3.842211
 20
6.902716
  0
VERTEX
  8
0
  6
CONTINUOUS
 10
3.852987
 20
6.892768
  0
VERTEX
  8
0
  6
CONTINUOUS
 10
3.869566
 20
6.889453
  0
VERTEX
  8
0
  6
CONTINUOUS
 10
4.109963
 20
6.890281
  0
VERTEX
  8
0
  6
CONTINUOUS
 10
4.123227
 20
6.896913
  0
VERTEX
  8
0
  6
CONTINUOUS
 10
4.134832
 20
6.915979
  0
VERTEX
  8
0
  6
CONTINUOUS
 10
4.151411
 20
6.959914
  0
VERTEX
  8
0
  6
CONTINUOUS
 10
4.163017
 20
6.968203
  0
VERTEX
  8
0
  6
CONTINUOUS
 10
4.179596
 20
6.969032
  0
VERTEX
  8
0
  6
CONTINUOUS
 10
4.254202
 20
6.969032
  0
VERTEX
  8
0
  6
CONTINUOUS
 10
4.252544
 20
6.969032
  0
VERTEX
  8
0
  6
CONTINUOUS
 10
4.261662
 20
6.969861
  0
VERTEX
  8
0
  6
CONTINUOUS
 10
4.275755
 20
6.964888
  0
VERTEX
  8
0
  6
CONTINUOUS
 10
4.287360
 20
6.946650
  0
VERTEX
  8
0
  6
CONTINUOUS
 10
4.303939
 20
6.902716
  0
VERTEX
  8
0
  6
CONTINUOUS
 10
4.314715
 20
6.892768
  0
VERTEX
  8
0
  6
CONTINUOUS
 10
4.331295
 20
6.889453
  0
VERTEX
  8
0
  6
CONTINUOUS
 10
4.597389
 20
6.890281
  0
VERTEX
  8
0
  6
CONTINUOUS
 10
4.610653
 20
6.896913
  0
VERTEX
  8
0
  6
CONTINUOUS
 10
4.622258
 20
6.915979
  0
VERTEX
  8
0
  6
CONTINUOUS
 10
4.638837
 20
6.959914
  0
VERTEX
  8
0
  6
CONTINUOUS
 10
4.650443
 20
6.968203
  0
VERTEX
  8
0
  6
CONTINUOUS
 10
4.667022
 20
6.969032
  0
VERTEX
  8
0
  6
CONTINUOUS
 10
4.750746
 20
6.969861
  0
VERTEX
  8
0
  6
CONTINUOUS
 10
4.764839
 20
6.964888
  0
VERTEX
  8
0
  6
CONTINUOUS
 10
4.776444
 20
6.946650
  0
VERTEX
  8
0
  6
CONTINUOUS
 10
4.793023
 20
6.902716
  0
VERTEX
  8
0
  6
CONTINUOUS
 10
4.803799
 20
6.892768
  0
VERTEX
  8
0
  6
CONTINUOUS
 10
4.820379
 20
6.889453
  0
VERTEX
  8
0
  6
CONTINUOUS
 10
4.831155
 20
6.889453
  0
VERTEX
  8
0
  6
CONTINUOUS
 10
4.829497
 20
6.889453
  0
VERTEX
  8
0
  6
CONTINUOUS
 10
5.059947
 20
6.890281
  0
VERTEX
  8
0
  6
CONTINUOUS
 10
5.073210
 20
6.896913
  0
VERTEX
  8
0
  6
CONTINUOUS
 10
5.084816
 20
6.915979
  0
VERTEX
  8
0
  6
CONTINUOUS
 10
5.101395
 20
6.959914
  0
VERTEX
  8
0
  6
CONTINUOUS
 10
5.113000
 20
6.968203
  0
VERTEX
  8
0
  6
CONTINUOUS
 10
5.129579
 20
6.969032
  0
VERTEX
  8
0
  6
CONTINUOUS
 10
5.219935
 20
6.969861
  0
VERTEX
  8
0
  6
CONTINUOUS
 10
5.234028
 20
6.964888
  0
VERTEX
  8
0
  6
CONTINUOUS
 10
5.245633
 20
6.946650
  0
VERTEX
  8
0
  6
CONTINUOUS
 10
5.262212
 20
6.902716
  0
VERTEX
  8
0
  6
CONTINUOUS
 10
5.272989
 20
6.892768
  0
VERTEX
  8
0
  6
CONTINUOUS
 10
5.291226
 20
6.889453
  0
VERTEX
  8
0
  6
CONTINUOUS
 10
5.300344
 20
6.889453
  0
VERTEX
  8
0
  6
CONTINUOUS
 10
5.299515
 20
6.889453
  0
VERTEX
  8
0
  6
CONTINUOUS
 10
5.528307
 20
6.890281
  0
VERTEX
  8
0
  6
CONTINUOUS
 10
5.541570
 20
6.896913
  0
VERTEX
  8
0
  6
CONTINUOUS
 10
5.553176
 20
6.915979
  0
VERTEX
  8
0
  6
CONTINUOUS
 10
5.569755
 20
6.959914
  0
VERTEX
  8
0
  6
CONTINUOUS
 10
5.581360
 20
6.968203
  0
VERTEX
  8
0
  6
CONTINUOUS
 10
5.597939
 20
6.969032
  0
VERTEX
  8
0
  6
CONTINUOUS
 10
6.038944
 20
6.969032
  0
VERTEX
  8
0
  6
CONTINUOUS
 10
6.038944
 20
6.877018
  0
VERTEX
  8
0
  6
CONTINUOUS
 10
6.141734
 20
6.876189
  0
VERTEX
  8
0
  6
CONTINUOUS
 10
6.156656
 20
6.803241
  0
VERTEX
  8
0
  6
CONTINUOUS
 10
6.175721
 20
6.741898
  0
VERTEX
  8
0
  6
CONTINUOUS
 10
6.199761
 20
6.692161
  0
VERTEX
  8
0
  6
CONTINUOUS
 10
6.230433
 20
6.652371
  0
VERTEX
  8
0
  6
CONTINUOUS
 10
6.266078
 20
6.622529
  0
VERTEX
  8
0
  6
CONTINUOUS
 10
6.308354
 20
6.599318
  0
VERTEX
  8
0
  6
CONTINUOUS
 10
6.357263
 20
6.584397
  0
VERTEX
  8
0
  6
CONTINUOUS
 10
6.416948
 20
6.574449
  0
VERTEX
  8
0
  6
CONTINUOUS
 10
6.421921
 20
6.614239
  0
VERTEX
  8
0
  6
CONTINUOUS
 10
6.433527
 20
6.644911
  0
VERTEX
  8
0
  6
CONTINUOUS
 10
6.457567
 20
6.673095
  0
VERTEX
  8
0
  6
CONTINUOUS
 10
6.471659
 20
6.682214
  0
VERTEX
  8
0
  6
CONTINUOUS
 10
6.487409
 20
6.687187
  0
VERTEX
  8
0
  6
CONTINUOUS
 10
6.503159
 20
6.688845
  0
VERTEX
  8
0
  6
CONTINUOUS
 10
6.533830
 20
6.680556
  0
VERTEX
  8
0
  6
CONTINUOUS
 10
6.547923
 20
6.671437
  0
VERTEX
  8
0
  6
CONTINUOUS
 10
6.571133
 20
6.643253
  0
VERTEX
  8
0
  6
CONTINUOUS
 10
6.579423
 20
6.623358
  0
VERTEX
  8
0
  6
CONTINUOUS
 10
6.585226
 20
6.600976
  0
VERTEX
  8
0
  6
CONTINUOUS
 10
6.586884
 20
6.574449
  0
VERTEX
  8
0
  6
CONTINUOUS
 10
6.673924
 20
6.574449
  0
VERTEX
  8
0
  6
CONTINUOUS
 10
6.673924
 20
6.431040
  0
VERTEX
  8
0
  6
CONTINUOUS
 10
2.197562
 20
6.431040
  0
VERTEX
  8
0
  6
CONTINUOUS
 10
2.197562
 20
7.273259
  0
VERTEX
  8
0
  6
CONTINUOUS
 10
2.204194
 20
7.273259
  0
SEQEND
  8
0
  0
TEXT
  8
0
 10
20.692397
 20
1.880901
 40
0.011044
  1
B242
 41
1.000000
  7
SN0
 71
     0
 72
     5
 11
20.722981
 21
1.880901
  0
SOLID
  8
0
 62
    15
 10
4.790536
 20
5.049170
 11
4.794681
 21
5.795231
 12
4.801313
 22
5.040052
 13
4.805457
 23
5.785283
  0
POLYLINE
  8
0
  6
CONTINUOUS
 66
     1
 40
0.000000
 41
0.000000
  0
VERTEX
  8
0
  6
CONTINUOUS
 10
4.790536
 20
5.049170
  0
VERTEX
  8
0
  6
CONTINUOUS
 10
4.794681
 20
5.795231
  0
VERTEX
  8
0
  6
CONTINUOUS
 10
4.805457
 20
5.785283
  0
VERTEX
  8
0
  6
CONTINUOUS
 10
4.801313
 20
5.040052
  0
VERTEX
  8
0
  6
CONTINUOUS
 10
4.790536
 20
5.049170
  0
SEQEND
  8
0
  0
SOLID
  8
0
 62
    15
 10
2.933675
 20
5.420543
 11
2.937820
 21
6.165774
 12
2.933675
 22
5.353397
 13
2.937820
 23
6.099458
  0
POLYLINE
  8
0
  6
CONTINUOUS
 66
     1
 40
0.000000
 41
0.000000
  0
VERTEX
  8
0
  6
CONTINUOUS
 10
2.933675
 20
5.420543
  0
VERTEX
  8
0
  6
CONTINUOUS
 10
2.937820
 20
6.165774
  0
VERTEX
  8
0
  6
CONTINUOUS
 10
2.937820
 20
6.099458
  0
VERTEX
  8
0
  6
CONTINUOUS
 10
2.933675
 20
5.353397
  0
VERTEX
  8
0
  6
CONTINUOUS
 10
2.933675
 20
5.420543
  0
SEQEND
  8
0
  0
SOLID
  8
0
 62
    15
 10
2.933675
 20
5.353397
 11
2.937820
 21
6.099458
 12
2.980096
 22
5.354226
 13
2.985070
 23
6.100287
  0
POLYLINE
  8
0
  6
CONTINUOUS
 66
     1
 40
0.000000
 41
0.000000
  0
VERTEX
  8
0
  6
CONTINUOUS
 10
2.933675
 20
5.353397
  0
VERTEX
  8
0
  6
CONTINUOUS
 10
2.937820
 20
6.099458
  0
VERTEX
  8
0
  6
CONTINUOUS
 10
2.985070
 20
6.100287
  0
VERTEX
  8
0
  6
CONTINUOUS
 10
2.980096
 20
5.354226
  0
VERTEX
  8
0
  6
CONTINUOUS
 10
2.933675
 20
5.353397
  0
SEQEND
  8
0
  0
SOLID
  8
0
 62
    15
 10
2.980096
 20
5.354226
 11
2.985070
 21
6.100287
 12
3.020715
 22
5.350910
 13
3.025689
 23
6.096971
  0
POLYLINE
  8
0
  6
CONTINUOUS
 66
     1
 40
0.000000
 41
0.000000
  0
VERTEX
  8
0
  6
CONTINUOUS
 10
2.980096
 20
5.354226
  0
VERTEX
  8
0
  6
CONTINUOUS
 10
2.985070
 20
6.100287
  0
VERTEX
  8
0
  6
CONTINUOUS
 10
3.025689
 20
6.096971
  0
VERTEX
  8
0
  6
CONTINUOUS
 10
3.020715
 20
5.350910
  0
VERTEX
  8
0
  6
CONTINUOUS
 10
2.980096
 20
5.354226
  0
SEQEND
  8
0
  0
SOLID
  8
0
 62
    15
 10
3.020715
 20
5.350910
 11
3.025689
 21
6.096971
 12
3.055531
 22
5.345108
 13
3.059676
 23
6.091168
  0
POLYLINE
  8
0
  6
CONTINUOUS
 66
     1
 40
0.000000
 41
0.000000
  0
VERTEX
  8
0
  6
CONTINUOUS
 10
3.020715
 20
5.350910
  0
VERTEX
  8
0
  6
CONTINUOUS
 10
3.025689
 20
6.096971
  0
VERTEX
  8
0
  6
CONTINUOUS
 10
3.059676
 20
6.091168
  0
VERTEX
  8
0
  6
CONTINUOUS
 10
3.055531
 20
5.345108
  0
VERTEX
  8
0
  6
CONTINUOUS
 10
3.020715
 20
5.350910
  0
SEQEND
  8
0
  0
SOLID
  8
0
 62
    15
 10
3.055531
 20
5.345108
 11
3.059676
 21
6.091168
 12
3.084545
 22
5.336818
 13
3.089519
 23
6.082878
  0
POLYLINE
  8
0
  6
CONTINUOUS
 66
     1
 40
0.000000
 41
0.000000
  0
VERTEX
  8
0
  6
CONTINUOUS
 10
3.055531
 20
5.345108
  0
VERTEX
  8
0
  6
CONTINUOUS
 10
3.059676
 20
6.091168
  0
VERTEX
  8
0
  6
CONTINUOUS
 10
3.089519
 20
6.082878
  0
VERTEX
  8
0
  6
CONTINUOUS
 10
3.084545
 20
5.336818
  0
VERTEX
  8
0
  6
CONTINUOUS
 10
3.055531
 20
5.345108
  0
SEQEND
  8
0
  0
SOLID
  8
0
 62
    15
 10
3.084545
 20
5.336818
 11
3.089519
 21
6.082878
 12
3.110243
 22
5.326042
 13
3.115216
 23
6.072102
  0
POLYLINE
  8
0
  6
CONTINUOUS
 66
     1
 40
0.000000
 41
0.000000
  0
VERTEX
  8
0
  6
CONTINUOUS
 10
3.084545
 20
5.336818
  0
VERTEX
  8
0
  6
CONTINUOUS
 10
3.089519
 20
6.082878
  0
VERTEX
  8
0
  6
CONTINUOUS
 10
3.115216
 20
6.072102
  0
VERTEX
  8
0
  6
CONTINUOUS
 10
3.110243
 20
5.326042
  0
VERTEX
  8
0
  6
CONTINUOUS
 10
3.084545
 20
5.336818
  0
SEQEND
  8
0
  0
SOLID
  8
0
 62
    15
 10
3.110243
 20
5.326042
 11
3.115216
 21
6.072102
 12
3.131795
 22
5.313607
 13
3.136769
 23
6.059668
  0
POLYLINE
  8
0
  6
CONTINUOUS
 66
     1
 40
0.000000
 41
0.000000
  0
VERTEX
  8
0
  6
CONTINUOUS
 10
3.110243
 20
5.326042
  0
VERTEX
  8
0
  6
CONTINUOUS
 10
3.115216
 20
6.072102
  0
VERTEX
  8
0
  6
CONTINUOUS
 10
3.136769
 20
6.059668
  0
VERTEX
  8
0
  6
CONTINUOUS
 10
3.131795
 20
5.313607
  0
VERTEX
  8
0
  6
CONTINUOUS
 10
3.110243
 20
5.326042
  0
SEQEND
  8
0
  0
SOLID
  8
0
 62
    15
 10
3.131795
 20
5.313607
 11
3.136769
 21
6.059668
 12
3.167441
 22
5.286252
 13
3.172414
 23
6.031483
  0
POLYLINE
  8
0
  6
CONTINUOUS
 66
     1
 40
0.000000
 41
0.000000
  0
VERTEX
  8
0
  6
CONTINUOUS
 10
3.131795
 20
5.313607
  0
VERTEX
  8
0
  6
CONTINUOUS
 10
3.136769
 20
6.059668
  0
VERTEX
  8
0
  6
CONTINUOUS
 10
3.172414
 20
6.031483
  0
VERTEX
  8
0
  6
CONTINUOUS
 10
3.167441
 20
5.286252
  0
VERTEX
  8
0
  6
CONTINUOUS
 10
3.131795
 20
5.313607
  0
SEQEND
  8
0
  0
SOLID
  8
0
 62
    15
 10
3.167441
 20
5.286252
 11
3.172414
 21
6.031483
 12
3.230441
 22
5.228225
 13
3.235415
 23
5.974285
  0
POLYLINE
  8
0
  6
CONTINUOUS
 66
     1
 40
0.000000
 41
0.000000
  0
VERTEX
  8
0
  6
CONTINUOUS
 10
3.167441
 20
5.286252
  0
VERTEX
  8
0
  6
CONTINUOUS
 10
3.172414
 20
6.031483
  0
VERTEX
  8
0
  6
CONTINUOUS
 10
3.235415
 20
5.974285
  0
VERTEX
  8
0
  6
CONTINUOUS
 10
3.230441
 20
5.228225
  0
VERTEX
  8
0
  6
CONTINUOUS
 10
3.167441
 20
5.286252
  0
SEQEND
  8
0
  0
SOLID
  8
0
 62
    15
 10
3.230441
 20
5.228225
 11
3.235415
 21
5.974285
 12
3.269402
 22
5.205843
 13
3.274376
 23
5.951074
  0
POLYLINE
  8
0
  6
CONTINUOUS
 66
     1
 40
0.000000
 41
0.000000
  0
VERTEX
  8
0
  6
CONTINUOUS
 10
3.230441
 20
5.228225
  0
VERTEX
  8
0
  6
CONTINUOUS
 10
3.235415
 20
5.974285
  0
VERTEX
  8
0
  6
CONTINUOUS
 10
3.274376
 20
5.951074
  0
VERTEX
  8
0
  6
CONTINUOUS
 10
3.269402
 20
5.205843
  0
VERTEX
  8
0
  6
CONTINUOUS
 10
3.230441
 20
5.228225
  0
SEQEND
  8
0
  0
SOLID
  8
0
 62
    15
 10
3.269402
 20
5.205843
 11
3.274376
 21
5.951074
 12
3.293442
 22
5.196725
 13
3.298416
 23
5.942785
  0
POLYLINE
  8
0
  6
CONTINUOUS
 66
     1
 40
0.000000
 41
0.000000
  0
VERTEX
  8
0
  6
CONTINUOUS
 10
3.269402
 20
5.205843
  0
VERTEX
  8
0
  6
CONTINUOUS
 10
3.274376
 20
5.951074
  0
VERTEX
  8
0
  6
CONTINUOUS
 10
3.298416
 20
5.942785
  0
VERTEX
  8
0
  6
CONTINUOUS
 10
3.293442
 20
5.196725
  0
VERTEX
  8
0
  6
CONTINUOUS
 10
3.269402
 20
5.205843
  0
SEQEND
  8
0
  0
SOLID
  8
0
 62
    15
 10
3.293442
 20
5.196725
 11
3.298416
 21
5.942785
 12
3.321626
 22
5.190922
 13
3.325771
 23
5.936982
  0
POLYLINE
  8
0
  6
CONTINUOUS
 66
     1
 40
0.000000
 41
0.000000
  0
VERTEX
  8
0
  6
CONTINUOUS
 10
3.293442
 20
5.196725
  0
VERTEX
  8
0
  6
CONTINUOUS
 10
3.298416
 20
5.942785
  0
VERTEX
  8
0
  6
CONTINUOUS
 10
3.325771
 20
5.936982
  0
VERTEX
  8
0
  6
CONTINUOUS
 10
3.321626
 20
5.190922
  0
VERTEX
  8
0
  6
CONTINUOUS
 10
3.293442
 20
5.196725
  0
SEQEND
  8
0
  0
SOLID
  8
0
 62
    15
 10
3.321626
 20
5.190922
 11
3.325771
 21
5.936982
 12
3.464207
 22
5.190922
 13
3.468352
 23
5.936982
  0
POLYLINE
  8
0
  6
CONTINUOUS
 66
     1
 40
0.000000
 41
0.000000
  0
VERTEX
  8
0
  6
CONTINUOUS
 10
3.321626
 20
5.190922
  0
VERTEX
  8
0
  6
CONTINUOUS
 10
3.325771
 20
5.936982
  0
VERTEX
  8
0
  6
CONTINUOUS
 10
3.468352
 20
5.936982
  0
VERTEX
  8
0
  6
CONTINUOUS
 10
3.464207
 20
5.190922
  0
VERTEX
  8
0
  6
CONTINUOUS
 10
3.321626
 20
5.190922
  0
SEQEND
  8
0
  0
SOLID
  8
0
 62
    15
 10
3.464207
 20
5.190922
 11
3.468352
 21
5.936982
 12
3.464207
 22
5.116316
 13
3.468352
 23
5.862376
  0
POLYLINE
  8
0
  6
CONTINUOUS
 66
     1
 40
0.000000
 41
0.000000
  0
VERTEX
  8
0
  6
CONTINUOUS
 10
3.464207
 20
5.190922
  0
VERTEX
  8
0
  6
CONTINUOUS
 10
3.468352
 20
5.936982
  0
VERTEX
  8
0
  6
CONTINUOUS
 10
3.468352
 20
5.862376
  0
VERTEX
  8
0
  6
CONTINUOUS
 10
3.464207
 20
5.116316
  0
VERTEX
  8
0
  6
CONTINUOUS
 10
3.464207
 20
5.190922
  0
SEQEND
  8
0
  0
SOLID
  8
0
 62
    15
 10
3.464207
 20
5.116316
 11
3.468352
 21
5.862376
 12
3.788328
 22
5.116316
 13
3.792473
 23
5.862376
  0
POLYLINE
  8
0
  6
CONTINUOUS
 66
     1
 40
0.000000
 41
0.000000
  0
VERTEX
  8
0
  6
CONTINUOUS
 10
3.464207
 20
5.116316
  0
VERTEX
  8
0
  6
CONTINUOUS
 10
3.468352
 20
5.862376
  0
VERTEX
  8
0
  6
CONTINUOUS
 10
3.792473
 20
5.862376
  0
VERTEX
  8
0
  6
CONTINUOUS
 10
3.788328
 20
5.116316
  0
VERTEX
  8
0
  6
CONTINUOUS
 10
3.464207
 20
5.116316
  0
SEQEND
  8
0
  0
SOLID
  8
0
 62
    15
 10
3.788328
 20
5.116316
 11
3.792473
 21
5.862376
 12
3.804908
 22
5.115487
 13
3.809881
 23
5.860718
  0
POLYLINE
  8
0
  6
CONTINUOUS
 66
     1
 40
0.000000
 41
0.000000
  0
VERTEX
  8
0
  6
CONTINUOUS
 10
3.788328
 20
5.116316
  0
VERTEX
  8
0
  6
CONTINUOUS
 10
3.792473
 20
5.862376
  0
VERTEX
  8
0
  6
CONTINUOUS
 10
3.809881
 20
5.860718
  0
VERTEX
  8
0
  6
CONTINUOUS
 10
3.804908
 20
5.115487
  0
VERTEX
  8
0
  6
CONTINUOUS
 10
3.788328
 20
5.116316
  0
SEQEND
  8
0
  0
SOLID
  8
0
 62
    15
 10
3.804908
 20
5.115487
 11
3.809881
 21
5.860718
 12
3.815684
 22
5.107197
 13
3.820658
 23
5.853258
  0
POLYLINE
  8
0
  6
CONTINUOUS
 66
     1
 40
0.000000
 41
0.000000
  0
VERTEX
  8
0
  6
CONTINUOUS
 10
3.804908
 20
5.115487
  0
VERTEX
  8
0
  6
CONTINUOUS
 10
3.809881
 20
5.860718
  0
VERTEX
  8
0
  6
CONTINUOUS
 10
3.820658
 20
5.853258
  0
VERTEX
  8
0
  6
CONTINUOUS
 10
3.815684
 20
5.107197
  0
VERTEX
  8
0
  6
CONTINUOUS
 10
3.804908
 20
5.115487
  0
SEQEND
  8
0
  0
SOLID
  8
0
 62
    15
 10
3.815684
 20
5.107197
 11
3.820658
 21
5.853258
 12
3.828118
 22
5.079013
 13
3.832263
 23
5.825073
  0
POLYLINE
  8
0
  6
CONTINUOUS
 66
     1
 40
0.000000
 41
0.000000
  0
VERTEX
  8
0
  6
CONTINUOUS
 10
3.815684
 20
5.107197
  0
VERTEX
  8
0
  6
CONTINUOUS
 10
3.820658
 20
5.853258
  0
VERTEX
  8
0
  6
CONTINUOUS
 10
3.832263
 20
5.825073
  0
VERTEX
  8
0
  6
CONTINUOUS
 10
3.828118
 20
5.079013
  0
VERTEX
  8
0
  6
CONTINUOUS
 10
3.815684
 20
5.107197
  0
SEQEND
  8
0
  0
SOLID
  8
0
 62
    15
 10
3.828118
 20
5.079013
 11
3.832263
 21
5.825073
 12
3.830605
 22
5.070723
 13
3.834750
 23
5.816784
  0
POLYLINE
  8
0
  6
CONTINUOUS
 66
     1
 40
0.000000
 41
0.000000
  0
VERTEX
  8
0
  6
CONTINUOUS
 10
3.828118
 20
5.079013
  0
VERTEX
  8
0
  6
CONTINUOUS
 10
3.832263
 20
5.825073
  0
VERTEX
  8
0
  6
CONTINUOUS
 10
3.834750
 20
5.816784
  0
VERTEX
  8
0
  6
CONTINUOUS
 10
3.830605
 20
5.070723
  0
VERTEX
  8
0
  6
CONTINUOUS
 10
3.828118
 20
5.079013
  0
SEQEND
  8
0
  0
SOLID
  8
0
 62
    15
 10
3.830605
 20
5.070723
 11
3.834750
 21
5.816784
 12
3.833092
 22
5.063263
 13
3.837237
 23
5.809323
  0
POLYLINE
  8
0
  6
CONTINUOUS
 66
     1
 40
0.000000
 41
0.000000
  0
VERTEX
  8
0
  6
CONTINUOUS
 10
3.830605
 20
5.070723
  0
VERTEX
  8
0
  6
CONTINUOUS
 10
3.834750
 20
5.816784
  0
VERTEX
  8
0
  6
CONTINUOUS
 10
3.837237
 20
5.809323
  0
VERTEX
  8
0
  6
CONTINUOUS
 10
3.833092
 20
5.063263
  0
VERTEX
  8
0
  6
CONTINUOUS
 10
3.830605
 20
5.070723
  0
SEQEND
  8
0
  0
SOLID
  8
0
 62
    15
 10
3.833092
 20
5.063263
 11
3.837237
 21
5.809323
 12
3.839724
 22
5.049170
 13
3.844697
 23
5.795231
  0
POLYLINE
  8
0
  6
CONTINUOUS
 66
     1
 40
0.000000
 41
0.000000
  0
VERTEX
  8
0
  6
CONTINUOUS
 10
3.833092
 20
5.063263
  0
VERTEX
  8
0
  6
CONTINUOUS
 10
3.837237
 20
5.809323
  0
VERTEX
  8
0
  6
CONTINUOUS
 10
3.844697
 20
5.795231
  0
VERTEX
  8
0
  6
CONTINUOUS
 10
3.839724
 20
5.049170
  0
VERTEX
  8
0
  6
CONTINUOUS
 10
3.833092
 20
5.063263
  0
SEQEND
  8
0
  0
SOLID
  8
0
 62
    15
 10
3.839724
 20
5.049170
 11
3.844697
 21
5.795231
 12
3.850500
 22
5.040052
 13
3.854645
 23
5.785283
  0
POLYLINE
  8
0
  6
CONTINUOUS
 66
     1
 40
0.000000
 41
0.000000
  0
VERTEX
  8
0
  6
CONTINUOUS
 10
3.839724
 20
5.049170
  0
VERTEX
  8
0
  6
CONTINUOUS
 10
3.844697
 20
5.795231
  0
VERTEX
  8
0
  6
CONTINUOUS
 10
3.854645
 20
5.785283
  0
VERTEX
  8
0
  6
CONTINUOUS
 10
3.850500
 20
5.040052
  0
VERTEX
  8
0
  6
CONTINUOUS
 10
3.839724
 20
5.049170
  0
SEQEND
  8
0
  0
SOLID
  8
0
 62
    15
 10
3.850500
 20
5.040052
 11
3.854645
 21
5.785283
 12
3.867079
 22
5.036736
 13
3.871224
 23
5.781967
  0
POLYLINE
  8
0
  6
CONTINUOUS
 66
     1
 40
0.000000
 41
0.000000
  0
VERTEX
  8
0
  6
CONTINUOUS
 10
3.850500
 20
5.040052
  0
VERTEX
  8
0
  6
CONTINUOUS
 10
3.854645
 20
5.785283
  0
VERTEX
  8
0
  6
CONTINUOUS
 10
3.871224
 20
5.781967
  0
VERTEX
  8
0
  6
CONTINUOUS
 10
3.867079
 20
5.036736
  0
VERTEX
  8
0
  6
CONTINUOUS
 10
3.850500
 20
5.040052
  0
SEQEND
  8
0
  0
POLYLINE
  8
0
  6
CONTINUOUS
 66
     1
 40
0.000000
 41
0.000000
  0
VERTEX
  8
0
  6
CONTINUOUS
 10
3.867079
 20
5.036736
  0
VERTEX
  8
0
  6
CONTINUOUS
 10
3.871224
 20
5.781967
  0
VERTEX
  8
0
  6
CONTINUOUS
 10
3.867079
 20
5.036736
  0
SEQEND
  8
0
  0
SOLID
  8
0
 62
    15
 10
3.867079
 20
5.036736
 11
3.871224
 21
5.781967
 12
4.097529
 22
5.036736
 13
4.101674
 23
5.781967
  0
POLYLINE
  8
0
  6
CONTINUOUS
 66
     1
 40
0.000000
 41
0.000000
  0
VERTEX
  8
0
  6
CONTINUOUS
 10
3.867079
 20
5.036736
  0
VERTEX
  8
0
  6
CONTINUOUS
 10
3.871224
 20
5.781967
  0
VERTEX
  8
0
  6
CONTINUOUS
 10
4.101674
 20
5.781967
  0
VERTEX
  8
0
  6
CONTINUOUS
 10
4.097529
 20
5.036736
  0
VERTEX
  8
0
  6
CONTINUOUS
 10
3.867079
 20
5.036736
  0
SEQEND
  8
0
  0
SOLID
  8
0
 62
    15
 10
4.097529
 20
5.036736
 11
4.101674
 21
5.781967
 12
4.114108
 22
5.040052
 13
4.118253
 23
5.785283
  0
POLYLINE
  8
0
  6
CONTINUOUS
 66
     1
 40
0.000000
 41
0.000000
  0
VERTEX
  8
0
  6
CONTINUOUS
 10
4.097529
 20
5.036736
  0
VERTEX
  8
0
  6
CONTINUOUS
 10
4.101674
 20
5.781967
  0
VERTEX
  8
0
  6
CONTINUOUS
 10
4.118253
 20
5.785283
  0
VERTEX
  8
0
  6
CONTINUOUS
 10
4.114108
 20
5.040052
  0
VERTEX
  8
0
  6
CONTINUOUS
 10
4.097529
 20
5.036736
  0
SEQEND
  8
0
  0
SOLID
  8
0
 62
    15
 10
4.114108
 20
5.040052
 11
4.118253
 21
5.785283
 12
4.124885
 22
5.049170
 13
4.129029
 23
5.795231
  0
POLYLINE
  8
0
  6
CONTINUOUS
 66
     1
 40
0.000000
 41
0.000000
  0
VERTEX
  8
0
  6
CONTINUOUS
 10
4.114108
 20
5.040052
  0
VERTEX
  8
0
  6
CONTINUOUS
 10
4.118253
 20
5.785283
  0
VERTEX
  8
0
  6
CONTINUOUS
 10
4.129029
 20
5.795231
  0
VERTEX
  8
0
  6
CONTINUOUS
 10
4.124885
 20
5.049170
  0
VERTEX
  8
0
  6
CONTINUOUS
 10
4.114108
 20
5.040052
  0
SEQEND
  8
0
  0
SOLID
  8
0
 62
    15
 10
4.124885
 20
5.049170
 11
4.129029
 21
5.795231
 12
4.131516
 22
5.063263
 13
4.135661
 23
5.809323
  0
POLYLINE
  8
0
  6
CONTINUOUS
 66
     1
 40
0.000000
 41
0.000000
  0
VERTEX
  8
0
  6
CONTINUOUS
 10
4.124885
 20
5.049170
  0
VERTEX
  8
0
  6
CONTINUOUS
 10
4.129029
 20
5.795231
  0
VERTEX
  8
0
  6
CONTINUOUS
 10
4.135661
 20
5.809323
  0
VERTEX
  8
0
  6
CONTINUOUS
 10
4.131516
 20
5.063263
  0
VERTEX
  8
0
  6
CONTINUOUS
 10
4.124885
 20
5.049170
  0
SEQEND
  8
0
  0
SOLID
  8
0
 62
    15
 10
4.131516
 20
5.063263
 11
4.135661
 21
5.809323
 12
4.134003
 22
5.070723
 13
4.138148
 23
5.816784
  0
POLYLINE
  8
0
  6
CONTINUOUS
 66
     1
 40
0.000000
 41
0.000000
  0
VERTEX
  8
0
  6
CONTINUOUS
 10
4.131516
 20
5.063263
  0
VERTEX
  8
0
  6
CONTINUOUS
 10
4.135661
 20
5.809323
  0
VERTEX
  8
0
  6
CONTINUOUS
 10
4.138148
 20
5.816784
  0
VERTEX
  8
0
  6
CONTINUOUS
 10
4.134003
 20
5.070723
  0
VERTEX
  8
0
  6
CONTINUOUS
 10
4.131516
 20
5.063263
  0
SEQEND
  8
0
  0
SOLID
  8
0
 62
    15
 10
4.134003
 20
5.070723
 11
4.138148
 21
5.816784
 12
4.136490
 22
5.079013
 13
4.140635
 23
5.825073
  0
POLYLINE
  8
0
  6
CONTINUOUS
 66
     1
 40
0.000000
 41
0.000000
  0
VERTEX
  8
0
  6
CONTINUOUS
 10
4.134003
 20
5.070723
  0
VERTEX
  8
0
  6
CONTINUOUS
 10
4.138148
 20
5.816784
  0
VERTEX
  8
0
  6
CONTINUOUS
 10
4.140635
 20
5.825073
  0
VERTEX
  8
0
  6
CONTINUOUS
 10
4.136490
 20
5.079013
  0
VERTEX
  8
0
  6
CONTINUOUS
 10
4.134003
 20
5.070723
  0
SEQEND
  8
0
  0
SOLID
  8
0
 62
    15
 10
4.136490
 20
5.079013
 11
4.140635
 21
5.825073
 12
4.148095
 22
5.107197
 13
4.153069
 23
5.853258
  0
POLYLINE
  8
0
  6
CONTINUOUS
 66
     1
 40
0.000000
 41
0.000000
  0
VERTEX
  8
0
  6
CONTINUOUS
 10
4.136490
 20
5.079013
  0
VERTEX
  8
0
  6
CONTINUOUS
 10
4.140635
 20
5.825073
  0
VERTEX
  8
0
  6
CONTINUOUS
 10
4.153069
 20
5.853258
  0
VERTEX
  8
0
  6
CONTINUOUS
 10
4.148095
 20
5.107197
  0
VERTEX
  8
0
  6
CONTINUOUS
 10
4.136490
 20
5.079013
  0
SEQEND
  8
0
  0
SOLID
  8
0
 62
    15
 10
4.148095
 20
5.107197
 11
4.153069
 21
5.853258
 12
4.158872
 22
5.115487
 13
4.163846
 23
5.860718
  0
POLYLINE
  8
0
  6
CONTINUOUS
 66
     1
 40
0.000000
 41
0.000000
  0
VERTEX
  8
0
  6
CONTINUOUS
 10
4.148095
 20
5.107197
  0
VERTEX
  8
0
  6
CONTINUOUS
 10
4.153069
 20
5.853258
  0
VERTEX
  8
0
  6
CONTINUOUS
 10
4.163846
 20
5.860718
  0
VERTEX
  8
0
  6
CONTINUOUS
 10
4.158872
 20
5.115487
  0
VERTEX
  8
0
  6
CONTINUOUS
 10
4.148095
 20
5.107197
  0
SEQEND
  8
0
  0
SOLID
  8
0
 62
    15
 10
4.158872
 20
5.115487
 11
4.163846
 21
5.860718
 12
4.176280
 22
5.116316
 13
4.180425
 23
5.862376
  0
POLYLINE
  8
0
  6
CONTINUOUS
 66
     1
 40
0.000000
 41
0.000000
  0
VERTEX
  8
0
  6
CONTINUOUS
 10
4.158872
 20
5.115487
  0
VERTEX
  8
0
  6
CONTINUOUS
 10
4.163846
 20
5.860718
  0
VERTEX
  8
0
  6
CONTINUOUS
 10
4.180425
 20
5.862376
  0
VERTEX
  8
0
  6
CONTINUOUS
 10
4.176280
 20
5.116316
  0
VERTEX
  8
0
  6
CONTINUOUS
 10
4.158872
 20
5.115487
  0
SEQEND
  8
0
  0
SOLID
  8
0
 62
    15
 10
4.249228
 20
5.116316
 11
4.254202
 21
5.862376
 12
4.266636
 22
5.115487
 13
4.270781
 23
5.860718
  0
POLYLINE
  8
0
  6
CONTINUOUS
 66
     1
 40
0.000000
 41
0.000000
  0
VERTEX
  8
0
  6
CONTINUOUS
 10
4.249228
 20
5.116316
  0
VERTEX
  8
0
  6
CONTINUOUS
 10
4.254202
 20
5.862376
  0
VERTEX
  8
0
  6
CONTINUOUS
 10
4.270781
 20
5.860718
  0
VERTEX
  8
0
  6
CONTINUOUS
 10
4.266636
 20
5.115487
  0
VERTEX
  8
0
  6
CONTINUOUS
 10
4.249228
 20
5.116316
  0
SEQEND
  8
0
  0
SOLID
  8
0
 62
    15
 10
4.176280
 20
5.116316
 11
4.180425
 21
5.862376
 12
4.250886
 22
5.116316
 13
4.255031
 23
5.862376
  0
POLYLINE
  8
0
  6
CONTINUOUS
 66
     1
 40
0.000000
 41
0.000000
  0
VERTEX
  8
0
  6
CONTINUOUS
 10
4.176280
 20
5.116316
  0
VERTEX
  8
0
  6
CONTINUOUS
 10
4.180425
 20
5.862376
  0
VERTEX
  8
0
  6
CONTINUOUS
 10
4.255031
 20
5.862376
  0
VERTEX
  8
0
  6
CONTINUOUS
 10
4.250886
 20
5.116316
  0
VERTEX
  8
0
  6
CONTINUOUS
 10
4.176280
 20
5.116316
  0
SEQEND
  8
0
  0
SOLID
  8
0
 62
    15
 10
4.266636
 20
5.115487
 11
4.270781
 21
5.860718
 12
4.277412
 22
5.107197
 13
4.281557
 23
5.853258
  0
POLYLINE
  8
0
  6
CONTINUOUS
 66
     1
 40
0.000000
 41
0.000000
  0
VERTEX
  8
0
  6
CONTINUOUS
 10
4.266636
 20
5.115487
  0
VERTEX
  8
0
  6
CONTINUOUS
 10
4.270781
 20
5.860718
  0
VERTEX
  8
0
  6
CONTINUOUS
 10
4.281557
 20
5.853258
  0
VERTEX
  8
0
  6
CONTINUOUS
 10
4.277412
 20
5.107197
  0
VERTEX
  8
0
  6
CONTINUOUS
 10
4.266636
 20
5.115487
  0
SEQEND
  8
0
  0
SOLID
  8
0
 62
    15
 10
4.277412
 20
5.107197
 11
4.281557
 21
5.853258
 12
4.289018
 22
5.079013
 13
4.293992
 23
5.825073
  0
POLYLINE
  8
0
  6
CONTINUOUS
 66
     1
 40
0.000000
 41
0.000000
  0
VERTEX
  8
0
  6
CONTINUOUS
 10
4.277412
 20
5.107197
  0
VERTEX
  8
0
  6
CONTINUOUS
 10
4.281557
 20
5.853258
  0
VERTEX
  8
0
  6
CONTINUOUS
 10
4.293992
 20
5.825073
  0
VERTEX
  8
0
  6
CONTINUOUS
 10
4.289018
 20
5.079013
  0
VERTEX
  8
0
  6
CONTINUOUS
 10
4.277412
 20
5.107197
  0
SEQEND
  8
0
  0
SOLID
  8
0
 62
    15
 10
4.289018
 20
5.079013
 11
4.293992
 21
5.825073
 12
4.291505
 22
5.070723
 13
4.296478
 23
5.816784
  0
POLYLINE
  8
0
  6
CONTINUOUS
 66
     1
 40
0.000000
 41
0.000000
  0
VERTEX
  8
0
  6
CONTINUOUS
 10
4.289018
 20
5.079013
  0
VERTEX
  8
0
  6
CONTINUOUS
 10
4.293992
 20
5.825073
  0
VERTEX
  8
0
  6
CONTINUOUS
 10
4.296478
 20
5.816784
  0
VERTEX
  8
0
  6
CONTINUOUS
 10
4.291505
 20
5.070723
  0
VERTEX
  8
0
  6
CONTINUOUS
 10
4.289018
 20
5.079013
  0
SEQEND
  8
0
  0
SOLID
  8
0
 62
    15
 10
4.291505
 20
5.070723
 11
4.296478
 21
5.816784
 12
4.293992
 22
5.063263
 13
4.298965
 23
5.809323
  0
POLYLINE
  8
0
  6
CONTINUOUS
 66
     1
 40
0.000000
 41
0.000000
  0
VERTEX
  8
0
  6
CONTINUOUS
 10
4.291505
 20
5.070723
  0
VERTEX
  8
0
  6
CONTINUOUS
 10
4.296478
 20
5.816784
  0
VERTEX
  8
0
  6
CONTINUOUS
 10
4.298965
 20
5.809323
  0
VERTEX
  8
0
  6
CONTINUOUS
 10
4.293992
 20
5.063263
  0
VERTEX
  8
0
  6
CONTINUOUS
 10
4.291505
 20
5.070723
  0
SEQEND
  8
0
  0
SOLID
  8
0
 62
    15
 10
4.293992
 20
5.063263
 11
4.298965
 21
5.809323
 12
4.300623
 22
5.049170
 13
4.305597
 23
5.795231
  0
POLYLINE
  8
0
  6
CONTINUOUS
 66
     1
 40
0.000000
 41
0.000000
  0
VERTEX
  8
0
  6
CONTINUOUS
 10
4.293992
 20
5.063263
  0
VERTEX
  8
0
  6
CONTINUOUS
 10
4.298965
 20
5.809323
  0
VERTEX
  8
0
  6
CONTINUOUS
 10
4.305597
 20
5.795231
  0
VERTEX
  8
0
  6
CONTINUOUS
 10
4.300623
 20
5.049170
  0
VERTEX
  8
0
  6
CONTINUOUS
 10
4.293992
 20
5.063263
  0
SEQEND
  8
0
  0
SOLID
  8
0
 62
    15
 10
4.300623
 20
5.049170
 11
4.305597
 21
5.795231
 12
4.311400
 22
5.040052
 13
4.316373
 23
5.785283
  0
POLYLINE
  8
0
  6
CONTINUOUS
 66
     1
 40
0.000000
 41
0.000000
  0
VERTEX
  8
0
  6
CONTINUOUS
 10
4.300623
 20
5.049170
  0
VERTEX
  8
0
  6
CONTINUOUS
 10
4.305597
 20
5.795231
  0
VERTEX
  8
0
  6
CONTINUOUS
 10
4.316373
 20
5.785283
  0
VERTEX
  8
0
  6
CONTINUOUS
 10
4.311400
 20
5.040052
  0
VERTEX
  8
0
  6
CONTINUOUS
 10
4.300623
 20
5.049170
  0
SEQEND
  8
0
  0
SOLID
  8
0
 62
    15
 10
4.311400
 20
5.040052
 11
4.316373
 21
5.785283
 12
4.327979
 22
5.036736
 13
4.332953
 23
5.781967
  0
POLYLINE
  8
0
  6
CONTINUOUS
 66
     1
 40
0.000000
 41
0.000000
  0
VERTEX
  8
0
  6
CONTINUOUS
 10
4.311400
 20
5.040052
  0
VERTEX
  8
0
  6
CONTINUOUS
 10
4.316373
 20
5.785283
  0
VERTEX
  8
0
  6
CONTINUOUS
 10
4.332953
 20
5.781967
  0
VERTEX
  8
0
  6
CONTINUOUS
 10
4.327979
 20
5.036736
  0
VERTEX
  8
0
  6
CONTINUOUS
 10
4.311400
 20
5.040052
  0
SEQEND
  8
0
  0
POLYLINE
  8
0
  6
CONTINUOUS
 66
     1
 40
0.000000
 41
0.000000
  0
VERTEX
  8
0
  6
CONTINUOUS
 10
4.327979
 20
5.036736
  0
VERTEX
  8
0
  6
CONTINUOUS
 10
4.332953
 20
5.781967
  0
VERTEX
  8
0
  6
CONTINUOUS
 10
4.327979
 20
5.036736
  0
SEQEND
  8
0
  0
SOLID
  8
0
 62
    15
 10
4.327979
 20
5.036736
 11
4.332953
 21
5.781967
 12
4.585784
 22
5.036736
 13
4.589929
 23
5.781967
  0
POLYLINE
  8
0
  6
CONTINUOUS
 66
     1
 40
0.000000
 41
0.000000
  0
VERTEX
  8
0
  6
CONTINUOUS
 10
4.327979
 20
5.036736
  0
VERTEX
  8
0
  6
CONTINUOUS
 10
4.332953
 20
5.781967
  0
VERTEX
  8
0
  6
CONTINUOUS
 10
4.589929
 20
5.781967
  0
VERTEX
  8
0
  6
CONTINUOUS
 10
4.585784
 20
5.036736
  0
VERTEX
  8
0
  6
CONTINUOUS
 10
4.327979
 20
5.036736
  0
SEQEND
  8
0
  0
SOLID
  8
0
 62
    15
 10
4.585784
 20
5.036736
 11
4.589929
 21
5.781967
 12
4.601534
 22
5.040052
 13
4.606508
 23
5.785283
  0
POLYLINE
  8
0
  6
CONTINUOUS
 66
     1
 40
0.000000
 41
0.000000
  0
VERTEX
  8
0
  6
CONTINUOUS
 10
4.585784
 20
5.036736
  0
VERTEX
  8
0
  6
CONTINUOUS
 10
4.589929
 20
5.781967
  0
VERTEX
  8
0
  6
CONTINUOUS
 10
4.606508
 20
5.785283
  0
VERTEX
  8
0
  6
CONTINUOUS
 10
4.601534
 20
5.040052
  0
VERTEX
  8
0
  6
CONTINUOUS
 10
4.585784
 20
5.036736
  0
SEQEND
  8
0
  0
SOLID
  8
0
 62
    15
 10
4.601534
 20
5.040052
 11
4.606508
 21
5.785283
 12
4.612311
 22
5.049170
 13
4.617284
 23
5.795231
  0
POLYLINE
  8
0
  6
CONTINUOUS
 66
     1
 40
0.000000
 41
0.000000
  0
VERTEX
  8
0
  6
CONTINUOUS
 10
4.601534
 20
5.040052
  0
VERTEX
  8
0
  6
CONTINUOUS
 10
4.606508
 20
5.785283
  0
VERTEX
  8
0
  6
CONTINUOUS
 10
4.617284
 20
5.795231
  0
VERTEX
  8
0
  6
CONTINUOUS
 10
4.612311
 20
5.049170
  0
VERTEX
  8
0
  6
CONTINUOUS
 10
4.601534
 20
5.040052
  0
SEQEND
  8
0
  0
SOLID
  8
0
 62
    15
 10
4.612311
 20
5.049170
 11
4.617284
 21
5.795231
 12
4.618942
 22
5.063263
 13
4.623916
 23
5.809323
  0
POLYLINE
  8
0
  6
CONTINUOUS
 66
     1
 40
0.000000
 41
0.000000
  0
VERTEX
  8
0
  6
CONTINUOUS
 10
4.612311
 20
5.049170
  0
VERTEX
  8
0
  6
CONTINUOUS
 10
4.617284
 20
5.795231
  0
VERTEX
  8
0
  6
CONTINUOUS
 10
4.623916
 20
5.809323
  0
VERTEX
  8
0
  6
CONTINUOUS
 10
4.618942
 20
5.063263
  0
VERTEX
  8
0
  6
CONTINUOUS
 10
4.612311
 20
5.049170
  0
SEQEND
  8
0
  0
SOLID
  8
0
 62
    15
 10
4.618942
 20
5.063263
 11
4.623916
 21
5.809323
 12
4.622258
 22
5.070723
 13
4.626403
 23
5.816784
  0
POLYLINE
  8
0
  6
CONTINUOUS
 66
     1
 40
0.000000
 41
0.000000
  0
VERTEX
  8
0
  6
CONTINUOUS
 10
4.618942
 20
5.063263
  0
VERTEX
  8
0
  6
CONTINUOUS
 10
4.623916
 20
5.809323
  0
VERTEX
  8
0
  6
CONTINUOUS
 10
4.626403
 20
5.816784
  0
VERTEX
  8
0
  6
CONTINUOUS
 10
4.622258
 20
5.070723
  0
VERTEX
  8
0
  6
CONTINUOUS
 10
4.618942
 20
5.063263
  0
SEQEND
  8
0
  0
SOLID
  8
0
 62
    15
 10
4.622258
 20
5.070723
 11
4.626403
 21
5.816784
 12
4.623916
 22
5.079013
 13
4.628890
 23
5.825073
  0
POLYLINE
  8
0
  6
CONTINUOUS
 66
     1
 40
0.000000
 41
0.000000
  0
VERTEX
  8
0
  6
CONTINUOUS
 10
4.622258
 20
5.070723
  0
VERTEX
  8
0
  6
CONTINUOUS
 10
4.626403
 20
5.816784
  0
VERTEX
  8
0
  6
CONTINUOUS
 10
4.628890
 20
5.825073
  0
VERTEX
  8
0
  6
CONTINUOUS
 10
4.623916
 20
5.079013
  0
VERTEX
  8
0
  6
CONTINUOUS
 10
4.622258
 20
5.070723
  0
SEQEND
  8
0
  0
SOLID
  8
0
 62
    15
 10
4.623916
 20
5.079013
 11
4.628890
 21
5.825073
 12
4.636350
 22
5.107197
 13
4.640495
 23
5.853258
  0
POLYLINE
  8
0
  6
CONTINUOUS
 66
     1
 40
0.000000
 41
0.000000
  0
VERTEX
  8
0
  6
CONTINUOUS
 10
4.623916
 20
5.079013
  0
VERTEX
  8
0
  6
CONTINUOUS
 10
4.628890
 20
5.825073
  0
VERTEX
  8
0
  6
CONTINUOUS
 10
4.640495
 20
5.853258
  0
VERTEX
  8
0
  6
CONTINUOUS
 10
4.636350
 20
5.107197
  0
VERTEX
  8
0
  6
CONTINUOUS
 10
4.623916
 20
5.079013
  0
SEQEND
  8
0
  0
SOLID
  8
0
 62
    15
 10
4.636350
 20
5.107197
 11
4.640495
 21
5.853258
 12
4.647127
 22
5.115487
 13
4.652101
 23
5.860718
  0
POLYLINE
  8
0
  6
CONTINUOUS
 66
     1
 40
0.000000
 41
0.000000
  0
VERTEX
  8
0
  6
CONTINUOUS
 10
4.636350
 20
5.107197
  0
VERTEX
  8
0
  6
CONTINUOUS
 10
4.640495
 20
5.853258
  0
VERTEX
  8
0
  6
CONTINUOUS
 10
4.652101
 20
5.860718
  0
VERTEX
  8
0
  6
CONTINUOUS
 10
4.647127
 20
5.115487
  0
VERTEX
  8
0
  6
CONTINUOUS
 10
4.636350
 20
5.107197
  0
SEQEND
  8
0
  0
SOLID
  8
0
 62
    15
 10
4.647127
 20
5.115487
 11
4.652101
 21
5.860718
 12
4.663706
 22
5.116316
 13
4.668680
 23
5.862376
  0
POLYLINE
  8
0
  6
CONTINUOUS
 66
     1
 40
0.000000
 41
0.000000
  0
VERTEX
  8
0
  6
CONTINUOUS
 10
4.647127
 20
5.115487
  0
VERTEX
  8
0
  6
CONTINUOUS
 10
4.652101
 20
5.860718
  0
VERTEX
  8
0
  6
CONTINUOUS
 10
4.668680
 20
5.862376
  0
VERTEX
  8
0
  6
CONTINUOUS
 10
4.663706
 20
5.116316
  0
VERTEX
  8
0
  6
CONTINUOUS
 10
4.647127
 20
5.115487
  0
SEQEND
  8
0
  0
SOLID
  8
0
 62
    15
 10
4.663706
 20
5.116316
 11
4.668680
 21
5.862376
 12
4.737483
 22
5.116316
 13
4.742457
 23
5.862376
  0
POLYLINE
  8
0
  6
CONTINUOUS
 66
     1
 40
0.000000
 41
0.000000
  0
VERTEX
  8
0
  6
CONTINUOUS
 10
4.663706
 20
5.116316
  0
VERTEX
  8
0
  6
CONTINUOUS
 10
4.668680
 20
5.862376
  0
VERTEX
  8
0
  6
CONTINUOUS
 10
4.742457
 20
5.862376
  0
VERTEX
  8
0
  6
CONTINUOUS
 10
4.737483
 20
5.116316
  0
VERTEX
  8
0
  6
CONTINUOUS
 10
4.663706
 20
5.116316
  0
SEQEND
  8
0
  0
SOLID
  8
0
 62
    15
 10
4.737483
 20
5.116316
 11
4.742457
 21
5.862376
 12
4.739141
 22
5.116316
 13
4.743286
 23
5.862376
  0
POLYLINE
  8
0
  6
CONTINUOUS
 66
     1
 40
0.000000
 41
0.000000
  0
VERTEX
  8
0
  6
CONTINUOUS
 10
4.737483
 20
5.116316
  0
VERTEX
  8
0
  6
CONTINUOUS
 10
4.742457
 20
5.862376
  0
VERTEX
  8
0
  6
CONTINUOUS
 10
4.743286
 20
5.862376
  0
VERTEX
  8
0
  6
CONTINUOUS
 10
4.739141
 20
5.116316
  0
VERTEX
  8
0
  6
CONTINUOUS
 10
4.737483
 20
5.116316
  0
SEQEND
  8
0
  0
SOLID
  8
0
 62
    15
 10
4.739141
 20
5.116316
 11
4.743286
 21
5.862376
 12
4.755720
 22
5.115487
 13
4.760694
 23
5.860718
  0
POLYLINE
  8
0
  6
CONTINUOUS
 66
     1
 40
0.000000
 41
0.000000
  0
VERTEX
  8
0
  6
CONTINUOUS
 10
4.739141
 20
5.116316
  0
VERTEX
  8
0
  6
CONTINUOUS
 10
4.743286
 20
5.862376
  0
VERTEX
  8
0
  6
CONTINUOUS
 10
4.760694
 20
5.860718
  0
VERTEX
  8
0
  6
CONTINUOUS
 10
4.755720
 20
5.115487
  0
VERTEX
  8
0
  6
CONTINUOUS
 10
4.739141
 20
5.116316
  0
SEQEND
  8
0
  0
SOLID
  8
0
 62
    15
 10
4.755720
 20
5.115487
 11
4.760694
 21
5.860718
 12
4.766496
 22
5.107197
 13
4.771470
 23
5.853258
  0
POLYLINE
  8
0
  6
CONTINUOUS
 66
     1
 40
0.000000
 41
0.000000
  0
VERTEX
  8
0
  6
CONTINUOUS
 10
4.755720
 20
5.115487
  0
VERTEX
  8
0
  6
CONTINUOUS
 10
4.760694
 20
5.860718
  0
VERTEX
  8
0
  6
CONTINUOUS
 10
4.771470
 20
5.853258
  0
VERTEX
  8
0
  6
CONTINUOUS
 10
4.766496
 20
5.107197
  0
VERTEX
  8
0
  6
CONTINUOUS
 10
4.755720
 20
5.115487
  0
SEQEND
  8
0
  0
SOLID
  8
0
 62
    15
 10
4.766496
 20
5.107197
 11
4.771470
 21
5.853258
 12
4.778931
 22
5.079013
 13
4.783076
 23
5.825073
  0
POLYLINE
  8
0
  6
CONTINUOUS
 66
     1
 40
0.000000
 41
0.000000
  0
VERTEX
  8
0
  6
CONTINUOUS
 10
4.766496
 20
5.107197
  0
VERTEX
  8
0
  6
CONTINUOUS
 10
4.771470
 20
5.853258
  0
VERTEX
  8
0
  6
CONTINUOUS
 10
4.783076
 20
5.825073
  0
VERTEX
  8
0
  6
CONTINUOUS
 10
4.778931
 20
5.079013
  0
VERTEX
  8
0
  6
CONTINUOUS
 10
4.766496
 20
5.107197
  0
SEQEND
  8
0
  0
SOLID
  8
0
 62
    15
 10
4.778931
 20
5.079013
 11
4.783076
 21
5.825073
 12
4.780589
 22
5.070723
 13
4.785562
 23
5.816784
  0
POLYLINE
  8
0
  6
CONTINUOUS
 66
     1
 40
0.000000
 41
0.000000
  0
VERTEX
  8
0
  6
CONTINUOUS
 10
4.778931
 20
5.079013
  0
VERTEX
  8
0
  6
CONTINUOUS
 10
4.783076
 20
5.825073
  0
VERTEX
  8
0
  6
CONTINUOUS
 10
4.785562
 20
5.816784
  0
VERTEX
  8
0
  6
CONTINUOUS
 10
4.780589
 20
5.070723
  0
VERTEX
  8
0
  6
CONTINUOUS
 10
4.778931
 20
5.079013
  0
SEQEND
  8
0
  0
SOLID
  8
0
 62
    15
 10
4.780589
 20
5.070723
 11
4.785562
 21
5.816784
 12
4.783905
 22
5.063263
 13
4.788049
 23
5.809323
  0
POLYLINE
  8
0
  6
CONTINUOUS
 66
     1
 40
0.000000
 41
0.000000
  0
VERTEX
  8
0
  6
CONTINUOUS
 10
4.780589
 20
5.070723
  0
VERTEX
  8
0
  6
CONTINUOUS
 10
4.785562
 20
5.816784
  0
VERTEX
  8
0
  6
CONTINUOUS
 10
4.788049
 20
5.809323
  0
VERTEX
  8
0
  6
CONTINUOUS
 10
4.783905
 20
5.063263
  0
VERTEX
  8
0
  6
CONTINUOUS
 10
4.780589
 20
5.070723
  0
SEQEND
  8
0
  0
SOLID
  8
0
 62
    15
 10
4.783905
 20
5.063263
 11
4.788049
 21
5.809323
 12
4.790536
 22
5.049170
 13
4.794681
 23
5.795231
  0
POLYLINE
  8
0
  6
CONTINUOUS
 66
     1
 40
0.000000
 41
0.000000
  0
VERTEX
  8
0
  6
CONTINUOUS
 10
4.783905
 20
5.063263
  0
VERTEX
  8
0
  6
CONTINUOUS
 10
4.788049
 20
5.809323
  0
VERTEX
  8
0
  6
CONTINUOUS
 10
4.794681
 20
5.795231
  0
VERTEX
  8
0
  6
CONTINUOUS
 10
4.790536
 20
5.049170
  0
VERTEX
  8
0
  6
CONTINUOUS
 10
4.783905
 20
5.063263
  0
SEQEND
  8
0
  0
SOLID
  8
0
 62
    15
 10
2.201707
 20
5.420543
 11
2.205852
 21
6.165774
 12
2.933675
 22
5.420543
 13
2.937820
 23
6.165774
  0
POLYLINE
  8
0
  6
CONTINUOUS
 66
     1
 40
0.000000
 41
0.000000
  0
VERTEX
  8
0
  6
CONTINUOUS
 10
2.201707
 20
5.420543
  0
VERTEX
  8
0
  6
CONTINUOUS
 10
2.205852
 20
6.165774
  0
VERTEX
  8
0
  6
CONTINUOUS
 10
2.937820
 20
6.165774
  0
VERTEX
  8
0
  6
CONTINUOUS
 10
2.933675
 20
5.420543
  0
VERTEX
  8
0
  6
CONTINUOUS
 10
2.201707
 20
5.420543
  0
SEQEND
  8
0
  0
SOLID
  8
0
 62
    15
 10
4.801313
 20
5.040052
 11
4.805457
 21
5.785283
 12
4.817063
 22
5.036736
 13
4.822037
 23
5.781967
  0
POLYLINE
  8
0
  6
CONTINUOUS
 66
     1
 40
0.000000
 41
0.000000
  0
VERTEX
  8
0
  6
CONTINUOUS
 10
4.801313
 20
5.040052
  0
VERTEX
  8
0
  6
CONTINUOUS
 10
4.805457
 20
5.785283
  0
VERTEX
  8
0
  6
CONTINUOUS
 10
4.822037
 20
5.781967
  0
VERTEX
  8
0
  6
CONTINUOUS
 10
4.817063
 20
5.036736
  0
VERTEX
  8
0
  6
CONTINUOUS
 10
4.801313
 20
5.040052
  0
SEQEND
  8
0
  0
POLYLINE
  8
0
  6
CONTINUOUS
 66
     1
 40
0.000000
 41
0.000000
  0
VERTEX
  8
0
  6
CONTINUOUS
 10
4.817063
 20
5.036736
  0
VERTEX
  8
0
  6
CONTINUOUS
 10
4.822037
 20
5.781967
  0
VERTEX
  8
0
  6
CONTINUOUS
 10
4.817063
 20
5.036736
  0
SEQEND
  8
0
  0
SOLID
  8
0
 62
    15
 10
4.817063
 20
5.036736
 11
4.822037
 21
5.781967
 12
5.048341
 22
5.036736
 13
5.052486
 23
5.781967
  0
POLYLINE
  8
0
  6
CONTINUOUS
 66
     1
 40
0.000000
 41
0.000000
  0
VERTEX
  8
0
  6
CONTINUOUS
 10
4.817063
 20
5.036736
  0
VERTEX
  8
0
  6
CONTINUOUS
 10
4.822037
 20
5.781967
  0
VERTEX
  8
0
  6
CONTINUOUS
 10
5.052486
 20
5.781967
  0
VERTEX
  8
0
  6
CONTINUOUS
 10
5.048341
 20
5.036736
  0
VERTEX
  8
0
  6
CONTINUOUS
 10
4.817063
 20
5.036736
  0
SEQEND
  8
0
  0
SOLID
  8
0
 62
    15
 10
5.048341
 20
5.036736
 11
5.052486
 21
5.781967
 12
5.064921
 22
5.040052
 13
5.069065
 23
5.785283
  0
POLYLINE
  8
0
  6
CONTINUOUS
 66
     1
 40
0.000000
 41
0.000000
  0
VERTEX
  8
0
  6
CONTINUOUS
 10
5.048341
 20
5.036736
  0
VERTEX
  8
0
  6
CONTINUOUS
 10
5.052486
 20
5.781967
  0
VERTEX
  8
0
  6
CONTINUOUS
 10
5.069065
 20
5.785283
  0
VERTEX
  8
0
  6
CONTINUOUS
 10
5.064921
 20
5.040052
  0
VERTEX
  8
0
  6
CONTINUOUS
 10
5.048341
 20
5.036736
  0
SEQEND
  8
0
  0
SOLID
  8
0
 62
    15
 10
5.064921
 20
5.040052
 11
5.069065
 21
5.785283
 12
5.074868
 22
5.049170
 13
5.079842
 23
5.795231
  0
POLYLINE
  8
0
  6
CONTINUOUS
 66
     1
 40
0.000000
 41
0.000000
  0
VERTEX
  8
0
  6
CONTINUOUS
 10
5.064921
 20
5.040052
  0
VERTEX
  8
0
  6
CONTINUOUS
 10
5.069065
 20
5.785283
  0
VERTEX
  8
0
  6
CONTINUOUS
 10
5.079842
 20
5.795231
  0
VERTEX
  8
0
  6
CONTINUOUS
 10
5.074868
 20
5.049170
  0
VERTEX
  8
0
  6
CONTINUOUS
 10
5.064921
 20
5.040052
  0
SEQEND
  8
0
  0
SOLID
  8
0
 62
    15
 10
5.074868
 20
5.049170
 11
5.079842
 21
5.795231
 12
5.082329
 22
5.063263
 13
5.086473
 23
5.809323
  0
POLYLINE
  8
0
  6
CONTINUOUS
 66
     1
 40
0.000000
 41
0.000000
  0
VERTEX
  8
0
  6
CONTINUOUS
 10
5.074868
 20
5.049170
  0
VERTEX
  8
0
  6
CONTINUOUS
 10
5.079842
 20
5.795231
  0
VERTEX
  8
0
  6
CONTINUOUS
 10
5.086473
 20
5.809323
  0
VERTEX
  8
0
  6
CONTINUOUS
 10
5.082329
 20
5.063263
  0
VERTEX
  8
0
  6
CONTINUOUS
 10
5.074868
 20
5.049170
  0
SEQEND
  8
0
  0
SOLID
  8
0
 62
    15
 10
5.082329
 20
5.063263
 11
5.086473
 21
5.809323
 12
5.084816
 22
5.070723
 13
5.088960
 23
5.816784
  0
POLYLINE
  8
0
  6
CONTINUOUS
 66
     1
 40
0.000000
 41
0.000000
  0
VERTEX
  8
0
  6
CONTINUOUS
 10
5.082329
 20
5.063263
  0
VERTEX
  8
0
  6
CONTINUOUS
 10
5.086473
 20
5.809323
  0
VERTEX
  8
0
  6
CONTINUOUS
 10
5.088960
 20
5.816784
  0
VERTEX
  8
0
  6
CONTINUOUS
 10
5.084816
 20
5.070723
  0
VERTEX
  8
0
  6
CONTINUOUS
 10
5.082329
 20
5.063263
  0
SEQEND
  8
0
  0
SOLID
  8
0
 62
    15
 10
5.084816
 20
5.070723
 11
5.088960
 21
5.816784
 12
5.087302
 22
5.079013
 13
5.091447
 23
5.825073
  0
POLYLINE
  8
0
  6
CONTINUOUS
 66
     1
 40
0.000000
 41
0.000000
  0
VERTEX
  8
0
  6
CONTINUOUS
 10
5.084816
 20
5.070723
  0
VERTEX
  8
0
  6
CONTINUOUS
 10
5.088960
 20
5.816784
  0
VERTEX
  8
0
  6
CONTINUOUS
 10
5.091447
 20
5.825073
  0
VERTEX
  8
0
  6
CONTINUOUS
 10
5.087302
 20
5.079013
  0
VERTEX
  8
0
  6
CONTINUOUS
 10
5.084816
 20
5.070723
  0
SEQEND
  8
0
  0
SOLID
  8
0
 62
    15
 10
5.087302
 20
5.079013
 11
5.091447
 21
5.825073
 12
5.098908
 22
5.107197
 13
5.103882
 23
5.853258
  0
POLYLINE
  8
0
  6
CONTINUOUS
 66
     1
 40
0.000000
 41
0.000000
  0
VERTEX
  8
0
  6
CONTINUOUS
 10
5.087302
 20
5.079013
  0
VERTEX
  8
0
  6
CONTINUOUS
 10
5.091447
 20
5.825073
  0
VERTEX
  8
0
  6
CONTINUOUS
 10
5.103882
 20
5.853258
  0
VERTEX
  8
0
  6
CONTINUOUS
 10
5.098908
 20
5.107197
  0
VERTEX
  8
0
  6
CONTINUOUS
 10
5.087302
 20
5.079013
  0
SEQEND
  8
0
  0
SOLID
  8
0
 62
    15
 10
5.098908
 20
5.107197
 11
5.103882
 21
5.853258
 12
5.109684
 22
5.115487
 13
5.114658
 23
5.860718
  0
POLYLINE
  8
0
  6
CONTINUOUS
 66
     1
 40
0.000000
 41
0.000000
  0
VERTEX
  8
0
  6
CONTINUOUS
 10
5.098908
 20
5.107197
  0
VERTEX
  8
0
  6
CONTINUOUS
 10
5.103882
 20
5.853258
  0
VERTEX
  8
0
  6
CONTINUOUS
 10
5.114658
 20
5.860718
  0
VERTEX
  8
0
  6
CONTINUOUS
 10
5.109684
 20
5.115487
  0
VERTEX
  8
0
  6
CONTINUOUS
 10
5.098908
 20
5.107197
  0
SEQEND
  8
0
  0
SOLID
  8
0
 62
    15
 10
5.109684
 20
5.115487
 11
5.114658
 21
5.860718
 12
5.127092
 22
5.116316
 13
5.131237
 23
5.862376
  0
POLYLINE
  8
0
  6
CONTINUOUS
 66
     1
 40
0.000000
 41
0.000000
  0
VERTEX
  8
0
  6
CONTINUOUS
 10
5.109684
 20
5.115487
  0
VERTEX
  8
0
  6
CONTINUOUS
 10
5.114658
 20
5.860718
  0
VERTEX
  8
0
  6
CONTINUOUS
 10
5.131237
 20
5.862376
  0
VERTEX
  8
0
  6
CONTINUOUS
 10
5.127092
 20
5.116316
  0
VERTEX
  8
0
  6
CONTINUOUS
 10
5.109684
 20
5.115487
  0
SEQEND
  8
0
  0
SOLID
  8
0
 62
    15
 10
5.127092
 20
5.116316
 11
5.131237
 21
5.862376
 12
5.206672
 22
5.116316
 13
5.211646
 23
5.862376
  0
POLYLINE
  8
0
  6
CONTINUOUS
 66
     1
 40
0.000000
 41
0.000000
  0
VERTEX
  8
0
  6
CONTINUOUS
 10
5.127092
 20
5.116316
  0
VERTEX
  8
0
  6
CONTINUOUS
 10
5.131237
 20
5.862376
  0
VERTEX
  8
0
  6
CONTINUOUS
 10
5.211646
 20
5.862376
  0
VERTEX
  8
0
  6
CONTINUOUS
 10
5.206672
 20
5.116316
  0
VERTEX
  8
0
  6
CONTINUOUS
 10
5.127092
 20
5.116316
  0
SEQEND
  8
0
  0
SOLID
  8
0
 62
    15
 10
5.206672
 20
5.116316
 11
5.211646
 21
5.862376
 12
5.208330
 22
5.116316
 13
5.212475
 23
5.862376
  0
POLYLINE
  8
0
  6
CONTINUOUS
 66
     1
 40
0.000000
 41
0.000000
  0
VERTEX
  8
0
  6
CONTINUOUS
 10
5.206672
 20
5.116316
  0
VERTEX
  8
0
  6
CONTINUOUS
 10
5.211646
 20
5.862376
  0
VERTEX
  8
0
  6
CONTINUOUS
 10
5.212475
 20
5.862376
  0
VERTEX
  8
0
  6
CONTINUOUS
 10
5.208330
 20
5.116316
  0
VERTEX
  8
0
  6
CONTINUOUS
 10
5.206672
 20
5.116316
  0
SEQEND
  8
0
  0
SOLID
  8
0
 62
    15
 10
5.208330
 20
5.116316
 11
5.212475
 21
5.862376
 12
5.224909
 22
5.115487
 13
5.229883
 23
5.860718
  0
POLYLINE
  8
0
  6
CONTINUOUS
 66
     1
 40
0.000000
 41
0.000000
  0
VERTEX
  8
0
  6
CONTINUOUS
 10
5.208330
 20
5.116316
  0
VERTEX
  8
0
  6
CONTINUOUS
 10
5.212475
 20
5.862376
  0
VERTEX
  8
0
  6
CONTINUOUS
 10
5.229883
 20
5.860718
  0
VERTEX
  8
0
  6
CONTINUOUS
 10
5.224909
 20
5.115487
  0
VERTEX
  8
0
  6
CONTINUOUS
 10
5.208330
 20
5.116316
  0
SEQEND
  8
0
  0
SOLID
  8
0
 62
    15
 10
5.224909
 20
5.115487
 11
5.229883
 21
5.860718
 12
5.235685
 22
5.107197
 13
5.240659
 23
5.853258
  0
POLYLINE
  8
0
  6
CONTINUOUS
 66
     1
 40
0.000000
 41
0.000000
  0
VERTEX
  8
0
  6
CONTINUOUS
 10
5.224909
 20
5.115487
  0
VERTEX
  8
0
  6
CONTINUOUS
 10
5.229883
 20
5.860718
  0
VERTEX
  8
0
  6
CONTINUOUS
 10
5.240659
 20
5.853258
  0
VERTEX
  8
0
  6
CONTINUOUS
 10
5.235685
 20
5.107197
  0
VERTEX
  8
0
  6
CONTINUOUS
 10
5.224909
 20
5.115487
  0
SEQEND
  8
0
  0
SOLID
  8
0
 62
    15
 10
5.235685
 20
5.107197
 11
5.240659
 21
5.853258
 12
5.248120
 22
5.079013
 13
5.252265
 23
5.825073
  0
POLYLINE
  8
0
  6
CONTINUOUS
 66
     1
 40
0.000000
 41
0.000000
  0
VERTEX
  8
0
  6
CONTINUOUS
 10
5.235685
 20
5.107197
  0
VERTEX
  8
0
  6
CONTINUOUS
 10
5.240659
 20
5.853258
  0
VERTEX
  8
0
  6
CONTINUOUS
 10
5.252265
 20
5.825073
  0
VERTEX
  8
0
  6
CONTINUOUS
 10
5.248120
 20
5.079013
  0
VERTEX
  8
0
  6
CONTINUOUS
 10
5.235685
 20
5.107197
  0
SEQEND
  8
0
  0
SOLID
  8
0
 62
    15
 10
5.248120
 20
5.079013
 11
5.252265
 21
5.825073
 12
5.250607
 22
5.070723
 13
5.254751
 23
5.816784
  0
POLYLINE
  8
0
  6
CONTINUOUS
 66
     1
 40
0.000000
 41
0.000000
  0
VERTEX
  8
0
  6
CONTINUOUS
 10
5.248120
 20
5.079013
  0
VERTEX
  8
0
  6
CONTINUOUS
 10
5.252265
 20
5.825073
  0
VERTEX
  8
0
  6
CONTINUOUS
 10
5.254751
 20
5.816784
  0
VERTEX
  8
0
  6
CONTINUOUS
 10
5.250607
 20
5.070723
  0
VERTEX
  8
0
  6
CONTINUOUS
 10
5.248120
 20
5.079013
  0
SEQEND
  8
0
  0
SOLID
  8
0
 62
    15
 10
5.250607
 20
5.070723
 11
5.254751
 21
5.816784
 12
5.253094
 22
5.063263
 13
5.257238
 23
5.809323
  0
POLYLINE
  8
0
  6
CONTINUOUS
 66
     1
 40
0.000000
 41
0.000000
  0
VERTEX
  8
0
  6
CONTINUOUS
 10
5.250607
 20
5.070723
  0
VERTEX
  8
0
  6
CONTINUOUS
 10
5.254751
 20
5.816784
  0
VERTEX
  8
0
  6
CONTINUOUS
 10
5.257238
 20
5.809323
  0
VERTEX
  8
0
  6
CONTINUOUS
 10
5.253094
 20
5.063263
  0
VERTEX
  8
0
  6
CONTINUOUS
 10
5.250607
 20
5.070723
  0
SEQEND
  8
0
  0
SOLID
  8
0
 62
    15
 10
5.253094
 20
5.063263
 11
5.257238
 21
5.809323
 12
5.259725
 22
5.049170
 13
5.264699
 23
5.795231
  0
POLYLINE
  8
0
  6
CONTINUOUS
 66
     1
 40
0.000000
 41
0.000000
  0
VERTEX
  8
0
  6
CONTINUOUS
 10
5.253094
 20
5.063263
  0
VERTEX
  8
0
  6
CONTINUOUS
 10
5.257238
 20
5.809323
  0
VERTEX
  8
0
  6
CONTINUOUS
 10
5.264699
 20
5.795231
  0
VERTEX
  8
0
  6
CONTINUOUS
 10
5.259725
 20
5.049170
  0
VERTEX
  8
0
  6
CONTINUOUS
 10
5.253094
 20
5.063263
  0
SEQEND
  8
0
  0
SOLID
  8
0
 62
    15
 10
5.259725
 20
5.049170
 11
5.264699
 21
5.795231
 12
5.270502
 22
5.040052
 13
5.274646
 23
5.785283
  0
POLYLINE
  8
0
  6
CONTINUOUS
 66
     1
 40
0.000000
 41
0.000000
  0
VERTEX
  8
0
  6
CONTINUOUS
 10
5.259725
 20
5.049170
  0
VERTEX
  8
0
  6
CONTINUOUS
 10
5.264699
 20
5.795231
  0
VERTEX
  8
0
  6
CONTINUOUS
 10
5.274646
 20
5.785283
  0
VERTEX
  8
0
  6
CONTINUOUS
 10
5.270502
 20
5.040052
  0
VERTEX
  8
0
  6
CONTINUOUS
 10
5.259725
 20
5.049170
  0
SEQEND
  8
0
  0
SOLID
  8
0
 62
    15
 10
5.270502
 20
5.040052
 11
5.274646
 21
5.785283
 12
5.287081
 22
5.036736
 13
5.291226
 23
5.781967
  0
POLYLINE
  8
0
  6
CONTINUOUS
 66
     1
 40
0.000000
 41
0.000000
  0
VERTEX
  8
0
  6
CONTINUOUS
 10
5.270502
 20
5.040052
  0
VERTEX
  8
0
  6
CONTINUOUS
 10
5.274646
 20
5.785283
  0
VERTEX
  8
0
  6
CONTINUOUS
 10
5.291226
 20
5.781967
  0
VERTEX
  8
0
  6
CONTINUOUS
 10
5.287081
 20
5.036736
  0
VERTEX
  8
0
  6
CONTINUOUS
 10
5.270502
 20
5.040052
  0
SEQEND
  8
0
  0
SOLID
  8
0
 62
    15
 10
5.287081
 20
5.036736
 11
5.291226
 21
5.781967
 12
5.513386
 22
5.036736
 13
5.518359
 23
5.781967
  0
POLYLINE
  8
0
  6
CONTINUOUS
 66
     1
 40
0.000000
 41
0.000000
  0
VERTEX
  8
0
  6
CONTINUOUS
 10
5.287081
 20
5.036736
  0
VERTEX
  8
0
  6
CONTINUOUS
 10
5.291226
 20
5.781967
  0
VERTEX
  8
0
  6
CONTINUOUS
 10
5.518359
 20
5.781967
  0
VERTEX
  8
0
  6
CONTINUOUS
 10
5.513386
 20
5.036736
  0
VERTEX
  8
0
  6
CONTINUOUS
 10
5.287081
 20
5.036736
  0
SEQEND
  8
0
  0
SOLID
  8
0
 62
    15
 10
5.513386
 20
5.036736
 11
5.518359
 21
5.781967
 12
5.515873
 22
5.036736
 13
5.520846
 23
5.781967
  0
POLYLINE
  8
0
  6
CONTINUOUS
 66
     1
 40
0.000000
 41
0.000000
  0
VERTEX
  8
0
  6
CONTINUOUS
 10
5.513386
 20
5.036736
  0
VERTEX
  8
0
  6
CONTINUOUS
 10
5.518359
 20
5.781967
  0
VERTEX
  8
0
  6
CONTINUOUS
 10
5.520846
 20
5.781967
  0
VERTEX
  8
0
  6
CONTINUOUS
 10
5.515873
 20
5.036736
  0
VERTEX
  8
0
  6
CONTINUOUS
 10
5.513386
 20
5.036736
  0
SEQEND
  8
0
  0
SOLID
  8
0
 62
    15
 10
5.515873
 20
5.036736
 11
5.520846
 21
5.781967
 12
5.532452
 22
5.040052
 13
5.537425
 23
5.785283
  0
POLYLINE
  8
0
  6
CONTINUOUS
 66
     1
 40
0.000000
 41
0.000000
  0
VERTEX
  8
0
  6
CONTINUOUS
 10
5.515873
 20
5.036736
  0
VERTEX
  8
0
  6
CONTINUOUS
 10
5.520846
 20
5.781967
  0
VERTEX
  8
0
  6
CONTINUOUS
 10
5.537425
 20
5.785283
  0
VERTEX
  8
0
  6
CONTINUOUS
 10
5.532452
 20
5.040052
  0
VERTEX
  8
0
  6
CONTINUOUS
 10
5.515873
 20
5.036736
  0
SEQEND
  8
0
  0
SOLID
  8
0
 62
    15
 10
5.532452
 20
5.040052
 11
5.537425
 21
5.785283
 12
5.543228
 22
5.049170
 13
5.548202
 23
5.795231
  0
POLYLINE
  8
0
  6
CONTINUOUS
 66
     1
 40
0.000000
 41
0.000000
  0
VERTEX
  8
0
  6
CONTINUOUS
 10
5.532452
 20
5.040052
  0
VERTEX
  8
0
  6
CONTINUOUS
 10
5.537425
 20
5.785283
  0
VERTEX
  8
0
  6
CONTINUOUS
 10
5.548202
 20
5.795231
  0
VERTEX
  8
0
  6
CONTINUOUS
 10
5.543228
 20
5.049170
  0
VERTEX
  8
0
  6
CONTINUOUS
 10
5.532452
 20
5.040052
  0
SEQEND
  8
0
  0
SOLID
  8
0
 62
    15
 10
5.543228
 20
5.049170
 11
5.548202
 21
5.795231
 12
5.549860
 22
5.063263
 13
5.554834
 23
5.809323
  0
POLYLINE
  8
0
  6
CONTINUOUS
 66
     1
 40
0.000000
 41
0.000000
  0
VERTEX
  8
0
  6
CONTINUOUS
 10
5.543228
 20
5.049170
  0
VERTEX
  8
0
  6
CONTINUOUS
 10
5.548202
 20
5.795231
  0
VERTEX
  8
0
  6
CONTINUOUS
 10
5.554834
 20
5.809323
  0
VERTEX
  8
0
  6
CONTINUOUS
 10
5.549860
 20
5.063263
  0
VERTEX
  8
0
  6
CONTINUOUS
 10
5.543228
 20
5.049170
  0
SEQEND
  8
0
  0
SOLID
  8
0
 62
    15
 10
5.549860
 20
5.063263
 11
5.554834
 21
5.809323
 12
5.552347
 22
5.070723
 13
5.557320
 23
5.816784
  0
POLYLINE
  8
0
  6
CONTINUOUS
 66
     1
 40
0.000000
 41
0.000000
  0
VERTEX
  8
0
  6
CONTINUOUS
 10
5.549860
 20
5.063263
  0
VERTEX
  8
0
  6
CONTINUOUS
 10
5.554834
 20
5.809323
  0
VERTEX
  8
0
  6
CONTINUOUS
 10
5.557320
 20
5.816784
  0
VERTEX
  8
0
  6
CONTINUOUS
 10
5.552347
 20
5.070723
  0
VERTEX
  8
0
  6
CONTINUOUS
 10
5.549860
 20
5.063263
  0
SEQEND
  8
0
  0
SOLID
  8
0
 62
    15
 10
5.552347
 20
5.070723
 11
5.557320
 21
5.816784
 12
5.554834
 22
5.079013
 13
5.559807
 23
5.825073
  0
POLYLINE
  8
0
  6
CONTINUOUS
 66
     1
 40
0.000000
 41
0.000000
  0
VERTEX
  8
0
  6
CONTINUOUS
 10
5.552347
 20
5.070723
  0
VERTEX
  8
0
  6
CONTINUOUS
 10
5.557320
 20
5.816784
  0
VERTEX
  8
0
  6
CONTINUOUS
 10
5.559807
 20
5.825073
  0
VERTEX
  8
0
  6
CONTINUOUS
 10
5.554834
 20
5.079013
  0
VERTEX
  8
0
  6
CONTINUOUS
 10
5.552347
 20
5.070723
  0
SEQEND
  8
0
  0
SOLID
  8
0
 62
    15
 10
5.554834
 20
5.079013
 11
5.559807
 21
5.825073
 12
5.566439
 22
5.107197
 13
5.571413
 23
5.853258
  0
POLYLINE
  8
0
  6
CONTINUOUS
 66
     1
 40
0.000000
 41
0.000000
  0
VERTEX
  8
0
  6
CONTINUOUS
 10
5.554834
 20
5.079013
  0
VERTEX
  8
0
  6
CONTINUOUS
 10
5.559807
 20
5.825073
  0
VERTEX
  8
0
  6
CONTINUOUS
 10
5.571413
 20
5.853258
  0
VERTEX
  8
0
  6
CONTINUOUS
 10
5.566439
 20
5.107197
  0
VERTEX
  8
0
  6
CONTINUOUS
 10
5.554834
 20
5.079013
  0
SEQEND
  8
0
  0
SOLID
  8
0
 62
    15
 10
5.566439
 20
5.107197
 11
5.571413
 21
5.853258
 12
5.578044
 22
5.115487
 13
5.582189
 23
5.860718
  0
POLYLINE
  8
0
  6
CONTINUOUS
 66
     1
 40
0.000000
 41
0.000000
  0
VERTEX
  8
0
  6
CONTINUOUS
 10
5.566439
 20
5.107197
  0
VERTEX
  8
0
  6
CONTINUOUS
 10
5.571413
 20
5.853258
  0
VERTEX
  8
0
  6
CONTINUOUS
 10
5.582189
 20
5.860718
  0
VERTEX
  8
0
  6
CONTINUOUS
 10
5.578044
 20
5.115487
  0
VERTEX
  8
0
  6
CONTINUOUS
 10
5.566439
 20
5.107197
  0
SEQEND
  8
0
  0
SOLID
  8
0
 62
    15
 10
5.578044
 20
5.115487
 11
5.582189
 21
5.860718
 12
5.594623
 22
5.116316
 13
5.599597
 23
5.862376
  0
POLYLINE
  8
0
  6
CONTINUOUS
 66
     1
 40
0.000000
 41
0.000000
  0
VERTEX
  8
0
  6
CONTINUOUS
 10
5.578044
 20
5.115487
  0
VERTEX
  8
0
  6
CONTINUOUS
 10
5.582189
 20
5.860718
  0
VERTEX
  8
0
  6
CONTINUOUS
 10
5.599597
 20
5.862376
  0
VERTEX
  8
0
  6
CONTINUOUS
 10
5.594623
 20
5.116316
  0
VERTEX
  8
0
  6
CONTINUOUS
 10
5.578044
 20
5.115487
  0
SEQEND
  8
0
  0
SOLID
  8
0
 62
    15
 10
6.138418
 20
5.024302
 11
6.143392
 21
5.770362
 12
6.138418
 22
5.023473
 13
6.143392
 23
5.768704
  0
POLYLINE
  8
0
  6
CONTINUOUS
 66
     1
 40
0.000000
 41
0.000000
  0
VERTEX
  8
0
  6
CONTINUOUS
 10
6.138418
 20
5.024302
  0
VERTEX
  8
0
  6
CONTINUOUS
 10
6.143392
 20
5.770362
  0
VERTEX
  8
0
  6
CONTINUOUS
 10
6.143392
 20
5.768704
  0
VERTEX
  8
0
  6
CONTINUOUS
 10
6.138418
 20
5.023473
  0
VERTEX
  8
0
  6
CONTINUOUS
 10
6.138418
 20
5.024302
  0
SEQEND
  8
0
  0
SOLID
  8
0
 62
    15
 10
6.036457
 20
5.024302
 11
6.040602
 21
5.770362
 12
6.138418
 22
5.024302
 13
6.143392
 23
5.770362
  0
POLYLINE
  8
0
  6
CONTINUOUS
 66
     1
 40
0.000000
 41
0.000000
  0
VERTEX
  8
0
  6
CONTINUOUS
 10
6.036457
 20
5.024302
  0
VERTEX
  8
0
  6
CONTINUOUS
 10
6.040602
 20
5.770362
  0
VERTEX
  8
0
  6
CONTINUOUS
 10
6.143392
 20
5.770362
  0
VERTEX
  8
0
  6
CONTINUOUS
 10
6.138418
 20
5.024302
  0
VERTEX
  8
0
  6
CONTINUOUS
 10
6.036457
 20
5.024302
  0
SEQEND
  8
0
  0
SOLID
  8
0
 62
    15
 10
6.036457
 20
5.116316
 11
6.040602
 21
5.862376
 12
6.036457
 22
5.024302
 13
6.040602
 23
5.770362
  0
POLYLINE
  8
0
  6
CONTINUOUS
 66
     1
 40
0.000000
 41
0.000000
  0
VERTEX
  8
0
  6
CONTINUOUS
 10
6.036457
 20
5.116316
  0
VERTEX
  8
0
  6
CONTINUOUS
 10
6.040602
 20
5.862376
  0
VERTEX
  8
0
  6
CONTINUOUS
 10
6.040602
 20
5.770362
  0
VERTEX
  8
0
  6
CONTINUOUS
 10
6.036457
 20
5.024302
  0
VERTEX
  8
0
  6
CONTINUOUS
 10
6.036457
 20
5.116316
  0
SEQEND
  8
0
  0
SOLID
  8
0
 62
    15
 10
5.594623
 20
5.116316
 11
5.599597
 21
5.862376
 12
6.036457
 22
5.116316
 13
6.040602
 23
5.862376
  0
POLYLINE
  8
0
  6
CONTINUOUS
 66
     1
 40
0.000000
 41
0.000000
  0
VERTEX
  8
0
  6
CONTINUOUS
 10
5.594623
 20
5.116316
  0
VERTEX
  8
0
  6
CONTINUOUS
 10
5.599597
 20
5.862376
  0
VERTEX
  8
0
  6
CONTINUOUS
 10
6.040602
 20
5.862376
  0
VERTEX
  8
0
  6
CONTINUOUS
 10
6.036457
 20
5.116316
  0
VERTEX
  8
0
  6
CONTINUOUS
 10
5.594623
 20
5.116316
  0
SEQEND
  8
0
  0
SOLID
  8
0
 62
    15
 10
6.138418
 20
5.023473
 11
6.143392
 21
5.768704
 12
6.153340
 22
4.949696
 13
6.158313
 23
5.695756
  0
POLYLINE
  8
0
  6
CONTINUOUS
 66
     1
 40
0.000000
 41
0.000000
  0
VERTEX
  8
0
  6
CONTINUOUS
 10
6.138418
 20
5.023473
  0
VERTEX
  8
0
  6
CONTINUOUS
 10
6.143392
 20
5.768704
  0
VERTEX
  8
0
  6
CONTINUOUS
 10
6.158313
 20
5.695756
  0
VERTEX
  8
0
  6
CONTINUOUS
 10
6.153340
 20
4.949696
  0
VERTEX
  8
0
  6
CONTINUOUS
 10
6.138418
 20
5.023473
  0
SEQEND
  8
0
  0
SOLID
  8
0
 62
    15
 10
6.172406
 20
4.888353
 11
6.177379
 21
5.634413
 12
6.197274
 22
4.838616
 13
6.202248
 23
5.584676
  0
POLYLINE
  8
0
  6
CONTINUOUS
 66
     1
 40
0.000000
 41
0.000000
  0
VERTEX
  8
0
  6
CONTINUOUS
 10
6.172406
 20
4.888353
  0
VERTEX
  8
0
  6
CONTINUOUS
 10
6.177379
 20
5.634413
  0
VERTEX
  8
0
  6
CONTINUOUS
 10
6.202248
 20
5.584676
  0
VERTEX
  8
0
  6
CONTINUOUS
 10
6.197274
 20
4.838616
  0
VERTEX
  8
0
  6
CONTINUOUS
 10
6.172406
 20
4.888353
  0
SEQEND
  8
0
  0
SOLID
  8
0
 62
    15
 10
6.153340
 20
4.949696
 11
6.158313
 21
5.695756
 12
6.172406
 22
4.888353
 13
6.177379
 23
5.634413
  0
POLYLINE
  8
0
  6
CONTINUOUS
 66
     1
 40
0.000000
 41
0.000000
  0
VERTEX
  8
0
  6
CONTINUOUS
 10
6.153340
 20
4.949696
  0
VERTEX
  8
0
  6
CONTINUOUS
 10
6.158313
 20
5.695756
  0
VERTEX
  8
0
  6
CONTINUOUS
 10
6.177379
 20
5.634413
  0
VERTEX
  8
0
  6
CONTINUOUS
 10
6.172406
 20
4.888353
  0
VERTEX
  8
0
  6
CONTINUOUS
 10
6.153340
 20
4.949696
  0
SEQEND
  8
0
  0
SOLID
  8
0
 62
    15
 10
6.197274
 20
4.838616
 11
6.202248
 21
5.584676
 12
6.227117
 22
4.799655
 13
6.232090
 23
5.544886
  0
POLYLINE
  8
0
  6
CONTINUOUS
 66
     1
 40
0.000000
 41
0.000000
  0
VERTEX
  8
0
  6
CONTINUOUS
 10
6.197274
 20
4.838616
  0
VERTEX
  8
0
  6
CONTINUOUS
 10
6.202248
 20
5.584676
  0
VERTEX
  8
0
  6
CONTINUOUS
 10
6.232090
 20
5.544886
  0
VERTEX
  8
0
  6
CONTINUOUS
 10
6.227117
 20
4.799655
  0
VERTEX
  8
0
  6
CONTINUOUS
 10
6.197274
 20
4.838616
  0
SEQEND
  8
0
  0
SOLID
  8
0
 62
    15
 10
6.227117
 20
4.799655
 11
6.232090
 21
5.544886
 12
6.262762
 22
4.768983
 13
6.267736
 23
5.515044
  0
POLYLINE
  8
0
  6
CONTINUOUS
 66
     1
 40
0.000000
 41
0.000000
  0
VERTEX
  8
0
  6
CONTINUOUS
 10
6.227117
 20
4.799655
  0
VERTEX
  8
0
  6
CONTINUOUS
 10
6.232090
 20
5.544886
  0
VERTEX
  8
0
  6
CONTINUOUS
 10
6.267736
 20
5.515044
  0
VERTEX
  8
0
  6
CONTINUOUS
 10
6.262762
 20
4.768983
  0
VERTEX
  8
0
  6
CONTINUOUS
 10
6.227117
 20
4.799655
  0
SEQEND
  8
0
  0
SOLID
  8
0
 62
    15
 10
6.262762
 20
4.768983
 11
6.267736
 21
5.515044
 12
6.305039
 22
4.746602
 13
6.310012
 23
5.492662
  0
POLYLINE
  8
0
  6
CONTINUOUS
 66
     1
 40
0.000000
 41
0.000000
  0
VERTEX
  8
0
  6
CONTINUOUS
 10
6.262762
 20
4.768983
  0
VERTEX
  8
0
  6
CONTINUOUS
 10
6.267736
 20
5.515044
  0
VERTEX
  8
0
  6
CONTINUOUS
 10
6.310012
 20
5.492662
  0
VERTEX
  8
0
  6
CONTINUOUS
 10
6.305039
 20
4.746602
  0
VERTEX
  8
0
  6
CONTINUOUS
 10
6.262762
 20
4.768983
  0
SEQEND
  8
0
  0
SOLID
  8
0
 62
    15
 10
6.305039
 20
4.746602
 11
6.310012
 21
5.492662
 12
6.354776
 22
4.731680
 13
6.358921
 23
5.476912
  0
POLYLINE
  8
0
  6
CONTINUOUS
 66
     1
 40
0.000000
 41
0.000000
  0
VERTEX
  8
0
  6
CONTINUOUS
 10
6.305039
 20
4.746602
  0
VERTEX
  8
0
  6
CONTINUOUS
 10
6.310012
 20
5.492662
  0
VERTEX
  8
0
  6
CONTINUOUS
 10
6.358921
 20
5.476912
  0
VERTEX
  8
0
  6
CONTINUOUS
 10
6.354776
 20
4.731680
  0
VERTEX
  8
0
  6
CONTINUOUS
 10
6.305039
 20
4.746602
  0
SEQEND
  8
0
  0
SOLID
  8
0
 62
    15
 10
6.354776
 20
4.731680
 11
6.358921
 21
5.476912
 12
6.410316
 22
4.721733
 13
6.415290
 23
5.467793
  0
POLYLINE
  8
0
  6
CONTINUOUS
 66
     1
 40
0.000000
 41
0.000000
  0
VERTEX
  8
0
  6
CONTINUOUS
 10
6.354776
 20
4.731680
  0
VERTEX
  8
0
  6
CONTINUOUS
 10
6.358921
 20
5.476912
  0
VERTEX
  8
0
  6
CONTINUOUS
 10
6.415290
 20
5.467793
  0
VERTEX
  8
0
  6
CONTINUOUS
 10
6.410316
 20
4.721733
  0
VERTEX
  8
0
  6
CONTINUOUS
 10
6.354776
 20
4.731680
  0
SEQEND
  8
0
  0
SOLID
  8
0
 62
    15
 10
6.410316
 20
4.721733
 11
6.415290
 21
5.467793
 12
6.413632
 22
4.721733
 13
6.417777
 23
5.467793
  0
POLYLINE
  8
0
  6
CONTINUOUS
 66
     1
 40
0.000000
 41
0.000000
  0
VERTEX
  8
0
  6
CONTINUOUS
 10
6.410316
 20
4.721733
  0
VERTEX
  8
0
  6
CONTINUOUS
 10
6.415290
 20
5.467793
  0
VERTEX
  8
0
  6
CONTINUOUS
 10
6.417777
 20
5.467793
  0
VERTEX
  8
0
  6
CONTINUOUS
 10
6.413632
 20
4.721733
  0
VERTEX
  8
0
  6
CONTINUOUS
 10
6.410316
 20
4.721733
  0
SEQEND
  8
0
  0
SOLID
  8
0
 62
    15
 10
6.413632
 20
4.721733
 11
6.417777
 21
5.467793
 12
6.416119
 22
4.749088
 13
6.420263
 23
5.495149
  0
POLYLINE
  8
0
  6
CONTINUOUS
 66
     1
 40
0.000000
 41
0.000000
  0
VERTEX
  8
0
  6
CONTINUOUS
 10
6.413632
 20
4.721733
  0
VERTEX
  8
0
  6
CONTINUOUS
 10
6.417777
 20
5.467793
  0
VERTEX
  8
0
  6
CONTINUOUS
 10
6.420263
 20
5.495149
  0
VERTEX
  8
0
  6
CONTINUOUS
 10
6.416119
 20
4.749088
  0
VERTEX
  8
0
  6
CONTINUOUS
 10
6.413632
 20
4.721733
  0
SEQEND
  8
0
  0
SOLID
  8
0
 62
    15
 10
6.416119
 20
4.749088
 11
6.420263
 21
5.495149
 12
6.421921
 22
4.772299
 13
6.426066
 23
5.518359
  0
POLYLINE
  8
0
  6
CONTINUOUS
 66
     1
 40
0.000000
 41
0.000000
  0
VERTEX
  8
0
  6
CONTINUOUS
 10
6.416119
 20
4.749088
  0
VERTEX
  8
0
  6
CONTINUOUS
 10
6.420263
 20
5.495149
  0
VERTEX
  8
0
  6
CONTINUOUS
 10
6.426066
 20
5.518359
  0
VERTEX
  8
0
  6
CONTINUOUS
 10
6.421921
 20
4.772299
  0
VERTEX
  8
0
  6
CONTINUOUS
 10
6.416119
 20
4.749088
  0
SEQEND
  8
0
  0
SOLID
  8
0
 62
    15
 10
6.421921
 20
4.772299
 11
6.426066
 21
5.518359
 12
6.430211
 22
4.792194
 13
6.435185
 23
5.538254
  0
POLYLINE
  8
0
  6
CONTINUOUS
 66
     1
 40
0.000000
 41
0.000000
  0
VERTEX
  8
0
  6
CONTINUOUS
 10
6.421921
 20
4.772299
  0
VERTEX
  8
0
  6
CONTINUOUS
 10
6.426066
 20
5.518359
  0
VERTEX
  8
0
  6
CONTINUOUS
 10
6.435185
 20
5.538254
  0
VERTEX
  8
0
  6
CONTINUOUS
 10
6.430211
 20
4.792194
  0
VERTEX
  8
0
  6
CONTINUOUS
 10
6.421921
 20
4.772299
  0
SEQEND
  8
0
  0
SOLID
  8
0
 62
    15
 10
6.430211
 20
4.792194
 11
6.435185
 21
5.538254
 12
6.441816
 22
4.808773
 13
6.445961
 23
5.554005
  0
POLYLINE
  8
0
  6
CONTINUOUS
 66
     1
 40
0.000000
 41
0.000000
  0
VERTEX
  8
0
  6
CONTINUOUS
 10
6.430211
 20
4.792194
  0
VERTEX
  8
0
  6
CONTINUOUS
 10
6.435185
 20
5.538254
  0
VERTEX
  8
0
  6
CONTINUOUS
 10
6.445961
 20
5.554005
  0
VERTEX
  8
0
  6
CONTINUOUS
 10
6.441816
 20
4.808773
  0
VERTEX
  8
0
  6
CONTINUOUS
 10
6.430211
 20
4.792194
  0
SEQEND
  8
0
  0
SOLID
  8
0
 62
    15
 10
6.441816
 20
4.808773
 11
6.445961
 21
5.554005
 12
6.454251
 22
4.820379
 13
6.459224
 23
5.566439
  0
POLYLINE
  8
0
  6
CONTINUOUS
 66
     1
 40
0.000000
 41
0.000000
  0
VERTEX
  8
0
  6
CONTINUOUS
 10
6.441816
 20
4.808773
  0
VERTEX
  8
0
  6
CONTINUOUS
 10
6.445961
 20
5.554005
  0
VERTEX
  8
0
  6
CONTINUOUS
 10
6.459224
 20
5.566439
  0
VERTEX
  8
0
  6
CONTINUOUS
 10
6.454251
 20
4.820379
  0
VERTEX
  8
0
  6
CONTINUOUS
 10
6.441816
 20
4.808773
  0
SEQEND
  8
0
  0
SOLID
  8
0
 62
    15
 10
6.454251
 20
4.820379
 11
6.459224
 21
5.566439
 12
6.468343
 22
4.829497
 13
6.473317
 23
5.575557
  0
POLYLINE
  8
0
  6
CONTINUOUS
 66
     1
 40
0.000000
 41
0.000000
  0
VERTEX
  8
0
  6
CONTINUOUS
 10
6.454251
 20
4.820379
  0
VERTEX
  8
0
  6
CONTINUOUS
 10
6.459224
 20
5.566439
  0
VERTEX
  8
0
  6
CONTINUOUS
 10
6.473317
 20
5.575557
  0
VERTEX
  8
0
  6
CONTINUOUS
 10
6.468343
 20
4.829497
  0
VERTEX
  8
0
  6
CONTINUOUS
 10
6.454251
 20
4.820379
  0
SEQEND
  8
0
  0
SOLID
  8
0
 62
    15
 10
6.468343
 20
4.829497
 11
6.473317
 21
5.575557
 12
6.499843
 22
4.836129
 13
6.503988
 23
5.581360
  0
POLYLINE
  8
0
  6
CONTINUOUS
 66
     1
 40
0.000000
 41
0.000000
  0
VERTEX
  8
0
  6
CONTINUOUS
 10
6.468343
 20
4.829497
  0
VERTEX
  8
0
  6
CONTINUOUS
 10
6.473317
 20
5.575557
  0
VERTEX
  8
0
  6
CONTINUOUS
 10
6.503988
 20
5.581360
  0
VERTEX
  8
0
  6
CONTINUOUS
 10
6.499843
 20
4.836129
  0
VERTEX
  8
0
  6
CONTINUOUS
 10
6.468343
 20
4.829497
  0
SEQEND
  8
0
  0
SOLID
  8
0
 62
    15
 10
6.499843
 20
4.836129
 11
6.503988
 21
5.581360
 12
6.530515
 22
4.827839
 13
6.535488
 23
5.573900
  0
POLYLINE
  8
0
  6
CONTINUOUS
 66
     1
 40
0.000000
 41
0.000000
  0
VERTEX
  8
0
  6
CONTINUOUS
 10
6.499843
 20
4.836129
  0
VERTEX
  8
0
  6
CONTINUOUS
 10
6.503988
 20
5.581360
  0
VERTEX
  8
0
  6
CONTINUOUS
 10
6.535488
 20
5.573900
  0
VERTEX
  8
0
  6
CONTINUOUS
 10
6.530515
 20
4.827839
  0
VERTEX
  8
0
  6
CONTINUOUS
 10
6.499843
 20
4.836129
  0
SEQEND
  8
0
  0
SOLID
  8
0
 62
    15
 10
6.530515
 20
4.827839
 11
6.535488
 21
5.573900
 12
6.557041
 22
4.806286
 13
6.562015
 23
5.551518
  0
POLYLINE
  8
0
  6
CONTINUOUS
 66
     1
 40
0.000000
 41
0.000000
  0
VERTEX
  8
0
  6
CONTINUOUS
 10
6.530515
 20
4.827839
  0
VERTEX
  8
0
  6
CONTINUOUS
 10
6.535488
 20
5.573900
  0
VERTEX
  8
0
  6
CONTINUOUS
 10
6.562015
 20
5.551518
  0
VERTEX
  8
0
  6
CONTINUOUS
 10
6.557041
 20
4.806286
  0
VERTEX
  8
0
  6
CONTINUOUS
 10
6.530515
 20
4.827839
  0
SEQEND
  8
0
  0
SOLID
  8
0
 62
    15
 10
6.557041
 20
4.806286
 11
6.562015
 21
5.551518
 12
6.567818
 22
4.789707
 13
6.572791
 23
5.535768
  0
POLYLINE
  8
0
  6
CONTINUOUS
 66
     1
 40
0.000000
 41
0.000000
  0
VERTEX
  8
0
  6
CONTINUOUS
 10
6.557041
 20
4.806286
  0
VERTEX
  8
0
  6
CONTINUOUS
 10
6.562015
 20
5.551518
  0
VERTEX
  8
0
  6
CONTINUOUS
 10
6.572791
 20
5.535768
  0
VERTEX
  8
0
  6
CONTINUOUS
 10
6.567818
 20
4.789707
  0
VERTEX
  8
0
  6
CONTINUOUS
 10
6.557041
 20
4.806286
  0
SEQEND
  8
0
  0
SOLID
  8
0
 62
    15
 10
6.576107
 20
4.770641
 11
6.581081
 21
5.516702
 12
6.581910
 22
4.748259
 13
6.586884
 23
5.493491
  0
POLYLINE
  8
0
  6
CONTINUOUS
 66
     1
 40
0.000000
 41
0.000000
  0
VERTEX
  8
0
  6
CONTINUOUS
 10
6.576107
 20
4.770641
  0
VERTEX
  8
0
  6
CONTINUOUS
 10
6.581081
 20
5.516702
  0
VERTEX
  8
0
  6
CONTINUOUS
 10
6.586884
 20
5.493491
  0
VERTEX
  8
0
  6
CONTINUOUS
 10
6.581910
 20
4.748259
  0
VERTEX
  8
0
  6
CONTINUOUS
 10
6.576107
 20
4.770641
  0
SEQEND
  8
0
  0
SOLID
  8
0
 62
    15
 10
6.567818
 20
4.789707
 11
6.572791
 21
5.535768
 12
6.576107
 22
4.770641
 13
6.581081
 23
5.516702
  0
POLYLINE
  8
0
  6
CONTINUOUS
 66
     1
 40
0.000000
 41
0.000000
  0
VERTEX
  8
0
  6
CONTINUOUS
 10
6.567818
 20
4.789707
  0
VERTEX
  8
0
  6
CONTINUOUS
 10
6.572791
 20
5.535768
  0
VERTEX
  8
0
  6
CONTINUOUS
 10
6.581081
 20
5.516702
  0
VERTEX
  8
0
  6
CONTINUOUS
 10
6.576107
 20
4.770641
  0
VERTEX
  8
0
  6
CONTINUOUS
 10
6.567818
 20
4.789707
  0
SEQEND
  8
0
  0
SOLID
  8
0
 62
    15
 10
6.670608
 20
4.721733
 11
6.675582
 21
5.467793
 12
6.670608
 22
4.577495
 13
6.675582
 23
5.323555
  0
POLYLINE
  8
0
  6
CONTINUOUS
 66
     1
 40
0.000000
 41
0.000000
  0
VERTEX
  8
0
  6
CONTINUOUS
 10
6.670608
 20
4.721733
  0
VERTEX
  8
0
  6
CONTINUOUS
 10
6.675582
 20
5.467793
  0
VERTEX
  8
0
  6
CONTINUOUS
 10
6.675582
 20
5.323555
  0
VERTEX
  8
0
  6
CONTINUOUS
 10
6.670608
 20
4.577495
  0
VERTEX
  8
0
  6
CONTINUOUS
 10
6.670608
 20
4.721733
  0
SEQEND
  8
0
  0
SOLID
  8
0
 62
    15
 10
6.584397
 20
4.721733
 11
6.588542
 21
5.467793
 12
6.670608
 22
4.721733
 13
6.675582
 23
5.467793
  0
POLYLINE
  8
0
  6
CONTINUOUS
 66
     1
 40
0.000000
 41
0.000000
  0
VERTEX
  8
0
  6
CONTINUOUS
 10
6.584397
 20
4.721733
  0
VERTEX
  8
0
  6
CONTINUOUS
 10
6.588542
 20
5.467793
  0
VERTEX
  8
0
  6
CONTINUOUS
 10
6.675582
 20
5.467793
  0
VERTEX
  8
0
  6
CONTINUOUS
 10
6.670608
 20
4.721733
  0
VERTEX
  8
0
  6
CONTINUOUS
 10
6.584397
 20
4.721733
  0
SEQEND
  8
0
  0
SOLID
  8
0
 62
    15
 10
6.581910
 20
4.748259
 11
6.586884
 21
5.493491
 12
6.584397
 22
4.721733
 13
6.588542
 23
5.467793
  0
POLYLINE
  8
0
  6
CONTINUOUS
 66
     1
 40
0.000000
 41
0.000000
  0
VERTEX
  8
0
  6
CONTINUOUS
 10
6.581910
 20
4.748259
  0
VERTEX
  8
0
  6
CONTINUOUS
 10
6.586884
 20
5.493491
  0
VERTEX
  8
0
  6
CONTINUOUS
 10
6.588542
 20
5.467793
  0
VERTEX
  8
0
  6
CONTINUOUS
 10
6.584397
 20
4.721733
  0
VERTEX
  8
0
  6
CONTINUOUS
 10
6.581910
 20
4.748259
  0
SEQEND
  8
0
  0
SOLID
  8
0
 62
    15
 10
2.195075
 20
5.420543
 11
2.199220
 21
6.165774
 12
2.201707
 22
5.420543
 13
2.205852
 23
6.165774
  0
POLYLINE
  8
0
  6
CONTINUOUS
 66
     1
 40
0.000000
 41
0.000000
  0
VERTEX
  8
0
  6
CONTINUOUS
 10
2.195075
 20
5.420543
  0
VERTEX
  8
0
  6
CONTINUOUS
 10
2.199220
 20
6.165774
  0
VERTEX
  8
0
  6
CONTINUOUS
 10
2.205852
 20
6.165774
  0
VERTEX
  8
0
  6
CONTINUOUS
 10
2.201707
 20
5.420543
  0
VERTEX
  8
0
  6
CONTINUOUS
 10
2.195075
 20
5.420543
  0
SEQEND
  8
0
  0
POLYLINE
  8
0
  6
CONTINUOUS
 66
     1
 40
0.000000
 41
0.000000
  0
VERTEX
  8
0
  6
CONTINUOUS
 10
2.201707
 20
5.420543
  0
VERTEX
  8
0
  6
CONTINUOUS
 10
2.933675
 20
5.420543
  0
VERTEX
  8
0
  6
CONTINUOUS
 10
2.933675
 20
5.353397
  0
VERTEX
  8
0
  6
CONTINUOUS
 10
2.980096
 20
5.354226
  0
VERTEX
  8
0
  6
CONTINUOUS
 10
3.020715
 20
5.350910
  0
VERTEX
  8
0
  6
CONTINUOUS
 10
3.055531
 20
5.345108
  0
VERTEX
  8
0
  6
CONTINUOUS
 10
3.084545
 20
5.336818
  0
VERTEX
  8
0
  6
CONTINUOUS
 10
3.131795
 20
5.313607
  0
VERTEX
  8
0
  6
CONTINUOUS
 10
3.167441
 20
5.286252
  0
VERTEX
  8
0
  6
CONTINUOUS
 10
3.230441
 20
5.228225
  0
VERTEX
  8
0
  6
CONTINUOUS
 10
3.269402
 20
5.205843
  0
VERTEX
  8
0
  6
CONTINUOUS
 10
3.293442
 20
5.196725
  0
VERTEX
  8
0
  6
CONTINUOUS
 10
3.321626
 20
5.190922
  0
VERTEX
  8
0
  6
CONTINUOUS
 10
3.464207
 20
5.190922
  0
VERTEX
  8
0
  6
CONTINUOUS
 10
3.464207
 20
5.116316
  0
VERTEX
  8
0
  6
CONTINUOUS
 10
3.804908
 20
5.115487
  0
VERTEX
  8
0
  6
CONTINUOUS
 10
3.815684
 20
5.107197
  0
VERTEX
  8
0
  6
CONTINUOUS
 10
3.839724
 20
5.049170
  0
VERTEX
  8
0
  6
CONTINUOUS
 10
3.850500
 20
5.040052
  0
VERTEX
  8
0
  6
CONTINUOUS
 10
3.867079
 20
5.036736
  0
VERTEX
  8
0
  6
CONTINUOUS
 10
4.097529
 20
5.036736
  0
VERTEX
  8
0
  6
CONTINUOUS
 10
4.114108
 20
5.040052
  0
VERTEX
  8
0
  6
CONTINUOUS
 10
4.124885
 20
5.049170
  0
VERTEX
  8
0
  6
CONTINUOUS
 10
4.148095
 20
5.107197
  0
VERTEX
  8
0
  6
CONTINUOUS
 10
4.158872
 20
5.115487
  0
VERTEX
  8
0
  6
CONTINUOUS
 10
4.250886
 20
5.116316
  0
VERTEX
  8
0
  6
CONTINUOUS
 10
4.249228
 20
5.116316
  0
VERTEX
  8
0
  6
CONTINUOUS
 10
4.266636
 20
5.115487
  0
VERTEX
  8
0
  6
CONTINUOUS
 10
4.277412
 20
5.107197
  0
VERTEX
  8
0
  6
CONTINUOUS
 10
4.300623
 20
5.049170
  0
VERTEX
  8
0
  6
CONTINUOUS
 10
4.311400
 20
5.040052
  0
VERTEX
  8
0
  6
CONTINUOUS
 10
4.327979
 20
5.036736
  0
VERTEX
  8
0
  6
CONTINUOUS
 10
4.585784
 20
5.036736
  0
VERTEX
  8
0
  6
CONTINUOUS
 10
4.601534
 20
5.040052
  0
VERTEX
  8
0
  6
CONTINUOUS
 10
4.612311
 20
5.049170
  0
VERTEX
  8
0
  6
CONTINUOUS
 10
4.636350
 20
5.107197
  0
VERTEX
  8
0
  6
CONTINUOUS
 10
4.647127
 20
5.115487
  0
VERTEX
  8
0
  6
CONTINUOUS
 10
4.755720
 20
5.115487
  0
VERTEX
  8
0
  6
CONTINUOUS
 10
4.766496
 20
5.107197
  0
VERTEX
  8
0
  6
CONTINUOUS
 10
4.790536
 20
5.049170
  0
VERTEX
  8
0
  6
CONTINUOUS
 10
4.801313
 20
5.040052
  0
VERTEX
  8
0
  6
CONTINUOUS
 10
4.817063
 20
5.036736
  0
VERTEX
  8
0
  6
CONTINUOUS
 10
5.048341
 20
5.036736
  0
VERTEX
  8
0
  6
CONTINUOUS
 10
5.064921
 20
5.040052
  0
VERTEX
  8
0
  6
CONTINUOUS
 10
5.074868
 20
5.049170
  0
VERTEX
  8
0
  6
CONTINUOUS
 10
5.098908
 20
5.107197
  0
VERTEX
  8
0
  6
CONTINUOUS
 10
5.109684
 20
5.115487
  0
VERTEX
  8
0
  6
CONTINUOUS
 10
5.224909
 20
5.115487
  0
VERTEX
  8
0
  6
CONTINUOUS
 10
5.235685
 20
5.107197
  0
VERTEX
  8
0
  6
CONTINUOUS
 10
5.259725
 20
5.049170
  0
VERTEX
  8
0
  6
CONTINUOUS
 10
5.270502
 20
5.040052
  0
VERTEX
  8
0
  6
CONTINUOUS
 10
5.287081
 20
5.036736
  0
VERTEX
  8
0
  6
CONTINUOUS
 10
5.515873
 20
5.036736
  0
VERTEX
  8
0
  6
CONTINUOUS
 10
5.532452
 20
5.040052
  0
VERTEX
  8
0
  6
CONTINUOUS
 10
5.543228
 20
5.049170
  0
VERTEX
  8
0
  6
CONTINUOUS
 10
5.566439
 20
5.107197
  0
VERTEX
  8
0
  6
CONTINUOUS
 10
5.578044
 20
5.115487
  0
VERTEX
  8
0
  6
CONTINUOUS
 10
6.036457
 20
5.116316
  0
VERTEX
  8
0
  6
CONTINUOUS
 10
6.036457
 20
5.024302
  0
VERTEX
  8
0
  6
CONTINUOUS
 10
6.138418
 20
5.023473
  0
VERTEX
  8
0
  6
CONTINUOUS
 10
6.153340
 20
4.949696
  0
VERTEX
  8
0
  6
CONTINUOUS
 10
6.172406
 20
4.888353
  0
VERTEX
  8
0
  6
CONTINUOUS
 10
6.197274
 20
4.838616
  0
VERTEX
  8
0
  6
CONTINUOUS
 10
6.227117
 20
4.799655
  0
VERTEX
  8
0
  6
CONTINUOUS
 10
6.262762
 20
4.768983
  0
VERTEX
  8
0
  6
CONTINUOUS
 10
6.305039
 20
4.746602
  0
VERTEX
  8
0
  6
CONTINUOUS
 10
6.354776
 20
4.731680
  0
VERTEX
  8
0
  6
CONTINUOUS
 10
6.413632
 20
4.721733
  0
VERTEX
  8
0
  6
CONTINUOUS
 10
6.416119
 20
4.749088
  0
VERTEX
  8
0
  6
CONTINUOUS
 10
6.421921
 20
4.772299
  0
VERTEX
  8
0
  6
CONTINUOUS
 10
6.430211
 20
4.792194
  0
VERTEX
  8
0
  6
CONTINUOUS
 10
6.441816
 20
4.808773
  0
VERTEX
  8
0
  6
CONTINUOUS
 10
6.468343
 20
4.829497
  0
VERTEX
  8
0
  6
CONTINUOUS
 10
6.499843
 20
4.836129
  0
VERTEX
  8
0
  6
CONTINUOUS
 10
6.530515
 20
4.827839
  0
VERTEX
  8
0
  6
CONTINUOUS
 10
6.557041
 20
4.806286
  0
VERTEX
  8
0
  6
CONTINUOUS
 10
6.567818
 20
4.789707
  0
VERTEX
  8
0
  6
CONTINUOUS
 10
6.576107
 20
4.770641
  0
VERTEX
  8
0
  6
CONTINUOUS
 10
6.581910
 20
4.748259
  0
VERTEX
  8
0
  6
CONTINUOUS
 10
6.584397
 20
4.721733
  0
VERTEX
  8
0
  6
CONTINUOUS
 10
6.670608
 20
4.721733
  0
VERTEX
  8
0
  6
CONTINUOUS
 10
6.670608
 20
4.577495
  0
VERTEX
  8
0
  6
CONTINUOUS
 10
2.195075
 20
4.577495
  0
VERTEX
  8
0
  6
CONTINUOUS
 10
2.195075
 20
5.420543
  0
VERTEX
  8
0
  6
CONTINUOUS
 10
2.201707
 20
5.420543
  0
SEQEND
  8
0
  0
TEXT
  8
0
 10
4.186227
 20
4.336268
 40
0.134232
  1
BA  87
 41
1.000000
  7
SN1
 71
     0
 72
     5
 11
4.677417
 21
4.336268
  0
TEXT
  8
0
 10
3.938370
 20
4.144780
 40
0.134232
  1
7/8" x 4-7/16"
 41
1.000000
  7
SN1
 71
     0
 72
     5
 11
4.917968
 21
4.144780
  0
ENDSEC
  0
EOF
