  0
SECTION
  2
HEADER
  9
$ACADVER
  1
AC1006
  9
$EXTMIN
 10
2.791360
 20
1.540000
  9
$EXTMAX
 10
5.533000
 20
4.918760
  9
$LTSCALE
 40
0.044000
  9
$PDMODE
 70
    35
  9
$PDSIZE
 40
0.035200
  0
ENDSEC
  0
SECTION
  2
TABLES
  0
TABLE
  2
LTYPE
 70
     9
  0
LTYPE
  2
CONTINUOUS
 70
    64
  3
Solid line
 72
    65
 73
     0
 40
0.000000
  0
LTYPE
  2
DASHED
 70
    64
  3
__ __ __ __ __ __ __ __ __ __ __ __ __ __ __
 72
    65
 73
     2
 40
0.000330
 49
0.000220
 49
-0.000110
  0
LTYPE
  2
HIDDEN
 70
    64
  3
 _ _ _ _ _ _ _ _ _ _ _ _ _ _ _ _ _ _ _ _ _ _
 72
    65
 73
     2
 40
0.000165
 49
0.000110
 49
-0.000055
  0
LTYPE
  2
CENTER
 70
    64
  3
____ _ ____ _ ____ _ ____ _ ____ _ ____ _ ____
 72
    65
 73
     4
 40
0.000880
 49
0.000550
 49
-0.000110
 49
0.000110
 49
-0.000110
  0
LTYPE
  2
PHANTOM
 70
    64
  3
_____ _ _ _____ _ _ _____ _ _ _____ _ _ ____
 72
    65
 73
     6
 40
0.001100
 49
0.000550
 49
-0.000110
 49
0.000110
 49
-0.000110
 49
0.000110
 49
-0.000110
  0
LTYPE
  2
DOT
 70
    64
  3
...............................................
 72
    65
 73
     2
 40
0.000110
 49
0.000000
 49
-0.000110
  0
LTYPE
  2
DASHDOT
 70
    64
  3
__ . __ . __ . __ . __ . __ . __ . __ . __ . __
 72
    65
 73
     4
 40
0.000440
 49
0.000220
 49
-0.000110
 49
0.000000
 49
-0.000110
  0
LTYPE
  2
BORDER
 70
    64
  3
__ __ . __ __ . __ __ . __ __ . __ __ . __ __
 72
    65
 73
     6
 40
0.000770
 49
0.000220
 49
-0.000110
 49
0.000220
 49
-0.000110
 49
0.000000
 49
-0.000110
  0
LTYPE
  2
DIVIDE
 70
    64
  3
__ . . __ . . __ . . __ . . __ . . __ . . __
 72
    65
 73
     6
 40
0.000550
 49
0.000220
 49
-0.000110
 49
0.000000
 49
-0.000110
 49
0.000000
 49
-0.000110
  0
LTYPE
  2
DOTDOT
 70
    64
  3
 . .  . .  . .  . .  . .  . . 
 72
    65
 73
     5
 40
0.000242
 49
-0.000110
 49
0.000000
 49
-0.000110
 49
0.000000
 49
-0.000110
  0
ENDTAB
  0
TABLE
  2
STYLE
 70
     2
  0
STYLE
 70
     0
  2
SN0
 40
0.000000
 41
0.000440
 50
0.000000
 71
     0
 42
0.000000
  3
ROMAND
  0
STYLE
 70
    68
  2
SV0
 40
0.000000
 41
0.000440
 50
0.000000
 71
     0
 42
0.000000
  3
ROMAND
  0
ENDTAB
  0
TABLE
  2
LAYER
 70
     3
  0
LAYER
  2
FOREGROUND
 70
    64
 62
     7
  6
CONTINUOUS
  0
LAYER
  2
BACKGROUND
 70
    65
 62
    -7
  6
CONTINUOUS
  0
LAYER
  2
0
 70
    64
 62
     7
  6
CONTINUOUS
  0
ENDTAB
  0
ENDSEC
  0
SECTION
  2
ENTITIES
  0
POLYLINE
  8
FOREGROUND
  6
CONTINUOUS
 66
     1
 40
0.000000
 41
0.000000
  0
VERTEX
  8
FOREGROUND
  6
CONTINUOUS
 10
0.000000
 20
6.458760
  0
VERTEX
  8
FOREGROUND
  6
CONTINUOUS
 10
8.499920
 20
6.458760
  0
VERTEX
  8
FOREGROUND
  6
CONTINUOUS
 10
8.499920
 20
-4.541240
  0
VERTEX
  8
FOREGROUND
  6
CONTINUOUS
 10
0.000000
 20
-4.541240
  0
VERTEX
  8
FOREGROUND
  6
CONTINUOUS
 10
0.000000
 20
6.458760
  0
SEQEND
  8
0
  0
POLYLINE
  8
FOREGROUND
  6
CONTINUOUS
 66
     1
 40
0.000000
 41
0.000000
  0
VERTEX
  8
FOREGROUND
  6
CONTINUOUS
 10
0.000000
 20
6.458760
  0
VERTEX
  8
FOREGROUND
  6
CONTINUOUS
 10
8.499920
 20
6.458760
  0
VERTEX
  8
FOREGROUND
  6
CONTINUOUS
 10
8.499920
 20
-4.541240
  0
VERTEX
  8
FOREGROUND
  6
CONTINUOUS
 10
0.000000
 20
-4.541240
  0
VERTEX
  8
FOREGROUND
  6
CONTINUOUS
 10
0.000000
 20
6.458760
  0
SEQEND
  8
0
  0
POLYLINE
  8
0
  6
CONTINUOUS
 66
     1
 40
0.014080
 41
0.014080
  0
VERTEX
  8
0
  6
CONTINUOUS
 10
5.118080
 20
4.335320
  0
VERTEX
  8
0
  6
CONTINUOUS
 10
2.945800
 20
4.335320
  0
VERTEX
  8
0
  6
CONTINUOUS
 10
2.797960
 20
4.552680
  0
VERTEX
  8
0
  6
CONTINUOUS
 10
2.836240
 20
4.604600
  0
VERTEX
  8
0
  6
CONTINUOUS
 10
2.878920
 20
4.653000
  0
VERTEX
  8
0
  6
CONTINUOUS
 10
2.910160
 20
4.683360
  0
VERTEX
  8
0
  6
CONTINUOUS
 10
2.942720
 20
4.711520
  0
VERTEX
  8
0
  6
CONTINUOUS
 10
2.977040
 20
4.738360
  0
VERTEX
  8
0
  6
CONTINUOUS
 10
3.013120
 20
4.763440
  0
VERTEX
  8
0
  6
CONTINUOUS
 10
3.050520
 20
4.786760
  0
VERTEX
  8
0
  6
CONTINUOUS
 10
3.089680
 20
4.808320
  0
VERTEX
  8
0
  6
CONTINUOUS
 10
3.129720
 20
4.827680
  0
VERTEX
  8
0
  6
CONTINUOUS
 10
3.171080
 20
4.845280
  0
VERTEX
  8
0
  6
CONTINUOUS
 10
3.213320
 20
4.860680
  0
VERTEX
  8
0
  6
CONTINUOUS
 10
3.256440
 20
4.874320
  0
VERTEX
  8
0
  6
CONTINUOUS
 10
3.300440
 20
4.885760
  0
VERTEX
  8
0
  6
CONTINUOUS
 10
3.345320
 20
4.895440
  0
VERTEX
  8
0
  6
CONTINUOUS
 10
3.390640
 20
4.902480
  0
VERTEX
  8
0
  6
CONTINUOUS
 10
3.436400
 20
4.907760
  0
VERTEX
  8
0
  6
CONTINUOUS
 10
3.483040
 20
4.910840
  0
VERTEX
  8
0
  6
CONTINUOUS
 10
3.529680
 20
4.911280
  0
VERTEX
  8
0
  6
CONTINUOUS
 10
3.576320
 20
4.909960
  0
VERTEX
  8
0
  6
CONTINUOUS
 10
3.623400
 20
4.906000
  0
VERTEX
  8
0
  6
CONTINUOUS
 10
3.670040
 20
4.899400
  0
VERTEX
  8
0
  6
CONTINUOUS
 10
3.717120
 20
4.890600
  0
VERTEX
  8
0
  6
CONTINUOUS
 10
3.786640
 20
4.873000
  0
VERTEX
  8
0
  6
CONTINUOUS
 10
3.855720
 20
4.849240
  0
VERTEX
  8
0
  6
CONTINUOUS
 10
3.923480
 20
4.820200
  0
VERTEX
  8
0
  6
CONTINUOUS
 10
3.989480
 20
4.784560
  0
VERTEX
  8
0
  6
CONTINUOUS
 10
4.032160
 20
4.757720
  0
VERTEX
  8
0
  6
CONTINUOUS
 10
4.095080
 20
4.712400
  0
VERTEX
  8
0
  6
CONTINUOUS
 10
4.117960
 20
4.694360
  0
VERTEX
  8
0
  6
CONTINUOUS
 10
4.389880
 20
4.894120
  0
VERTEX
  8
0
  6
CONTINUOUS
 10
4.418480
 20
4.866400
  0
VERTEX
  8
0
  6
CONTINUOUS
 10
4.446200
 20
4.842640
  0
VERTEX
  8
0
  6
CONTINUOUS
 10
4.503400
 20
4.800840
  0
VERTEX
  8
0
  6
CONTINUOUS
 10
4.532880
 20
4.782800
  0
VERTEX
  8
0
  6
CONTINUOUS
 10
4.562360
 20
4.766960
  0
VERTEX
  8
0
  6
CONTINUOUS
 10
4.623080
 20
4.741440
  0
VERTEX
  8
0
  6
CONTINUOUS
 10
4.653440
 20
4.731320
  0
VERTEX
  8
0
  6
CONTINUOUS
 10
4.715040
 20
4.716800
  0
VERTEX
  8
0
  6
CONTINUOUS
 10
4.745840
 20
4.711960
  0
VERTEX
  8
0
  6
CONTINUOUS
 10
4.777080
 20
4.708880
  0
VERTEX
  8
0
  6
CONTINUOUS
 10
4.807880
 20
4.707560
  0
VERTEX
  8
0
  6
CONTINUOUS
 10
4.869920
 20
4.709760
  0
VERTEX
  8
0
  6
CONTINUOUS
 10
4.900280
 20
4.712840
  0
VERTEX
  8
0
  6
CONTINUOUS
 10
4.960560
 20
4.723840
  0
VERTEX
  8
0
  6
CONTINUOUS
 10
4.990480
 20
4.730880
  0
VERTEX
  8
0
  6
CONTINUOUS
 10
5.048560
 20
4.749800
  0
VERTEX
  8
0
  6
CONTINUOUS
 10
5.077160
 20
4.760800
  0
VERTEX
  8
0
  6
CONTINUOUS
 10
5.132160
 20
4.786760
  0
VERTEX
  8
0
  6
CONTINUOUS
 10
5.184960
 20
4.817120
  0
VERTEX
  8
0
  6
CONTINUOUS
 10
5.234240
 20
4.851000
  0
VERTEX
  8
0
  6
CONTINUOUS
 10
5.280440
 20
4.888840
  0
VERTEX
  8
0
  6
CONTINUOUS
 10
5.302000
 20
4.908640
  0
VERTEX
  8
0
  6
CONTINUOUS
 10
5.528600
 20
4.624840
  0
VERTEX
  8
0
  6
CONTINUOUS
 10
5.120720
 20
4.335320
  0
VERTEX
  8
0
  6
CONTINUOUS
 10
5.118080
 20
4.335320
  0
SEQEND
  8
0
  0
SOLID
  8
0
 62
    15
 10
4.029960
 20
3.041280
 11
4.675440
 21
2.681360
 12
3.930520
 22
3.011360
 13
4.576000
 23
2.651440
  0
POLYLINE
  8
0
  6
CONTINUOUS
 66
     1
 40
0.000000
 41
0.000000
  0
VERTEX
  8
0
  6
CONTINUOUS
 10
4.029960
 20
3.041280
  0
VERTEX
  8
0
  6
CONTINUOUS
 10
4.675440
 20
2.681360
  0
VERTEX
  8
0
  6
CONTINUOUS
 10
4.576000
 20
2.651440
  0
VERTEX
  8
0
  6
CONTINUOUS
 10
3.930520
 20
3.011360
  0
VERTEX
  8
0
  6
CONTINUOUS
 10
4.029960
 20
3.041280
  0
SEQEND
  8
0
  0
SOLID
  8
0
 62
    15
 10
4.620000
 20
4.074840
 11
5.265480
 21
3.714920
 12
4.634080
 22
3.989920
 13
5.280000
 23
3.630000
  0
POLYLINE
  8
0
  6
CONTINUOUS
 66
     1
 40
0.000000
 41
0.000000
  0
VERTEX
  8
0
  6
CONTINUOUS
 10
4.620000
 20
4.074840
  0
VERTEX
  8
0
  6
CONTINUOUS
 10
5.265480
 20
3.714920
  0
VERTEX
  8
0
  6
CONTINUOUS
 10
5.280000
 20
3.630000
  0
VERTEX
  8
0
  6
CONTINUOUS
 10
4.634080
 20
3.989920
  0
VERTEX
  8
0
  6
CONTINUOUS
 10
4.620000
 20
4.074840
  0
SEQEND
  8
0
  0
SOLID
  8
0
 62
    15
 10
4.634080
 20
3.989920
 11
5.280000
 21
3.630000
 12
4.638920
 22
3.902800
 13
5.284400
 23
3.543320
  0
POLYLINE
  8
0
  6
CONTINUOUS
 66
     1
 40
0.000000
 41
0.000000
  0
VERTEX
  8
0
  6
CONTINUOUS
 10
4.634080
 20
3.989920
  0
VERTEX
  8
0
  6
CONTINUOUS
 10
5.280000
 20
3.630000
  0
VERTEX
  8
0
  6
CONTINUOUS
 10
5.284400
 20
3.543320
  0
VERTEX
  8
0
  6
CONTINUOUS
 10
4.638920
 20
3.902800
  0
VERTEX
  8
0
  6
CONTINUOUS
 10
4.634080
 20
3.989920
  0
SEQEND
  8
0
  0
SOLID
  8
0
 62
    15
 10
4.638920
 20
3.902800
 11
5.284400
 21
3.543320
 12
4.634520
 22
3.815240
 13
5.280000
 23
3.455320
  0
POLYLINE
  8
0
  6
CONTINUOUS
 66
     1
 40
0.000000
 41
0.000000
  0
VERTEX
  8
0
  6
CONTINUOUS
 10
4.638920
 20
3.902800
  0
VERTEX
  8
0
  6
CONTINUOUS
 10
5.284400
 20
3.543320
  0
VERTEX
  8
0
  6
CONTINUOUS
 10
5.280000
 20
3.455320
  0
VERTEX
  8
0
  6
CONTINUOUS
 10
4.634520
 20
3.815240
  0
VERTEX
  8
0
  6
CONTINUOUS
 10
4.638920
 20
3.902800
  0
SEQEND
  8
0
  0
SOLID
  8
0
 62
    15
 10
4.634520
 20
3.815240
 11
5.280000
 21
3.455320
 12
4.620440
 22
3.727240
 13
5.266360
 23
3.367320
  0
POLYLINE
  8
0
  6
CONTINUOUS
 66
     1
 40
0.000000
 41
0.000000
  0
VERTEX
  8
0
  6
CONTINUOUS
 10
4.634520
 20
3.815240
  0
VERTEX
  8
0
  6
CONTINUOUS
 10
5.280000
 20
3.455320
  0
VERTEX
  8
0
  6
CONTINUOUS
 10
5.266360
 20
3.367320
  0
VERTEX
  8
0
  6
CONTINUOUS
 10
4.620440
 20
3.727240
  0
VERTEX
  8
0
  6
CONTINUOUS
 10
4.634520
 20
3.815240
  0
SEQEND
  8
0
  0
SOLID
  8
0
 62
    15
 10
4.620440
 20
3.727240
 11
5.266360
 21
3.367320
 12
4.598000
 22
3.640560
 13
5.243480
 23
3.280640
  0
POLYLINE
  8
0
  6
CONTINUOUS
 66
     1
 40
0.000000
 41
0.000000
  0
VERTEX
  8
0
  6
CONTINUOUS
 10
4.620440
 20
3.727240
  0
VERTEX
  8
0
  6
CONTINUOUS
 10
5.266360
 20
3.367320
  0
VERTEX
  8
0
  6
CONTINUOUS
 10
5.243480
 20
3.280640
  0
VERTEX
  8
0
  6
CONTINUOUS
 10
4.598000
 20
3.640560
  0
VERTEX
  8
0
  6
CONTINUOUS
 10
4.620440
 20
3.727240
  0
SEQEND
  8
0
  0
SOLID
  8
0
 62
    15
 10
4.598000
 20
3.640560
 11
5.243480
 21
3.280640
 12
4.566320
 22
3.555200
 13
5.211800
 23
3.195280
  0
POLYLINE
  8
0
  6
CONTINUOUS
 66
     1
 40
0.000000
 41
0.000000
  0
VERTEX
  8
0
  6
CONTINUOUS
 10
4.598000
 20
3.640560
  0
VERTEX
  8
0
  6
CONTINUOUS
 10
5.243480
 20
3.280640
  0
VERTEX
  8
0
  6
CONTINUOUS
 10
5.211800
 20
3.195280
  0
VERTEX
  8
0
  6
CONTINUOUS
 10
4.566320
 20
3.555200
  0
VERTEX
  8
0
  6
CONTINUOUS
 10
4.598000
 20
3.640560
  0
SEQEND
  8
0
  0
SOLID
  8
0
 62
    15
 10
4.566320
 20
3.555200
 11
5.211800
 21
3.195280
 12
4.526720
 22
3.472480
 13
5.172200
 23
3.112560
  0
POLYLINE
  8
0
  6
CONTINUOUS
 66
     1
 40
0.000000
 41
0.000000
  0
VERTEX
  8
0
  6
CONTINUOUS
 10
4.566320
 20
3.555200
  0
VERTEX
  8
0
  6
CONTINUOUS
 10
5.211800
 20
3.195280
  0
VERTEX
  8
0
  6
CONTINUOUS
 10
5.172200
 20
3.112560
  0
VERTEX
  8
0
  6
CONTINUOUS
 10
4.526720
 20
3.472480
  0
VERTEX
  8
0
  6
CONTINUOUS
 10
4.566320
 20
3.555200
  0
SEQEND
  8
0
  0
SOLID
  8
0
 62
    15
 10
4.526720
 20
3.472480
 11
5.172200
 21
3.112560
 12
4.478320
 22
3.393280
 13
5.123800
 23
3.033800
  0
POLYLINE
  8
0
  6
CONTINUOUS
 66
     1
 40
0.000000
 41
0.000000
  0
VERTEX
  8
0
  6
CONTINUOUS
 10
4.526720
 20
3.472480
  0
VERTEX
  8
0
  6
CONTINUOUS
 10
5.172200
 20
3.112560
  0
VERTEX
  8
0
  6
CONTINUOUS
 10
5.123800
 20
3.033800
  0
VERTEX
  8
0
  6
CONTINUOUS
 10
4.478320
 20
3.393280
  0
VERTEX
  8
0
  6
CONTINUOUS
 10
4.526720
 20
3.472480
  0
SEQEND
  8
0
  0
SOLID
  8
0
 62
    15
 10
4.478320
 20
3.393280
 11
5.123800
 21
3.033800
 12
4.422440
 22
3.318920
 13
5.067920
 23
2.959000
  0
POLYLINE
  8
0
  6
CONTINUOUS
 66
     1
 40
0.000000
 41
0.000000
  0
VERTEX
  8
0
  6
CONTINUOUS
 10
4.478320
 20
3.393280
  0
VERTEX
  8
0
  6
CONTINUOUS
 10
5.123800
 20
3.033800
  0
VERTEX
  8
0
  6
CONTINUOUS
 10
5.067920
 20
2.959000
  0
VERTEX
  8
0
  6
CONTINUOUS
 10
4.422440
 20
3.318920
  0
VERTEX
  8
0
  6
CONTINUOUS
 10
4.478320
 20
3.393280
  0
SEQEND
  8
0
  0
SOLID
  8
0
 62
    15
 10
4.422440
 20
3.318920
 11
5.067920
 21
2.959000
 12
4.358200
 22
3.249400
 13
5.003680
 23
2.889480
  0
POLYLINE
  8
0
  6
CONTINUOUS
 66
     1
 40
0.000000
 41
0.000000
  0
VERTEX
  8
0
  6
CONTINUOUS
 10
4.422440
 20
3.318920
  0
VERTEX
  8
0
  6
CONTINUOUS
 10
5.067920
 20
2.959000
  0
VERTEX
  8
0
  6
CONTINUOUS
 10
5.003680
 20
2.889480
  0
VERTEX
  8
0
  6
CONTINUOUS
 10
4.358200
 20
3.249400
  0
VERTEX
  8
0
  6
CONTINUOUS
 10
4.422440
 20
3.318920
  0
SEQEND
  8
0
  0
SOLID
  8
0
 62
    15
 10
4.358200
 20
3.249400
 11
5.003680
 21
2.889480
 12
4.286920
 22
3.186040
 13
4.932400
 23
2.826120
  0
POLYLINE
  8
0
  6
CONTINUOUS
 66
     1
 40
0.000000
 41
0.000000
  0
VERTEX
  8
0
  6
CONTINUOUS
 10
4.358200
 20
3.249400
  0
VERTEX
  8
0
  6
CONTINUOUS
 10
5.003680
 20
2.889480
  0
VERTEX
  8
0
  6
CONTINUOUS
 10
4.932400
 20
2.826120
  0
VERTEX
  8
0
  6
CONTINUOUS
 10
4.286920
 20
3.186040
  0
VERTEX
  8
0
  6
CONTINUOUS
 10
4.358200
 20
3.249400
  0
SEQEND
  8
0
  0
SOLID
  8
0
 62
    15
 10
4.286920
 20
3.186040
 11
4.932400
 21
2.826120
 12
4.208160
 22
3.129720
 13
4.853640
 23
2.769800
  0
POLYLINE
  8
0
  6
CONTINUOUS
 66
     1
 40
0.000000
 41
0.000000
  0
VERTEX
  8
0
  6
CONTINUOUS
 10
4.286920
 20
3.186040
  0
VERTEX
  8
0
  6
CONTINUOUS
 10
4.932400
 20
2.826120
  0
VERTEX
  8
0
  6
CONTINUOUS
 10
4.853640
 20
2.769800
  0
VERTEX
  8
0
  6
CONTINUOUS
 10
4.208160
 20
3.129720
  0
VERTEX
  8
0
  6
CONTINUOUS
 10
4.286920
 20
3.186040
  0
SEQEND
  8
0
  0
SOLID
  8
0
 62
    15
 10
4.208160
 20
3.129720
 11
4.853640
 21
2.769800
 12
4.122360
 22
3.080880
 13
4.767840
 23
2.721400
  0
POLYLINE
  8
0
  6
CONTINUOUS
 66
     1
 40
0.000000
 41
0.000000
  0
VERTEX
  8
0
  6
CONTINUOUS
 10
4.208160
 20
3.129720
  0
VERTEX
  8
0
  6
CONTINUOUS
 10
4.853640
 20
2.769800
  0
VERTEX
  8
0
  6
CONTINUOUS
 10
4.767840
 20
2.721400
  0
VERTEX
  8
0
  6
CONTINUOUS
 10
4.122360
 20
3.080880
  0
VERTEX
  8
0
  6
CONTINUOUS
 10
4.208160
 20
3.129720
  0
SEQEND
  8
0
  0
SOLID
  8
0
 62
    15
 10
4.122360
 20
3.080880
 11
4.767840
 21
2.721400
 12
4.029960
 22
3.041280
 13
4.675440
 23
2.681360
  0
POLYLINE
  8
0
  6
CONTINUOUS
 66
     1
 40
0.000000
 41
0.000000
  0
VERTEX
  8
0
  6
CONTINUOUS
 10
4.122360
 20
3.080880
  0
VERTEX
  8
0
  6
CONTINUOUS
 10
4.767840
 20
2.721400
  0
VERTEX
  8
0
  6
CONTINUOUS
 10
4.675440
 20
2.681360
  0
VERTEX
  8
0
  6
CONTINUOUS
 10
4.029960
 20
3.041280
  0
VERTEX
  8
0
  6
CONTINUOUS
 10
4.122360
 20
3.080880
  0
SEQEND
  8
0
  0
SOLID
  8
0
 62
    15
 10
4.595360
 20
4.157120
 11
5.240840
 21
3.797640
 12
4.620000
 22
4.074840
 13
5.265480
 23
3.714920
  0
POLYLINE
  8
0
  6
CONTINUOUS
 66
     1
 40
0.000000
 41
0.000000
  0
VERTEX
  8
0
  6
CONTINUOUS
 10
4.595360
 20
4.157120
  0
VERTEX
  8
0
  6
CONTINUOUS
 10
5.240840
 20
3.797640
  0
VERTEX
  8
0
  6
CONTINUOUS
 10
5.265480
 20
3.714920
  0
VERTEX
  8
0
  6
CONTINUOUS
 10
4.620000
 20
4.074840
  0
VERTEX
  8
0
  6
CONTINUOUS
 10
4.595360
 20
4.157120
  0
SEQEND
  8
0
  0
SOLID
  8
0
 62
    15
 10
3.930520
 20
3.011360
 11
4.576000
 21
2.651440
 12
3.927880
 22
3.010040
 13
4.573360
 23
2.650120
  0
POLYLINE
  8
0
  6
CONTINUOUS
 66
     1
 40
0.000000
 41
0.000000
  0
VERTEX
  8
0
  6
CONTINUOUS
 10
3.930520
 20
3.011360
  0
VERTEX
  8
0
  6
CONTINUOUS
 10
4.576000
 20
2.651440
  0
VERTEX
  8
0
  6
CONTINUOUS
 10
4.573360
 20
2.650120
  0
VERTEX
  8
0
  6
CONTINUOUS
 10
3.927880
 20
3.010040
  0
VERTEX
  8
0
  6
CONTINUOUS
 10
3.930520
 20
3.011360
  0
SEQEND
  8
0
  0
SOLID
  8
0
 62
    15
 10
3.927880
 20
3.010040
 11
4.573360
 21
2.650120
 12
3.927880
 22
2.672120
 13
4.573800
 23
2.312640
  0
POLYLINE
  8
0
  6
CONTINUOUS
 66
     1
 40
0.000000
 41
0.000000
  0
VERTEX
  8
0
  6
CONTINUOUS
 10
3.927880
 20
3.010040
  0
VERTEX
  8
0
  6
CONTINUOUS
 10
4.573360
 20
2.650120
  0
VERTEX
  8
0
  6
CONTINUOUS
 10
4.573800
 20
2.312640
  0
VERTEX
  8
0
  6
CONTINUOUS
 10
3.927880
 20
2.672120
  0
VERTEX
  8
0
  6
CONTINUOUS
 10
3.927880
 20
3.010040
  0
SEQEND
  8
0
  0
SOLID
  8
0
 62
    15
 10
3.927880
 20
2.672120
 11
4.573800
 21
2.312640
 12
3.926120
 22
2.672120
 13
4.571600
 23
2.312200
  0
POLYLINE
  8
0
  6
CONTINUOUS
 66
     1
 40
0.000000
 41
0.000000
  0
VERTEX
  8
0
  6
CONTINUOUS
 10
3.927880
 20
2.672120
  0
VERTEX
  8
0
  6
CONTINUOUS
 10
4.573800
 20
2.312640
  0
VERTEX
  8
0
  6
CONTINUOUS
 10
4.571600
 20
2.312200
  0
VERTEX
  8
0
  6
CONTINUOUS
 10
3.926120
 20
2.672120
  0
VERTEX
  8
0
  6
CONTINUOUS
 10
3.927880
 20
2.672120
  0
SEQEND
  8
0
  0
SOLID
  8
0
 62
    15
 10
3.926120
 20
2.672120
 11
4.571600
 21
2.312200
 12
3.853080
 22
2.657600
 13
4.498560
 23
2.297680
  0
POLYLINE
  8
0
  6
CONTINUOUS
 66
     1
 40
0.000000
 41
0.000000
  0
VERTEX
  8
0
  6
CONTINUOUS
 10
3.926120
 20
2.672120
  0
VERTEX
  8
0
  6
CONTINUOUS
 10
4.571600
 20
2.312200
  0
VERTEX
  8
0
  6
CONTINUOUS
 10
4.498560
 20
2.297680
  0
VERTEX
  8
0
  6
CONTINUOUS
 10
3.853080
 20
2.657600
  0
VERTEX
  8
0
  6
CONTINUOUS
 10
3.926120
 20
2.672120
  0
SEQEND
  8
0
  0
SOLID
  8
0
 62
    15
 10
3.853080
 20
2.657600
 11
4.498560
 21
2.297680
 12
3.785760
 22
2.636040
 13
4.431240
 23
2.276120
  0
POLYLINE
  8
0
  6
CONTINUOUS
 66
     1
 40
0.000000
 41
0.000000
  0
VERTEX
  8
0
  6
CONTINUOUS
 10
3.853080
 20
2.657600
  0
VERTEX
  8
0
  6
CONTINUOUS
 10
4.498560
 20
2.297680
  0
VERTEX
  8
0
  6
CONTINUOUS
 10
4.431240
 20
2.276120
  0
VERTEX
  8
0
  6
CONTINUOUS
 10
3.785760
 20
2.636040
  0
VERTEX
  8
0
  6
CONTINUOUS
 10
3.853080
 20
2.657600
  0
SEQEND
  8
0
  0
SOLID
  8
0
 62
    15
 10
3.785760
 20
2.636040
 11
4.431240
 21
2.276120
 12
3.723720
 22
2.608320
 13
4.369200
 23
2.248400
  0
POLYLINE
  8
0
  6
CONTINUOUS
 66
     1
 40
0.000000
 41
0.000000
  0
VERTEX
  8
0
  6
CONTINUOUS
 10
3.785760
 20
2.636040
  0
VERTEX
  8
0
  6
CONTINUOUS
 10
4.431240
 20
2.276120
  0
VERTEX
  8
0
  6
CONTINUOUS
 10
4.369200
 20
2.248400
  0
VERTEX
  8
0
  6
CONTINUOUS
 10
3.723720
 20
2.608320
  0
VERTEX
  8
0
  6
CONTINUOUS
 10
3.785760
 20
2.636040
  0
SEQEND
  8
0
  0
SOLID
  8
0
 62
    15
 10
3.723720
 20
2.608320
 11
4.369200
 21
2.248400
 12
3.667400
 22
2.574880
 13
4.312880
 23
2.214960
  0
POLYLINE
  8
0
  6
CONTINUOUS
 66
     1
 40
0.000000
 41
0.000000
  0
VERTEX
  8
0
  6
CONTINUOUS
 10
3.723720
 20
2.608320
  0
VERTEX
  8
0
  6
CONTINUOUS
 10
4.369200
 20
2.248400
  0
VERTEX
  8
0
  6
CONTINUOUS
 10
4.312880
 20
2.214960
  0
VERTEX
  8
0
  6
CONTINUOUS
 10
3.667400
 20
2.574880
  0
VERTEX
  8
0
  6
CONTINUOUS
 10
3.723720
 20
2.608320
  0
SEQEND
  8
0
  0
SOLID
  8
0
 62
    15
 10
3.667400
 20
2.574880
 11
4.312880
 21
2.214960
 12
3.570600
 22
2.493040
 13
4.216080
 23
2.133120
  0
POLYLINE
  8
0
  6
CONTINUOUS
 66
     1
 40
0.000000
 41
0.000000
  0
VERTEX
  8
0
  6
CONTINUOUS
 10
3.667400
 20
2.574880
  0
VERTEX
  8
0
  6
CONTINUOUS
 10
4.312880
 20
2.214960
  0
VERTEX
  8
0
  6
CONTINUOUS
 10
4.216080
 20
2.133120
  0
VERTEX
  8
0
  6
CONTINUOUS
 10
3.570600
 20
2.493040
  0
VERTEX
  8
0
  6
CONTINUOUS
 10
3.667400
 20
2.574880
  0
SEQEND
  8
0
  0
SOLID
  8
0
 62
    15
 10
3.570600
 20
2.493040
 11
4.216080
 21
2.133120
 12
3.495360
 22
2.394920
 13
4.141280
 23
2.035000
  0
POLYLINE
  8
0
  6
CONTINUOUS
 66
     1
 40
0.000000
 41
0.000000
  0
VERTEX
  8
0
  6
CONTINUOUS
 10
3.570600
 20
2.493040
  0
VERTEX
  8
0
  6
CONTINUOUS
 10
4.216080
 20
2.133120
  0
VERTEX
  8
0
  6
CONTINUOUS
 10
4.141280
 20
2.035000
  0
VERTEX
  8
0
  6
CONTINUOUS
 10
3.495360
 20
2.394920
  0
VERTEX
  8
0
  6
CONTINUOUS
 10
3.570600
 20
2.493040
  0
SEQEND
  8
0
  0
SOLID
  8
0
 62
    15
 10
3.495360
 20
2.394920
 11
4.141280
 21
2.035000
 12
3.441240
 22
2.284920
 13
4.086720
 23
1.925000
  0
POLYLINE
  8
0
  6
CONTINUOUS
 66
     1
 40
0.000000
 41
0.000000
  0
VERTEX
  8
0
  6
CONTINUOUS
 10
3.495360
 20
2.394920
  0
VERTEX
  8
0
  6
CONTINUOUS
 10
4.141280
 20
2.035000
  0
VERTEX
  8
0
  6
CONTINUOUS
 10
4.086720
 20
1.925000
  0
VERTEX
  8
0
  6
CONTINUOUS
 10
3.441240
 20
2.284920
  0
VERTEX
  8
0
  6
CONTINUOUS
 10
3.495360
 20
2.394920
  0
SEQEND
  8
0
  0
SOLID
  8
0
 62
    15
 10
3.441240
 20
2.284920
 11
4.086720
 21
1.925000
 12
3.407800
 22
2.167440
 13
4.053280
 23
1.807520
  0
POLYLINE
  8
0
  6
CONTINUOUS
 66
     1
 40
0.000000
 41
0.000000
  0
VERTEX
  8
0
  6
CONTINUOUS
 10
3.441240
 20
2.284920
  0
VERTEX
  8
0
  6
CONTINUOUS
 10
4.086720
 20
1.925000
  0
VERTEX
  8
0
  6
CONTINUOUS
 10
4.053280
 20
1.807520
  0
VERTEX
  8
0
  6
CONTINUOUS
 10
3.407800
 20
2.167440
  0
VERTEX
  8
0
  6
CONTINUOUS
 10
3.441240
 20
2.284920
  0
SEQEND
  8
0
  0
SOLID
  8
0
 62
    15
 10
3.407800
 20
2.167440
 11
4.053280
 21
1.807520
 12
3.394160
 22
2.047320
 13
4.039640
 23
1.687400
  0
POLYLINE
  8
0
  6
CONTINUOUS
 66
     1
 40
0.000000
 41
0.000000
  0
VERTEX
  8
0
  6
CONTINUOUS
 10
3.407800
 20
2.167440
  0
VERTEX
  8
0
  6
CONTINUOUS
 10
4.053280
 20
1.807520
  0
VERTEX
  8
0
  6
CONTINUOUS
 10
4.039640
 20
1.687400
  0
VERTEX
  8
0
  6
CONTINUOUS
 10
3.394160
 20
2.047320
  0
VERTEX
  8
0
  6
CONTINUOUS
 10
3.407800
 20
2.167440
  0
SEQEND
  8
0
  0
SOLID
  8
0
 62
    15
 10
3.394160
 20
2.047320
 11
4.039640
 21
1.687400
 12
3.399880
 22
1.928520
 13
4.045360
 23
1.568600
  0
POLYLINE
  8
0
  6
CONTINUOUS
 66
     1
 40
0.000000
 41
0.000000
  0
VERTEX
  8
0
  6
CONTINUOUS
 10
3.394160
 20
2.047320
  0
VERTEX
  8
0
  6
CONTINUOUS
 10
4.039640
 20
1.687400
  0
VERTEX
  8
0
  6
CONTINUOUS
 10
4.045360
 20
1.568600
  0
VERTEX
  8
0
  6
CONTINUOUS
 10
3.399880
 20
1.928520
  0
VERTEX
  8
0
  6
CONTINUOUS
 10
3.394160
 20
2.047320
  0
SEQEND
  8
0
  0
SOLID
  8
0
 62
    15
 10
3.399880
 20
1.928520
 11
4.045360
 21
1.568600
 12
3.038640
 22
1.914440
 13
3.684120
 23
1.554520
  0
POLYLINE
  8
0
  6
CONTINUOUS
 66
     1
 40
0.000000
 41
0.000000
  0
VERTEX
  8
0
  6
CONTINUOUS
 10
3.399880
 20
1.928520
  0
VERTEX
  8
0
  6
CONTINUOUS
 10
4.045360
 20
1.568600
  0
VERTEX
  8
0
  6
CONTINUOUS
 10
3.684120
 20
1.554520
  0
VERTEX
  8
0
  6
CONTINUOUS
 10
3.038640
 20
1.914440
  0
VERTEX
  8
0
  6
CONTINUOUS
 10
3.399880
 20
1.928520
  0
SEQEND
  8
0
  0
SOLID
  8
0
 62
    15
 10
3.038640
 20
1.914440
 11
3.684120
 21
1.554520
 12
3.036880
 22
1.914000
 13
3.682360
 23
1.554080
  0
POLYLINE
  8
0
  6
CONTINUOUS
 66
     1
 40
0.000000
 41
0.000000
  0
VERTEX
  8
0
  6
CONTINUOUS
 10
3.038640
 20
1.914440
  0
VERTEX
  8
0
  6
CONTINUOUS
 10
3.684120
 20
1.554520
  0
VERTEX
  8
0
  6
CONTINUOUS
 10
3.682360
 20
1.554080
  0
VERTEX
  8
0
  6
CONTINUOUS
 10
3.036880
 20
1.914000
  0
VERTEX
  8
0
  6
CONTINUOUS
 10
3.038640
 20
1.914440
  0
SEQEND
  8
0
  0
POLYLINE
  8
0
  6
CONTINUOUS
 66
     1
 40
0.000000
 41
0.000000
  0
VERTEX
  8
0
  6
CONTINUOUS
 10
3.047000
 20
2.416480
  0
VERTEX
  8
0
  6
CONTINUOUS
 10
4.332680
 20
4.166800
  0
VERTEX
  8
0
  6
CONTINUOUS
 10
4.595360
 20
4.157120
  0
VERTEX
  8
0
  6
CONTINUOUS
 10
4.620000
 20
4.074840
  0
VERTEX
  8
0
  6
CONTINUOUS
 10
4.634080
 20
3.989920
  0
VERTEX
  8
0
  6
CONTINUOUS
 10
4.638920
 20
3.902800
  0
VERTEX
  8
0
  6
CONTINUOUS
 10
4.634520
 20
3.815240
  0
VERTEX
  8
0
  6
CONTINUOUS
 10
4.620440
 20
3.727240
  0
VERTEX
  8
0
  6
CONTINUOUS
 10
4.598000
 20
3.640560
  0
VERTEX
  8
0
  6
CONTINUOUS
 10
4.566320
 20
3.555200
  0
VERTEX
  8
0
  6
CONTINUOUS
 10
4.526720
 20
3.472480
  0
VERTEX
  8
0
  6
CONTINUOUS
 10
4.478320
 20
3.393280
  0
VERTEX
  8
0
  6
CONTINUOUS
 10
4.422440
 20
3.318920
  0
VERTEX
  8
0
  6
CONTINUOUS
 10
4.358200
 20
3.249400
  0
VERTEX
  8
0
  6
CONTINUOUS
 10
4.286920
 20
3.186040
  0
VERTEX
  8
0
  6
CONTINUOUS
 10
4.208160
 20
3.129720
  0
VERTEX
  8
0
  6
CONTINUOUS
 10
4.122360
 20
3.080880
  0
VERTEX
  8
0
  6
CONTINUOUS
 10
4.029960
 20
3.041280
  0
VERTEX
  8
0
  6
CONTINUOUS
 10
3.930520
 20
3.011360
  0
VERTEX
  8
0
  6
CONTINUOUS
 10
3.927880
 20
3.010040
  0
VERTEX
  8
0
  6
CONTINUOUS
 10
3.927880
 20
2.672120
  0
VERTEX
  8
0
  6
CONTINUOUS
 10
3.926120
 20
2.672120
  0
VERTEX
  8
0
  6
CONTINUOUS
 10
3.853080
 20
2.657600
  0
VERTEX
  8
0
  6
CONTINUOUS
 10
3.785760
 20
2.636040
  0
VERTEX
  8
0
  6
CONTINUOUS
 10
3.723720
 20
2.608320
  0
VERTEX
  8
0
  6
CONTINUOUS
 10
3.667400
 20
2.574880
  0
VERTEX
  8
0
  6
CONTINUOUS
 10
3.570600
 20
2.493040
  0
VERTEX
  8
0
  6
CONTINUOUS
 10
3.495360
 20
2.394920
  0
VERTEX
  8
0
  6
CONTINUOUS
 10
3.441240
 20
2.284920
  0
VERTEX
  8
0
  6
CONTINUOUS
 10
3.407800
 20
2.167440
  0
VERTEX
  8
0
  6
CONTINUOUS
 10
3.394160
 20
2.047320
  0
VERTEX
  8
0
  6
CONTINUOUS
 10
3.399880
 20
1.928520
  0
VERTEX
  8
0
  6
CONTINUOUS
 10
3.038640
 20
1.914440
  0
VERTEX
  8
0
  6
CONTINUOUS
 10
3.036880
 20
1.914000
  0
VERTEX
  8
0
  6
CONTINUOUS
 10
3.045240
 20
2.414280
  0
VERTEX
  8
0
  6
CONTINUOUS
 10
3.047000
 20
2.416480
  0
SEQEND
  8
0
  0
TEXT
  8
0
 10
4.555320
 20
1.775840
 40
0.138140
  1
BA  86
 41
1.000000
  7
SN0
 71
     0
 72
     5
 11
5.053349
 21
1.775840
  0
TEXT
  8
0
 10
4.307160
 20
1.584440
 40
0.138140
  1
9/16" x 2-3/4"
 41
1.000000
  7
SN0
 71
     0
 72
     5
 11
5.300347
 21
1.584440
  0
ENDSEC
  0
EOF
