  0
SECTION
  2
HEADER
  9
$ACADVER
  1
AC1006
  9
$EXTMIN
 10
4.475240
 20
0.462000
  9
$EXTMAX
 10
7.289040
 20
2.132240
  9
$LTSCALE
 40
0.044000
  9
$PDMODE
 70
    35
  9
$PDSIZE
 40
0.035200
  0
ENDSEC
  0
SECTION
  2
TABLES
  0
TABLE
  2
LTYPE
 70
     9
  0
LTYPE
  2
CONTINUOUS
 70
    64
  3
Solid line
 72
    65
 73
     0
 40
0.000000
  0
LTYPE
  2
DASHED
 70
    64
  3
__ __ __ __ __ __ __ __ __ __ __ __ __ __ __
 72
    65
 73
     2
 40
0.000330
 49
0.000220
 49
-0.000110
  0
LTYPE
  2
HIDDEN
 70
    64
  3
 _ _ _ _ _ _ _ _ _ _ _ _ _ _ _ _ _ _ _ _ _ _
 72
    65
 73
     2
 40
0.000165
 49
0.000110
 49
-0.000055
  0
LTYPE
  2
CENTER
 70
    64
  3
____ _ ____ _ ____ _ ____ _ ____ _ ____ _ ____
 72
    65
 73
     4
 40
0.000880
 49
0.000550
 49
-0.000110
 49
0.000110
 49
-0.000110
  0
LTYPE
  2
PHANTOM
 70
    64
  3
_____ _ _ _____ _ _ _____ _ _ _____ _ _ ____
 72
    65
 73
     6
 40
0.001100
 49
0.000550
 49
-0.000110
 49
0.000110
 49
-0.000110
 49
0.000110
 49
-0.000110
  0
LTYPE
  2
DOT
 70
    64
  3
...............................................
 72
    65
 73
     2
 40
0.000110
 49
0.000000
 49
-0.000110
  0
LTYPE
  2
DASHDOT
 70
    64
  3
__ . __ . __ . __ . __ . __ . __ . __ . __ . __
 72
    65
 73
     4
 40
0.000440
 49
0.000220
 49
-0.000110
 49
0.000000
 49
-0.000110
  0
LTYPE
  2
BORDER
 70
    64
  3
__ __ . __ __ . __ __ . __ __ . __ __ . __ __
 72
    65
 73
     6
 40
0.000770
 49
0.000220
 49
-0.000110
 49
0.000220
 49
-0.000110
 49
0.000000
 49
-0.000110
  0
LTYPE
  2
DIVIDE
 70
    64
  3
__ . . __ . . __ . . __ . . __ . . __ . . __
 72
    65
 73
     6
 40
0.000550
 49
0.000220
 49
-0.000110
 49
0.000000
 49
-0.000110
 49
0.000000
 49
-0.000110
  0
LTYPE
  2
DOTDOT
 70
    64
  3
 . .  . .  . .  . .  . .  . . 
 72
    65
 73
     5
 40
0.000242
 49
-0.000110
 49
0.000000
 49
-0.000110
 49
0.000000
 49
-0.000110
  0
ENDTAB
  0
TABLE
  2
STYLE
 70
     2
  0
STYLE
 70
     0
  2
SN0
 40
0.000000
 41
0.000440
 50
0.000000
 71
     0
 42
0.000000
  3
ROMAND
  0
STYLE
 70
    68
  2
SV0
 40
0.000000
 41
0.000440
 50
0.000000
 71
     0
 42
0.000000
  3
ROMAND
  0
ENDTAB
  0
TABLE
  2
LAYER
 70
     3
  0
LAYER
  2
FOREGROUND
 70
    64
 62
     7
  6
CONTINUOUS
  0
LAYER
  2
BACKGROUND
 70
    65
 62
    -7
  6
CONTINUOUS
  0
LAYER
  2
0
 70
    64
 62
     7
  6
CONTINUOUS
  0
ENDTAB
  0
ENDSEC
  0
SECTION
  2
ENTITIES
  0
POLYLINE
  8
FOREGROUND
  6
CONTINUOUS
 66
     1
 40
0.000000
 41
0.000000
  0
VERTEX
  8
FOREGROUND
  6
CONTINUOUS
 10
0.000000
 20
2.594240
  0
VERTEX
  8
FOREGROUND
  6
CONTINUOUS
 10
8.499920
 20
2.594240
  0
VERTEX
  8
FOREGROUND
  6
CONTINUOUS
 10
8.499920
 20
-8.405760
  0
VERTEX
  8
FOREGROUND
  6
CONTINUOUS
 10
0.000000
 20
-8.405760
  0
VERTEX
  8
FOREGROUND
  6
CONTINUOUS
 10
0.000000
 20
2.594240
  0
SEQEND
  8
0
  0
POLYLINE
  8
FOREGROUND
  6
CONTINUOUS
 66
     1
 40
0.000000
 41
0.000000
  0
VERTEX
  8
FOREGROUND
  6
CONTINUOUS
 10
0.000000
 20
2.594240
  0
VERTEX
  8
FOREGROUND
  6
CONTINUOUS
 10
8.499920
 20
2.594240
  0
VERTEX
  8
FOREGROUND
  6
CONTINUOUS
 10
8.499920
 20
-8.405760
  0
VERTEX
  8
FOREGROUND
  6
CONTINUOUS
 10
0.000000
 20
-8.405760
  0
VERTEX
  8
FOREGROUND
  6
CONTINUOUS
 10
0.000000
 20
2.594240
  0
SEQEND
  8
0
  0
TEXT
  8
0
 10
6.403760
 20
0.697840
 40
0.138127
  1
BA  85
 41
1.000000
  7
SN0
 71
     0
 72
     5
 11
6.901381
 21
0.697840
  0
TEXT
  8
0
 10
6.275720
 20
0.506440
 40
0.138127
  1
5/8" x 3/4"
 41
1.000000
  7
SN0
 71
     0
 72
     5
 11
7.028411
 21
0.506440
  0
SOLID
  8
0
 62
    15
 10
6.337760
 20
1.265440
 11
6.977080
 21
1.631520
 12
6.311360
 22
1.227600
 13
6.950680
 23
1.593680
  0
POLYLINE
  8
0
  6
CONTINUOUS
 66
     1
 40
0.000000
 41
0.000000
  0
VERTEX
  8
0
  6
CONTINUOUS
 10
6.337760
 20
1.265440
  0
VERTEX
  8
0
  6
CONTINUOUS
 10
6.977080
 20
1.631520
  0
VERTEX
  8
0
  6
CONTINUOUS
 10
6.950680
 20
1.593680
  0
VERTEX
  8
0
  6
CONTINUOUS
 10
6.311360
 20
1.227600
  0
VERTEX
  8
0
  6
CONTINUOUS
 10
6.337760
 20
1.265440
  0
SEQEND
  8
0
  0
SOLID
  8
0
 62
    15
 10
6.465800
 20
1.382040
 11
7.105120
 21
1.748120
 12
6.431480
 22
1.358280
 13
7.070800
 23
1.724360
  0
POLYLINE
  8
0
  6
CONTINUOUS
 66
     1
 40
0.000000
 41
0.000000
  0
VERTEX
  8
0
  6
CONTINUOUS
 10
6.465800
 20
1.382040
  0
VERTEX
  8
0
  6
CONTINUOUS
 10
7.105120
 20
1.748120
  0
VERTEX
  8
0
  6
CONTINUOUS
 10
7.070800
 20
1.724360
  0
VERTEX
  8
0
  6
CONTINUOUS
 10
6.431480
 20
1.358280
  0
VERTEX
  8
0
  6
CONTINUOUS
 10
6.465800
 20
1.382040
  0
SEQEND
  8
0
  0
SOLID
  8
0
 62
    15
 10
6.431480
 20
1.358280
 11
7.070800
 21
1.724360
 12
6.398480
 22
1.331000
 13
7.037800
 23
1.697080
  0
POLYLINE
  8
0
  6
CONTINUOUS
 66
     1
 40
0.000000
 41
0.000000
  0
VERTEX
  8
0
  6
CONTINUOUS
 10
6.431480
 20
1.358280
  0
VERTEX
  8
0
  6
CONTINUOUS
 10
7.070800
 20
1.724360
  0
VERTEX
  8
0
  6
CONTINUOUS
 10
7.037800
 20
1.697080
  0
VERTEX
  8
0
  6
CONTINUOUS
 10
6.398480
 20
1.331000
  0
VERTEX
  8
0
  6
CONTINUOUS
 10
6.431480
 20
1.358280
  0
SEQEND
  8
0
  0
SOLID
  8
0
 62
    15
 10
6.398480
 20
1.331000
 11
7.037800
 21
1.697080
 12
6.366800
 22
1.299760
 13
7.006120
 23
1.665840
  0
POLYLINE
  8
0
  6
CONTINUOUS
 66
     1
 40
0.000000
 41
0.000000
  0
VERTEX
  8
0
  6
CONTINUOUS
 10
6.398480
 20
1.331000
  0
VERTEX
  8
0
  6
CONTINUOUS
 10
7.037800
 20
1.697080
  0
VERTEX
  8
0
  6
CONTINUOUS
 10
7.006120
 20
1.665840
  0
VERTEX
  8
0
  6
CONTINUOUS
 10
6.366800
 20
1.299760
  0
VERTEX
  8
0
  6
CONTINUOUS
 10
6.398480
 20
1.331000
  0
SEQEND
  8
0
  0
SOLID
  8
0
 62
    15
 10
6.366800
 20
1.299760
 11
7.006120
 21
1.665840
 12
6.337760
 22
1.265440
 13
6.977080
 23
1.631520
  0
POLYLINE
  8
0
  6
CONTINUOUS
 66
     1
 40
0.000000
 41
0.000000
  0
VERTEX
  8
0
  6
CONTINUOUS
 10
6.366800
 20
1.299760
  0
VERTEX
  8
0
  6
CONTINUOUS
 10
7.006120
 20
1.665840
  0
VERTEX
  8
0
  6
CONTINUOUS
 10
6.977080
 20
1.631520
  0
VERTEX
  8
0
  6
CONTINUOUS
 10
6.337760
 20
1.265440
  0
VERTEX
  8
0
  6
CONTINUOUS
 10
6.366800
 20
1.299760
  0
SEQEND
  8
0
  0
SOLID
  8
0
 62
     7
 10
6.649280
 20
1.765280
 11
7.288600
 21
2.131360
 12
6.649280
 22
1.438800
 13
7.288600
 23
1.804880
  0
POLYLINE
  8
0
  6
CONTINUOUS
 66
     1
 40
0.000000
 41
0.000000
  0
VERTEX
  8
0
  6
CONTINUOUS
 10
6.649280
 20
1.765280
  0
VERTEX
  8
0
  6
CONTINUOUS
 10
7.288600
 20
2.131360
  0
VERTEX
  8
0
  6
CONTINUOUS
 10
7.288600
 20
1.804880
  0
VERTEX
  8
0
  6
CONTINUOUS
 10
6.649280
 20
1.438800
  0
VERTEX
  8
0
  6
CONTINUOUS
 10
6.649280
 20
1.765280
  0
SEQEND
  8
0
  0
SOLID
  8
0
 62
    15
 10
6.016120
 20
1.765280
 11
6.655440
 21
2.131360
 12
6.649280
 22
1.765280
 13
7.288600
 23
2.131360
  0
POLYLINE
  8
0
  6
CONTINUOUS
 66
     1
 40
0.000000
 41
0.000000
  0
VERTEX
  8
0
  6
CONTINUOUS
 10
6.016120
 20
1.765280
  0
VERTEX
  8
0
  6
CONTINUOUS
 10
6.655440
 20
2.131360
  0
VERTEX
  8
0
  6
CONTINUOUS
 10
7.288600
 20
2.131360
  0
VERTEX
  8
0
  6
CONTINUOUS
 10
6.649280
 20
1.765280
  0
VERTEX
  8
0
  6
CONTINUOUS
 10
6.016120
 20
1.765280
  0
SEQEND
  8
0
  0
SOLID
  8
0
 62
    15
 10
6.311360
 20
1.227600
 11
6.950680
 21
1.593680
 12
6.287160
 22
1.186240
 13
6.926480
 23
1.552320
  0
POLYLINE
  8
0
  6
CONTINUOUS
 66
     1
 40
0.000000
 41
0.000000
  0
VERTEX
  8
0
  6
CONTINUOUS
 10
6.311360
 20
1.227600
  0
VERTEX
  8
0
  6
CONTINUOUS
 10
6.950680
 20
1.593680
  0
VERTEX
  8
0
  6
CONTINUOUS
 10
6.926480
 20
1.552320
  0
VERTEX
  8
0
  6
CONTINUOUS
 10
6.287160
 20
1.186240
  0
VERTEX
  8
0
  6
CONTINUOUS
 10
6.311360
 20
1.227600
  0
SEQEND
  8
0
  0
SOLID
  8
0
 62
    15
 10
6.287160
 20
1.186240
 11
6.926480
 21
1.552320
 12
6.266480
 22
1.141800
 13
6.905800
 23
1.507880
  0
POLYLINE
  8
0
  6
CONTINUOUS
 66
     1
 40
0.000000
 41
0.000000
  0
VERTEX
  8
0
  6
CONTINUOUS
 10
6.287160
 20
1.186240
  0
VERTEX
  8
0
  6
CONTINUOUS
 10
6.926480
 20
1.552320
  0
VERTEX
  8
0
  6
CONTINUOUS
 10
6.905800
 20
1.507880
  0
VERTEX
  8
0
  6
CONTINUOUS
 10
6.266480
 20
1.141800
  0
VERTEX
  8
0
  6
CONTINUOUS
 10
6.287160
 20
1.186240
  0
SEQEND
  8
0
  0
SOLID
  8
0
 62
    15
 10
6.266480
 20
1.141800
 11
6.905800
 21
1.507880
 12
6.249320
 22
1.094720
 13
6.888640
 23
1.460800
  0
POLYLINE
  8
0
  6
CONTINUOUS
 66
     1
 40
0.000000
 41
0.000000
  0
VERTEX
  8
0
  6
CONTINUOUS
 10
6.266480
 20
1.141800
  0
VERTEX
  8
0
  6
CONTINUOUS
 10
6.905800
 20
1.507880
  0
VERTEX
  8
0
  6
CONTINUOUS
 10
6.888640
 20
1.460800
  0
VERTEX
  8
0
  6
CONTINUOUS
 10
6.249320
 20
1.094720
  0
VERTEX
  8
0
  6
CONTINUOUS
 10
6.266480
 20
1.141800
  0
SEQEND
  8
0
  0
SOLID
  8
0
 62
     7
 10
6.249320
 20
1.094720
 11
6.888640
 21
1.460800
 12
6.236120
 22
1.044560
 13
6.875440
 23
1.410640
  0
POLYLINE
  8
0
  6
CONTINUOUS
 66
     1
 40
0.000000
 41
0.000000
  0
VERTEX
  8
0
  6
CONTINUOUS
 10
6.249320
 20
1.094720
  0
VERTEX
  8
0
  6
CONTINUOUS
 10
6.888640
 20
1.460800
  0
VERTEX
  8
0
  6
CONTINUOUS
 10
6.875440
 20
1.410640
  0
VERTEX
  8
0
  6
CONTINUOUS
 10
6.236120
 20
1.044560
  0
VERTEX
  8
0
  6
CONTINUOUS
 10
6.249320
 20
1.094720
  0
SEQEND
  8
0
  0
SOLID
  8
0
 62
     7
 10
6.236120
 20
1.044560
 11
6.875440
 21
1.410640
 12
6.227320
 22
0.991760
 13
6.866640
 23
1.357840
  0
POLYLINE
  8
0
  6
CONTINUOUS
 66
     1
 40
0.000000
 41
0.000000
  0
VERTEX
  8
0
  6
CONTINUOUS
 10
6.236120
 20
1.044560
  0
VERTEX
  8
0
  6
CONTINUOUS
 10
6.875440
 20
1.410640
  0
VERTEX
  8
0
  6
CONTINUOUS
 10
6.866640
 20
1.357840
  0
VERTEX
  8
0
  6
CONTINUOUS
 10
6.227320
 20
0.991760
  0
VERTEX
  8
0
  6
CONTINUOUS
 10
6.236120
 20
1.044560
  0
SEQEND
  8
0
  0
SOLID
  8
0
 62
     7
 10
6.227320
 20
0.991760
 11
6.866640
 21
1.357840
 12
6.222920
 22
0.935880
 13
6.862240
 23
1.302400
  0
POLYLINE
  8
0
  6
CONTINUOUS
 66
     1
 40
0.000000
 41
0.000000
  0
VERTEX
  8
0
  6
CONTINUOUS
 10
6.227320
 20
0.991760
  0
VERTEX
  8
0
  6
CONTINUOUS
 10
6.866640
 20
1.357840
  0
VERTEX
  8
0
  6
CONTINUOUS
 10
6.862240
 20
1.302400
  0
VERTEX
  8
0
  6
CONTINUOUS
 10
6.222920
 20
0.935880
  0
VERTEX
  8
0
  6
CONTINUOUS
 10
6.227320
 20
0.991760
  0
SEQEND
  8
0
  0
POLYLINE
  8
0
  6
CONTINUOUS
 66
     1
 40
0.000000
 41
0.000000
  0
VERTEX
  8
0
  6
CONTINUOUS
 10
6.016120
 20
1.765280
  0
VERTEX
  8
0
  6
CONTINUOUS
 10
6.649280
 20
1.765280
  0
VERTEX
  8
0
  6
CONTINUOUS
 10
6.649280
 20
1.438800
  0
VERTEX
  8
0
  6
CONTINUOUS
 10
6.647960
 20
1.438800
  0
VERTEX
  8
0
  6
CONTINUOUS
 10
6.611440
 20
1.436160
  0
VERTEX
  8
0
  6
CONTINUOUS
 10
6.574920
 20
1.428680
  0
VERTEX
  8
0
  6
CONTINUOUS
 10
6.537960
 20
1.417240
  0
VERTEX
  8
0
  6
CONTINUOUS
 10
6.501440
 20
1.401840
  0
VERTEX
  8
0
  6
CONTINUOUS
 10
6.465800
 20
1.382040
  0
VERTEX
  8
0
  6
CONTINUOUS
 10
6.431480
 20
1.358280
  0
VERTEX
  8
0
  6
CONTINUOUS
 10
6.398480
 20
1.331000
  0
VERTEX
  8
0
  6
CONTINUOUS
 10
6.366800
 20
1.299760
  0
VERTEX
  8
0
  6
CONTINUOUS
 10
6.337760
 20
1.265440
  0
VERTEX
  8
0
  6
CONTINUOUS
 10
6.311360
 20
1.227600
  0
VERTEX
  8
0
  6
CONTINUOUS
 10
6.287160
 20
1.186240
  0
VERTEX
  8
0
  6
CONTINUOUS
 10
6.266480
 20
1.141800
  0
VERTEX
  8
0
  6
CONTINUOUS
 10
6.249320
 20
1.094720
  0
VERTEX
  8
0
  6
CONTINUOUS
 10
6.236120
 20
1.044560
  0
VERTEX
  8
0
  6
CONTINUOUS
 10
6.227320
 20
0.991760
  0
VERTEX
  8
0
  6
CONTINUOUS
 10
6.222920
 20
0.935880
  0
VERTEX
  8
0
  6
CONTINUOUS
 10
6.016120
 20
0.935880
  0
VERTEX
  8
0
  6
CONTINUOUS
 10
6.016120
 20
1.762640
  0
VERTEX
  8
0
  6
CONTINUOUS
 10
6.016120
 20
1.765280
  0
SEQEND
  8
0
  0
POLYLINE
  8
0
  6
CONTINUOUS
 66
     1
 40
0.014080
 41
0.014080
  0
VERTEX
  8
0
  6
CONTINUOUS
 10
4.523640
 20
1.460800
  0
VERTEX
  8
0
  6
CONTINUOUS
 10
5.350400
 20
1.460800
  0
VERTEX
  8
0
  6
CONTINUOUS
 10
5.350400
 20
1.667600
  0
VERTEX
  8
0
  6
CONTINUOUS
 10
5.322240
 20
1.669360
  0
VERTEX
  8
0
  6
CONTINUOUS
 10
5.294960
 20
1.672000
  0
VERTEX
  8
0
  6
CONTINUOUS
 10
5.268120
 20
1.675960
  0
VERTEX
  8
0
  6
CONTINUOUS
 10
5.242160
 20
1.680800
  0
VERTEX
  8
0
  6
CONTINUOUS
 10
5.216640
 20
1.686960
  0
VERTEX
  8
0
  6
CONTINUOUS
 10
5.192000
 20
1.694000
  0
VERTEX
  8
0
  6
CONTINUOUS
 10
5.167800
 20
1.702360
  0
VERTEX
  8
0
  6
CONTINUOUS
 10
5.144480
 20
1.711160
  0
VERTEX
  8
0
  6
CONTINUOUS
 10
5.122040
 20
1.721280
  0
VERTEX
  8
0
  6
CONTINUOUS
 10
5.100040
 20
1.731840
  0
VERTEX
  8
0
  6
CONTINUOUS
 10
5.079360
 20
1.743280
  0
VERTEX
  8
0
  6
CONTINUOUS
 10
5.059120
 20
1.755600
  0
VERTEX
  8
0
  6
CONTINUOUS
 10
5.039760
 20
1.768800
  0
VERTEX
  8
0
  6
CONTINUOUS
 10
5.021280
 20
1.782440
  0
VERTEX
  8
0
  6
CONTINUOUS
 10
5.003680
 20
1.796960
  0
VERTEX
  8
0
  6
CONTINUOUS
 10
4.986520
 20
1.811480
  0
VERTEX
  8
0
  6
CONTINUOUS
 10
4.970680
 20
1.826880
  0
VERTEX
  8
0
  6
CONTINUOUS
 10
4.955720
 20
1.843160
  0
VERTEX
  8
0
  6
CONTINUOUS
 10
4.941640
 20
1.859440
  0
VERTEX
  8
0
  6
CONTINUOUS
 10
4.928440
 20
1.876160
  0
VERTEX
  8
0
  6
CONTINUOUS
 10
4.916120
 20
1.893320
  0
VERTEX
  8
0
  6
CONTINUOUS
 10
4.904680
 20
1.910480
  0
VERTEX
  8
0
  6
CONTINUOUS
 10
4.894120
 20
1.928080
  0
VERTEX
  8
0
  6
CONTINUOUS
 10
4.884880
 20
1.946120
  0
VERTEX
  8
0
  6
CONTINUOUS
 10
4.876520
 20
1.964160
  0
VERTEX
  8
0
  6
CONTINUOUS
 10
4.869480
 20
1.982640
  0
VERTEX
  8
0
  6
CONTINUOUS
 10
4.862880
 20
2.001120
  0
VERTEX
  8
0
  6
CONTINUOUS
 10
4.858040
 20
2.019160
  0
VERTEX
  8
0
  6
CONTINUOUS
 10
4.853640
 20
2.037640
  0
VERTEX
  8
0
  6
CONTINUOUS
 10
4.850560
 20
2.056120
  0
VERTEX
  8
0
  6
CONTINUOUS
 10
4.848800
 20
2.074600
  0
VERTEX
  8
0
  6
CONTINUOUS
 10
4.847920
 20
2.092640
  0
VERTEX
  8
0
  6
CONTINUOUS
 10
4.847920
 20
2.093960
  0
VERTEX
  8
0
  6
CONTINUOUS
 10
4.521000
 20
2.093960
  0
VERTEX
  8
0
  6
CONTINUOUS
 10
4.521000
 20
1.460800
  0
VERTEX
  8
0
  6
CONTINUOUS
 10
4.523640
 20
1.460800
  0
SEQEND
  8
0
  0
TEXT
  8
0
 10
4.696120
 20
1.226720
 40
0.138127
  1
BA  85
 41
1.000000
  7
SN0
 71
     0
 72
     5
 11
5.193741
 21
1.226720
  0
TEXT
  8
0
 10
4.568080
 20
1.035320
 40
0.138127
  1
5/8" x 3/4"
 41
1.000000
  7
SN0
 71
     0
 72
     5
 11
5.320771
 21
1.035320
  0
ENDSEC
  0
EOF
