  0
SECTION
  2
HEADER
  9
$ACADVER
  1
AC1006
  9
$EXTMIN
 10
0.628320
 20
0.727760
  9
$EXTMAX
 10
8.138240
 20
10.210200
  9
$LTSCALE
 40
0.044000
  9
$PDMODE
 70
    35
  9
$PDSIZE
 40
0.035200
  0
ENDSEC
  0
SECTION
  2
TABLES
  0
TABLE
  2
LTYPE
 70
     9
  0
LTYPE
  2
CONTINUOUS
 70
    64
  3
Solid line
 72
    65
 73
     0
 40
0.000000
  0
LTYPE
  2
DASHED
 70
    64
  3
__ __ __ __ __ __ __ __ __ __ __ __ __ __ __
 72
    65
 73
     2
 40
0.000330
 49
0.000220
 49
-0.000110
  0
LTYPE
  2
HIDDEN
 70
    64
  3
 _ _ _ _ _ _ _ _ _ _ _ _ _ _ _ _ _ _ _ _ _ _
 72
    65
 73
     2
 40
0.000165
 49
0.000110
 49
-0.000055
  0
LTYPE
  2
CENTER
 70
    64
  3
____ _ ____ _ ____ _ ____ _ ____ _ ____ _ ____
 72
    65
 73
     4
 40
0.000880
 49
0.000550
 49
-0.000110
 49
0.000110
 49
-0.000110
  0
LTYPE
  2
PHANTOM
 70
    64
  3
_____ _ _ _____ _ _ _____ _ _ _____ _ _ ____
 72
    65
 73
     6
 40
0.001100
 49
0.000550
 49
-0.000110
 49
0.000110
 49
-0.000110
 49
0.000110
 49
-0.000110
  0
LTYPE
  2
DOT
 70
    64
  3
...............................................
 72
    65
 73
     2
 40
0.000110
 49
0.000000
 49
-0.000110
  0
LTYPE
  2
DASHDOT
 70
    64
  3
__ . __ . __ . __ . __ . __ . __ . __ . __ . __
 72
    65
 73
     4
 40
0.000440
 49
0.000220
 49
-0.000110
 49
0.000000
 49
-0.000110
  0
LTYPE
  2
BORDER
 70
    64
  3
__ __ . __ __ . __ __ . __ __ . __ __ . __ __
 72
    65
 73
     6
 40
0.000770
 49
0.000220
 49
-0.000110
 49
0.000220
 49
-0.000110
 49
0.000000
 49
-0.000110
  0
LTYPE
  2
DIVIDE
 70
    64
  3
__ . . __ . . __ . . __ . . __ . . __ . . __
 72
    65
 73
     6
 40
0.000550
 49
0.000220
 49
-0.000110
 49
0.000000
 49
-0.000110
 49
0.000000
 49
-0.000110
  0
LTYPE
  2
DOTDOT
 70
    64
  3
 . .  . .  . .  . .  . .  . . 
 72
    65
 73
     5
 40
0.000242
 49
-0.000110
 49
0.000000
 49
-0.000110
 49
0.000000
 49
-0.000110
  0
ENDTAB
  0
TABLE
  2
STYLE
 70
     2
  0
STYLE
 70
     0
  2
SN0
 40
0.000000
 41
0.000440
 50
0.000000
 71
     0
 42
0.000000
  3
ROMAND
  0
STYLE
 70
    68
  2
SV0
 40
0.000000
 41
0.000440
 50
0.000000
 71
     0
 42
0.000000
  3
ROMAND
  0
ENDTAB
  0
TABLE
  2
LAYER
 70
     3
  0
LAYER
  2
FOREGROUND
 70
    64
 62
     7
  6
CONTINUOUS
  0
LAYER
  2
BACKGROUND
 70
    65
 62
    -7
  6
CONTINUOUS
  0
LAYER
  2
0
 70
    64
 62
     7
  6
CONTINUOUS
  0
ENDTAB
  0
ENDSEC
  0
SECTION
  2
ENTITIES
  0
POLYLINE
  8
FOREGROUND
  6
CONTINUOUS
 66
     1
 40
0.000000
 41
0.000000
  0
VERTEX
  8
FOREGROUND
  6
CONTINUOUS
 10
0.000000
 20
10.937960
  0
VERTEX
  8
FOREGROUND
  6
CONTINUOUS
 10
8.499920
 20
10.937960
  0
VERTEX
  8
FOREGROUND
  6
CONTINUOUS
 10
8.499920
 20
-0.062040
  0
VERTEX
  8
FOREGROUND
  6
CONTINUOUS
 10
0.000000
 20
-0.062040
  0
VERTEX
  8
FOREGROUND
  6
CONTINUOUS
 10
0.000000
 20
10.937960
  0
SEQEND
  8
0
  0
POLYLINE
  8
FOREGROUND
  6
CONTINUOUS
 66
     1
 40
0.000000
 41
0.000000
  0
VERTEX
  8
FOREGROUND
  6
CONTINUOUS
 10
0.000000
 20
10.937960
  0
VERTEX
  8
FOREGROUND
  6
CONTINUOUS
 10
8.499920
 20
10.937960
  0
VERTEX
  8
FOREGROUND
  6
CONTINUOUS
 10
8.499920
 20
-0.062040
  0
VERTEX
  8
FOREGROUND
  6
CONTINUOUS
 10
0.000000
 20
-0.062040
  0
VERTEX
  8
FOREGROUND
  6
CONTINUOUS
 10
0.000000
 20
10.937960
  0
SEQEND
  8
0
  0
POLYLINE
  8
0
  6
CONTINUOUS
 66
     1
 40
0.014080
 41
0.014080
  0
VERTEX
  8
0
  6
CONTINUOUS
 10
0.669240
 20
0.736560
  0
VERTEX
  8
0
  6
CONTINUOUS
 10
0.634480
 20
0.736560
  0
VERTEX
  8
0
  6
CONTINUOUS
 10
0.635800
 20
0.733920
  0
VERTEX
  8
0
  6
CONTINUOUS
 10
0.635800
 20
5.292320
  0
VERTEX
  8
0
  6
CONTINUOUS
 10
0.843920
 20
5.292320
  0
VERTEX
  8
0
  6
CONTINUOUS
 10
0.842600
 20
5.288360
  0
VERTEX
  8
0
  6
CONTINUOUS
 10
0.842600
 20
5.037560
  0
VERTEX
  8
0
  6
CONTINUOUS
 10
0.841280
 20
5.037560
  0
VERTEX
  8
0
  6
CONTINUOUS
 10
1.063920
 20
5.037560
  0
VERTEX
  8
0
  6
CONTINUOUS
 10
1.063920
 20
5.292320
  0
VERTEX
  8
0
  6
CONTINUOUS
 10
1.590600
 20
5.292320
  0
VERTEX
  8
0
  6
CONTINUOUS
 10
1.593240
 20
5.284400
  0
VERTEX
  8
0
  6
CONTINUOUS
 10
1.687840
 20
4.711080
  0
VERTEX
  8
0
  6
CONTINUOUS
 10
1.510520
 20
4.682920
  0
VERTEX
  8
0
  6
CONTINUOUS
 10
1.703680
 20
3.649800
  0
VERTEX
  8
0
  6
CONTINUOUS
 10
1.821160
 20
3.649800
  0
VERTEX
  8
0
  6
CONTINUOUS
 10
1.821160
 20
3.651120
  0
VERTEX
  8
0
  6
CONTINUOUS
 10
1.927640
 20
3.049640
  0
VERTEX
  8
0
  6
CONTINUOUS
 10
1.718640
 20
3.009600
  0
VERTEX
  8
0
  6
CONTINUOUS
 10
1.786400
 20
2.640440
  0
VERTEX
  8
0
  6
CONTINUOUS
 10
1.671560
 20
2.591160
  0
VERTEX
  8
0
  6
CONTINUOUS
 10
1.687400
 20
2.457840
  0
VERTEX
  8
0
  6
CONTINUOUS
 10
1.698400
 20
2.330680
  0
VERTEX
  8
0
  6
CONTINUOUS
 10
1.705000
 20
2.209240
  0
VERTEX
  8
0
  6
CONTINUOUS
 10
1.706760
 20
2.093520
  0
VERTEX
  8
0
  6
CONTINUOUS
 10
1.706320
 20
2.037640
  0
VERTEX
  8
0
  6
CONTINUOUS
 10
1.701920
 20
1.930720
  0
VERTEX
  8
0
  6
CONTINUOUS
 10
1.693120
 20
1.828640
  0
VERTEX
  8
0
  6
CONTINUOUS
 10
1.680800
 20
1.732720
  0
VERTEX
  8
0
  6
CONTINUOUS
 10
1.673320
 20
1.686520
  0
VERTEX
  8
0
  6
CONTINUOUS
 10
1.655280
 20
1.597640
  0
VERTEX
  8
0
  6
CONTINUOUS
 10
1.634160
 20
1.514480
  0
VERTEX
  8
0
  6
CONTINUOUS
 10
1.609520
 20
1.436160
  0
VERTEX
  8
0
  6
CONTINUOUS
 10
1.581800
 20
1.362680
  0
VERTEX
  8
0
  6
CONTINUOUS
 10
1.551440
 20
1.293600
  0
VERTEX
  8
0
  6
CONTINUOUS
 10
1.518000
 20
1.229360
  0
VERTEX
  8
0
  6
CONTINUOUS
 10
1.481920
 20
1.169960
  0
VERTEX
  8
0
  6
CONTINUOUS
 10
1.444080
 20
1.114520
  0
VERTEX
  8
0
  6
CONTINUOUS
 10
1.403600
 20
1.063480
  0
VERTEX
  8
0
  6
CONTINUOUS
 10
1.339360
 20
0.994840
  0
VERTEX
  8
0
  6
CONTINUOUS
 10
1.294040
 20
0.954360
  0
VERTEX
  8
0
  6
CONTINUOUS
 10
1.247400
 20
0.917400
  0
VERTEX
  8
0
  6
CONTINUOUS
 10
1.199000
 20
0.883960
  0
VERTEX
  8
0
  6
CONTINUOUS
 10
1.149720
 20
0.854920
  0
VERTEX
  8
0
  6
CONTINUOUS
 10
1.099120
 20
0.828960
  0
VERTEX
  8
0
  6
CONTINUOUS
 10
1.048080
 20
0.806520
  0
VERTEX
  8
0
  6
CONTINUOUS
 10
0.996160
 20
0.787160
  0
VERTEX
  8
0
  6
CONTINUOUS
 10
0.916960
 20
0.764280
  0
VERTEX
  8
0
  6
CONTINUOUS
 10
0.864160
 20
0.752840
  0
VERTEX
  8
0
  6
CONTINUOUS
 10
0.784520
 20
0.741400
  0
VERTEX
  8
0
  6
CONTINUOUS
 10
0.731720
 20
0.737000
  0
VERTEX
  8
0
  6
CONTINUOUS
 10
0.678920
 20
0.735240
  0
VERTEX
  8
0
  6
CONTINUOUS
 10
0.652960
 20
0.735240
  0
VERTEX
  8
0
  6
CONTINUOUS
 10
0.669240
 20
0.736560
  0
SEQEND
  8
0
  0
POLYLINE
  8
0
  6
CONTINUOUS
 66
     1
 40
0.014080
 41
0.014080
  0
VERTEX
  8
0
  6
CONTINUOUS
 10
1.355640
 20
5.301560
  0
VERTEX
  8
0
  6
CONTINUOUS
 10
1.063920
 20
5.301560
  0
VERTEX
  8
0
  6
CONTINUOUS
 10
1.065240
 20
5.300240
  0
VERTEX
  8
0
  6
CONTINUOUS
 10
1.065240
 20
5.048560
  0
VERTEX
  8
0
  6
CONTINUOUS
 10
1.062600
 20
5.049880
  0
VERTEX
  8
0
  6
CONTINUOUS
 10
0.845240
 20
5.049880
  0
VERTEX
  8
0
  6
CONTINUOUS
 10
0.845240
 20
5.300240
  0
VERTEX
  8
0
  6
CONTINUOUS
 10
0.635800
 20
5.300240
  0
VERTEX
  8
0
  6
CONTINUOUS
 10
0.635800
 20
9.905720
  0
VERTEX
  8
0
  6
CONTINUOUS
 10
0.634480
 20
9.909680
  0
VERTEX
  8
0
  6
CONTINUOUS
 10
1.595880
 20
10.203160
  0
VERTEX
  8
0
  6
CONTINUOUS
 10
1.848000
 20
9.204360
  0
VERTEX
  8
0
  6
CONTINUOUS
 10
1.844920
 20
9.197760
  0
VERTEX
  8
0
  6
CONTINUOUS
 10
1.768800
 20
9.146280
  0
VERTEX
  8
0
  6
CONTINUOUS
 10
1.662760
 20
9.066640
  0
VERTEX
  8
0
  6
CONTINUOUS
 10
1.597640
 20
9.011640
  0
VERTEX
  8
0
  6
CONTINUOUS
 10
1.536480
 20
8.954000
  0
VERTEX
  8
0
  6
CONTINUOUS
 10
1.479280
 20
8.894600
  0
VERTEX
  8
0
  6
CONTINUOUS
 10
1.426040
 20
8.832120
  0
VERTEX
  8
0
  6
CONTINUOUS
 10
1.377200
 20
8.766560
  0
VERTEX
  8
0
  6
CONTINUOUS
 10
1.331880
 20
8.697480
  0
VERTEX
  8
0
  6
CONTINUOUS
 10
1.290960
 20
8.624880
  0
VERTEX
  8
0
  6
CONTINUOUS
 10
1.254000
 20
8.547880
  0
VERTEX
  8
0
  6
CONTINUOUS
 10
1.221000
 20
8.466920
  0
VERTEX
  8
0
  6
CONTINUOUS
 10
1.191960
 20
8.381120
  0
VERTEX
  8
0
  6
CONTINUOUS
 10
1.166440
 20
8.290480
  0
VERTEX
  8
0
  6
CONTINUOUS
 10
1.144880
 20
8.194560
  0
VERTEX
  8
0
  6
CONTINUOUS
 10
1.127280
 20
8.092480
  0
VERTEX
  8
0
  6
CONTINUOUS
 10
1.113200
 20
7.985120
  0
VERTEX
  8
0
  6
CONTINUOUS
 10
1.103080
 20
7.871160
  0
VERTEX
  8
0
  6
CONTINUOUS
 10
1.096480
 20
7.750160
  0
VERTEX
  8
0
  6
CONTINUOUS
 10
1.093840
 20
7.623000
  0
VERTEX
  8
0
  6
CONTINUOUS
 10
1.094720
 20
7.487920
  0
VERTEX
  8
0
  6
CONTINUOUS
 10
1.099120
 20
7.345800
  0
VERTEX
  8
0
  6
CONTINUOUS
 10
1.107040
 20
7.195320
  0
VERTEX
  8
0
  6
CONTINUOUS
 10
1.118480
 20
7.036920
  0
VERTEX
  8
0
  6
CONTINUOUS
 10
1.142240
 20
6.782600
  0
VERTEX
  8
0
  6
CONTINUOUS
 10
1.173920
 20
6.508480
  0
VERTEX
  8
0
  6
CONTINUOUS
 10
1.206040
 20
6.263840
  0
VERTEX
  8
0
  6
CONTINUOUS
 10
1.251360
 20
5.949240
  0
VERTEX
  8
0
  6
CONTINUOUS
 10
1.304600
 20
5.611320
  0
VERTEX
  8
0
  6
CONTINUOUS
 10
1.355640
 20
5.301560
  0
SEQEND
  8
0
  0
TEXT
  8
0
 10
1.560240
 20
8.360880
 40
0.138212
  1
crown
 41
1.000000
  7
SN0
 71
     0
 72
     5
 11
2.004018
 21
8.360880
  0
TEXT
  8
0
 10
1.597200
 20
8.169040
 40
0.138212
  1
84ab
 41
1.000000
  7
SN0
 71
     0
 72
     5
 11
1.967015
 21
8.169040
  0
SOLID
  8
0
 62
    15
 10
3.586440
 20
7.711000
 11
4.275040
 21
7.738720
 12
3.640120
 22
7.606280
 13
4.328280
 23
7.634000
  0
POLYLINE
  8
0
  6
CONTINUOUS
 66
     1
 40
0.000000
 41
0.000000
  0
VERTEX
  8
0
  6
CONTINUOUS
 10
3.586440
 20
7.711000
  0
VERTEX
  8
0
  6
CONTINUOUS
 10
4.275040
 20
7.738720
  0
VERTEX
  8
0
  6
CONTINUOUS
 10
4.328280
 20
7.634000
  0
VERTEX
  8
0
  6
CONTINUOUS
 10
3.640120
 20
7.606280
  0
VERTEX
  8
0
  6
CONTINUOUS
 10
3.586440
 20
7.711000
  0
SEQEND
  8
0
  0
SOLID
  8
0
 62
    15
 10
2.829200
 20
9.909680
 11
3.517360
 21
9.937400
 12
3.560480
 22
9.184560
 13
4.249080
 23
9.212280
  0
POLYLINE
  8
0
  6
CONTINUOUS
 66
     1
 40
0.000000
 41
0.000000
  0
VERTEX
  8
0
  6
CONTINUOUS
 10
2.829200
 20
9.909680
  0
VERTEX
  8
0
  6
CONTINUOUS
 10
3.517360
 20
9.937400
  0
VERTEX
  8
0
  6
CONTINUOUS
 10
4.249080
 20
9.212280
  0
VERTEX
  8
0
  6
CONTINUOUS
 10
3.560480
 20
9.184560
  0
VERTEX
  8
0
  6
CONTINUOUS
 10
2.829200
 20
9.909680
  0
SEQEND
  8
0
  0
SOLID
  8
0
 62
    15
 10
3.560480
 20
9.184560
 11
4.249080
 21
9.212280
 12
3.561800
 22
9.177520
 13
4.249960
 23
9.205240
  0
POLYLINE
  8
0
  6
CONTINUOUS
 66
     1
 40
0.000000
 41
0.000000
  0
VERTEX
  8
0
  6
CONTINUOUS
 10
3.560480
 20
9.184560
  0
VERTEX
  8
0
  6
CONTINUOUS
 10
4.249080
 20
9.212280
  0
VERTEX
  8
0
  6
CONTINUOUS
 10
4.249960
 20
9.205240
  0
VERTEX
  8
0
  6
CONTINUOUS
 10
3.561800
 20
9.177520
  0
VERTEX
  8
0
  6
CONTINUOUS
 10
3.560480
 20
9.184560
  0
SEQEND
  8
0
  0
SOLID
  8
0
 62
    15
 10
3.561800
 20
9.177520
 11
4.249960
 21
9.205240
 12
3.488760
 22
9.012080
 13
4.177360
 23
9.039800
  0
POLYLINE
  8
0
  6
CONTINUOUS
 66
     1
 40
0.000000
 41
0.000000
  0
VERTEX
  8
0
  6
CONTINUOUS
 10
3.561800
 20
9.177520
  0
VERTEX
  8
0
  6
CONTINUOUS
 10
4.249960
 20
9.205240
  0
VERTEX
  8
0
  6
CONTINUOUS
 10
4.177360
 20
9.039800
  0
VERTEX
  8
0
  6
CONTINUOUS
 10
3.488760
 20
9.012080
  0
VERTEX
  8
0
  6
CONTINUOUS
 10
3.561800
 20
9.177520
  0
SEQEND
  8
0
  0
SOLID
  8
0
 62
    15
 10
3.488760
 20
9.012080
 11
4.177360
 21
9.039800
 12
3.434200
 22
8.849720
 13
4.122360
 23
8.877440
  0
POLYLINE
  8
0
  6
CONTINUOUS
 66
     1
 40
0.000000
 41
0.000000
  0
VERTEX
  8
0
  6
CONTINUOUS
 10
3.488760
 20
9.012080
  0
VERTEX
  8
0
  6
CONTINUOUS
 10
4.177360
 20
9.039800
  0
VERTEX
  8
0
  6
CONTINUOUS
 10
4.122360
 20
8.877440
  0
VERTEX
  8
0
  6
CONTINUOUS
 10
3.434200
 20
8.849720
  0
VERTEX
  8
0
  6
CONTINUOUS
 10
3.488760
 20
9.012080
  0
SEQEND
  8
0
  0
SOLID
  8
0
 62
    15
 10
3.434200
 20
8.849720
 11
4.122360
 21
8.877440
 12
3.398120
 22
8.688680
 13
4.086280
 23
8.716400
  0
POLYLINE
  8
0
  6
CONTINUOUS
 66
     1
 40
0.000000
 41
0.000000
  0
VERTEX
  8
0
  6
CONTINUOUS
 10
3.434200
 20
8.849720
  0
VERTEX
  8
0
  6
CONTINUOUS
 10
4.122360
 20
8.877440
  0
VERTEX
  8
0
  6
CONTINUOUS
 10
4.086280
 20
8.716400
  0
VERTEX
  8
0
  6
CONTINUOUS
 10
3.398120
 20
8.688680
  0
VERTEX
  8
0
  6
CONTINUOUS
 10
3.434200
 20
8.849720
  0
SEQEND
  8
0
  0
SOLID
  8
0
 62
    15
 10
3.398120
 20
8.688680
 11
4.086280
 21
8.716400
 12
3.381840
 22
8.525440
 13
4.070440
 23
8.553160
  0
POLYLINE
  8
0
  6
CONTINUOUS
 66
     1
 40
0.000000
 41
0.000000
  0
VERTEX
  8
0
  6
CONTINUOUS
 10
3.398120
 20
8.688680
  0
VERTEX
  8
0
  6
CONTINUOUS
 10
4.086280
 20
8.716400
  0
VERTEX
  8
0
  6
CONTINUOUS
 10
4.070440
 20
8.553160
  0
VERTEX
  8
0
  6
CONTINUOUS
 10
3.381840
 20
8.525440
  0
VERTEX
  8
0
  6
CONTINUOUS
 10
3.398120
 20
8.688680
  0
SEQEND
  8
0
  0
SOLID
  8
0
 62
    15
 10
3.381840
 20
8.525440
 11
4.070440
 21
8.553160
 12
3.386680
 22
8.358680
 13
4.075280
 23
8.386400
  0
POLYLINE
  8
0
  6
CONTINUOUS
 66
     1
 40
0.000000
 41
0.000000
  0
VERTEX
  8
0
  6
CONTINUOUS
 10
3.381840
 20
8.525440
  0
VERTEX
  8
0
  6
CONTINUOUS
 10
4.070440
 20
8.553160
  0
VERTEX
  8
0
  6
CONTINUOUS
 10
4.075280
 20
8.386400
  0
VERTEX
  8
0
  6
CONTINUOUS
 10
3.386680
 20
8.358680
  0
VERTEX
  8
0
  6
CONTINUOUS
 10
3.381840
 20
8.525440
  0
SEQEND
  8
0
  0
SOLID
  8
0
 62
    15
 10
3.386680
 20
8.358680
 11
4.075280
 21
8.386400
 12
3.397680
 22
8.273320
 13
4.086280
 23
8.301040
  0
POLYLINE
  8
0
  6
CONTINUOUS
 66
     1
 40
0.000000
 41
0.000000
  0
VERTEX
  8
0
  6
CONTINUOUS
 10
3.386680
 20
8.358680
  0
VERTEX
  8
0
  6
CONTINUOUS
 10
4.075280
 20
8.386400
  0
VERTEX
  8
0
  6
CONTINUOUS
 10
4.086280
 20
8.301040
  0
VERTEX
  8
0
  6
CONTINUOUS
 10
3.397680
 20
8.273320
  0
VERTEX
  8
0
  6
CONTINUOUS
 10
3.386680
 20
8.358680
  0
SEQEND
  8
0
  0
SOLID
  8
0
 62
    15
 10
3.397680
 20
8.273320
 11
4.086280
 21
8.301040
 12
3.413960
 22
8.185760
 13
4.102560
 23
8.213480
  0
POLYLINE
  8
0
  6
CONTINUOUS
 66
     1
 40
0.000000
 41
0.000000
  0
VERTEX
  8
0
  6
CONTINUOUS
 10
3.397680
 20
8.273320
  0
VERTEX
  8
0
  6
CONTINUOUS
 10
4.086280
 20
8.301040
  0
VERTEX
  8
0
  6
CONTINUOUS
 10
4.102560
 20
8.213480
  0
VERTEX
  8
0
  6
CONTINUOUS
 10
3.413960
 20
8.185760
  0
VERTEX
  8
0
  6
CONTINUOUS
 10
3.397680
 20
8.273320
  0
SEQEND
  8
0
  0
SOLID
  8
0
 62
    15
 10
3.413960
 20
8.185760
 11
4.102560
 21
8.213480
 12
3.436400
 22
8.096440
 13
4.125000
 23
8.124160
  0
POLYLINE
  8
0
  6
CONTINUOUS
 66
     1
 40
0.000000
 41
0.000000
  0
VERTEX
  8
0
  6
CONTINUOUS
 10
3.413960
 20
8.185760
  0
VERTEX
  8
0
  6
CONTINUOUS
 10
4.102560
 20
8.213480
  0
VERTEX
  8
0
  6
CONTINUOUS
 10
4.125000
 20
8.124160
  0
VERTEX
  8
0
  6
CONTINUOUS
 10
3.436400
 20
8.096440
  0
VERTEX
  8
0
  6
CONTINUOUS
 10
3.413960
 20
8.185760
  0
SEQEND
  8
0
  0
SOLID
  8
0
 62
    15
 10
3.436400
 20
8.096440
 11
4.125000
 21
8.124160
 12
3.464560
 22
8.004480
 13
4.153160
 23
8.032200
  0
POLYLINE
  8
0
  6
CONTINUOUS
 66
     1
 40
0.000000
 41
0.000000
  0
VERTEX
  8
0
  6
CONTINUOUS
 10
3.436400
 20
8.096440
  0
VERTEX
  8
0
  6
CONTINUOUS
 10
4.125000
 20
8.124160
  0
VERTEX
  8
0
  6
CONTINUOUS
 10
4.153160
 20
8.032200
  0
VERTEX
  8
0
  6
CONTINUOUS
 10
3.464560
 20
8.004480
  0
VERTEX
  8
0
  6
CONTINUOUS
 10
3.436400
 20
8.096440
  0
SEQEND
  8
0
  0
SOLID
  8
0
 62
    15
 10
3.464560
 20
8.004480
 11
4.153160
 21
8.032200
 12
3.498880
 22
7.909880
 13
4.187480
 23
7.937600
  0
POLYLINE
  8
0
  6
CONTINUOUS
 66
     1
 40
0.000000
 41
0.000000
  0
VERTEX
  8
0
  6
CONTINUOUS
 10
3.464560
 20
8.004480
  0
VERTEX
  8
0
  6
CONTINUOUS
 10
4.153160
 20
8.032200
  0
VERTEX
  8
0
  6
CONTINUOUS
 10
4.187480
 20
7.937600
  0
VERTEX
  8
0
  6
CONTINUOUS
 10
3.498880
 20
7.909880
  0
VERTEX
  8
0
  6
CONTINUOUS
 10
3.464560
 20
8.004480
  0
SEQEND
  8
0
  0
SOLID
  8
0
 62
    15
 10
3.498880
 20
7.909880
 11
4.187480
 21
7.937600
 12
3.539800
 22
7.811760
 13
4.227960
 23
7.839480
  0
POLYLINE
  8
0
  6
CONTINUOUS
 66
     1
 40
0.000000
 41
0.000000
  0
VERTEX
  8
0
  6
CONTINUOUS
 10
3.498880
 20
7.909880
  0
VERTEX
  8
0
  6
CONTINUOUS
 10
4.187480
 20
7.937600
  0
VERTEX
  8
0
  6
CONTINUOUS
 10
4.227960
 20
7.839480
  0
VERTEX
  8
0
  6
CONTINUOUS
 10
3.539800
 20
7.811760
  0
VERTEX
  8
0
  6
CONTINUOUS
 10
3.498880
 20
7.909880
  0
SEQEND
  8
0
  0
SOLID
  8
0
 62
    15
 10
3.539800
 20
7.811760
 11
4.227960
 21
7.839480
 12
3.586440
 22
7.711000
 13
4.275040
 23
7.738720
  0
POLYLINE
  8
0
  6
CONTINUOUS
 66
     1
 40
0.000000
 41
0.000000
  0
VERTEX
  8
0
  6
CONTINUOUS
 10
3.539800
 20
7.811760
  0
VERTEX
  8
0
  6
CONTINUOUS
 10
4.227960
 20
7.839480
  0
VERTEX
  8
0
  6
CONTINUOUS
 10
4.275040
 20
7.738720
  0
VERTEX
  8
0
  6
CONTINUOUS
 10
3.586440
 20
7.711000
  0
VERTEX
  8
0
  6
CONTINUOUS
 10
3.539800
 20
7.811760
  0
SEQEND
  8
0
  0
SOLID
  8
0
 62
    15
 10
5.148440
 20
5.596360
 11
5.836600
 21
5.624080
 12
4.532880
 22
5.225440
 13
5.221480
 23
5.253160
  0
POLYLINE
  8
0
  6
CONTINUOUS
 66
     1
 40
0.000000
 41
0.000000
  0
VERTEX
  8
0
  6
CONTINUOUS
 10
5.148440
 20
5.596360
  0
VERTEX
  8
0
  6
CONTINUOUS
 10
5.836600
 20
5.624080
  0
VERTEX
  8
0
  6
CONTINUOUS
 10
5.221480
 20
5.253160
  0
VERTEX
  8
0
  6
CONTINUOUS
 10
4.532880
 20
5.225440
  0
VERTEX
  8
0
  6
CONTINUOUS
 10
5.148440
 20
5.596360
  0
SEQEND
  8
0
  0
SOLID
  8
0
 62
    15
 10
3.640120
 20
7.606280
 11
4.328280
 21
7.634000
 12
3.700400
 22
7.497600
 13
4.388560
 23
7.525320
  0
POLYLINE
  8
0
  6
CONTINUOUS
 66
     1
 40
0.000000
 41
0.000000
  0
VERTEX
  8
0
  6
CONTINUOUS
 10
3.640120
 20
7.606280
  0
VERTEX
  8
0
  6
CONTINUOUS
 10
4.328280
 20
7.634000
  0
VERTEX
  8
0
  6
CONTINUOUS
 10
4.388560
 20
7.525320
  0
VERTEX
  8
0
  6
CONTINUOUS
 10
3.700400
 20
7.497600
  0
VERTEX
  8
0
  6
CONTINUOUS
 10
3.640120
 20
7.606280
  0
SEQEND
  8
0
  0
SOLID
  8
0
 62
    15
 10
3.700400
 20
7.497600
 11
4.388560
 21
7.525320
 12
3.767280
 22
7.384960
 13
4.455440
 23
7.412680
  0
POLYLINE
  8
0
  6
CONTINUOUS
 66
     1
 40
0.000000
 41
0.000000
  0
VERTEX
  8
0
  6
CONTINUOUS
 10
3.700400
 20
7.497600
  0
VERTEX
  8
0
  6
CONTINUOUS
 10
4.388560
 20
7.525320
  0
VERTEX
  8
0
  6
CONTINUOUS
 10
4.455440
 20
7.412680
  0
VERTEX
  8
0
  6
CONTINUOUS
 10
3.767280
 20
7.384960
  0
VERTEX
  8
0
  6
CONTINUOUS
 10
3.700400
 20
7.497600
  0
SEQEND
  8
0
  0
SOLID
  8
0
 62
    15
 10
3.767280
 20
7.384960
 11
4.455440
 21
7.412680
 12
3.841200
 22
7.267920
 13
4.529360
 23
7.295640
  0
POLYLINE
  8
0
  6
CONTINUOUS
 66
     1
 40
0.000000
 41
0.000000
  0
VERTEX
  8
0
  6
CONTINUOUS
 10
3.767280
 20
7.384960
  0
VERTEX
  8
0
  6
CONTINUOUS
 10
4.455440
 20
7.412680
  0
VERTEX
  8
0
  6
CONTINUOUS
 10
4.529360
 20
7.295640
  0
VERTEX
  8
0
  6
CONTINUOUS
 10
3.841200
 20
7.267920
  0
VERTEX
  8
0
  6
CONTINUOUS
 10
3.767280
 20
7.384960
  0
SEQEND
  8
0
  0
SOLID
  8
0
 62
    15
 10
3.841200
 20
7.267920
 11
4.529360
 21
7.295640
 12
3.921720
 22
7.145600
 13
4.610320
 23
7.173760
  0
POLYLINE
  8
0
  6
CONTINUOUS
 66
     1
 40
0.000000
 41
0.000000
  0
VERTEX
  8
0
  6
CONTINUOUS
 10
3.841200
 20
7.267920
  0
VERTEX
  8
0
  6
CONTINUOUS
 10
4.529360
 20
7.295640
  0
VERTEX
  8
0
  6
CONTINUOUS
 10
4.610320
 20
7.173760
  0
VERTEX
  8
0
  6
CONTINUOUS
 10
3.921720
 20
7.145600
  0
VERTEX
  8
0
  6
CONTINUOUS
 10
3.841200
 20
7.267920
  0
SEQEND
  8
0
  0
SOLID
  8
0
 62
    15
 10
3.921720
 20
7.145600
 11
4.610320
 21
7.173760
 12
4.010160
 22
7.018880
 13
4.698320
 23
7.046600
  0
POLYLINE
  8
0
  6
CONTINUOUS
 66
     1
 40
0.000000
 41
0.000000
  0
VERTEX
  8
0
  6
CONTINUOUS
 10
3.921720
 20
7.145600
  0
VERTEX
  8
0
  6
CONTINUOUS
 10
4.610320
 20
7.173760
  0
VERTEX
  8
0
  6
CONTINUOUS
 10
4.698320
 20
7.046600
  0
VERTEX
  8
0
  6
CONTINUOUS
 10
4.010160
 20
7.018880
  0
VERTEX
  8
0
  6
CONTINUOUS
 10
3.921720
 20
7.145600
  0
SEQEND
  8
0
  0
SOLID
  8
0
 62
    15
 10
4.010160
 20
7.018880
 11
4.698320
 21
7.046600
 12
4.105640
 22
6.886440
 13
4.794240
 23
6.914160
  0
POLYLINE
  8
0
  6
CONTINUOUS
 66
     1
 40
0.000000
 41
0.000000
  0
VERTEX
  8
0
  6
CONTINUOUS
 10
4.010160
 20
7.018880
  0
VERTEX
  8
0
  6
CONTINUOUS
 10
4.698320
 20
7.046600
  0
VERTEX
  8
0
  6
CONTINUOUS
 10
4.794240
 20
6.914160
  0
VERTEX
  8
0
  6
CONTINUOUS
 10
4.105640
 20
6.886440
  0
VERTEX
  8
0
  6
CONTINUOUS
 10
4.010160
 20
7.018880
  0
SEQEND
  8
0
  0
SOLID
  8
0
 62
    15
 10
4.105640
 20
6.886440
 11
4.794240
 21
6.914160
 12
4.208600
 22
6.748280
 13
4.897200
 23
6.776000
  0
POLYLINE
  8
0
  6
CONTINUOUS
 66
     1
 40
0.000000
 41
0.000000
  0
VERTEX
  8
0
  6
CONTINUOUS
 10
4.105640
 20
6.886440
  0
VERTEX
  8
0
  6
CONTINUOUS
 10
4.794240
 20
6.914160
  0
VERTEX
  8
0
  6
CONTINUOUS
 10
4.897200
 20
6.776000
  0
VERTEX
  8
0
  6
CONTINUOUS
 10
4.208600
 20
6.748280
  0
VERTEX
  8
0
  6
CONTINUOUS
 10
4.105640
 20
6.886440
  0
SEQEND
  8
0
  0
SOLID
  8
0
 62
    15
 10
4.208600
 20
6.748280
 11
4.897200
 21
6.776000
 12
4.319040
 22
6.603960
 13
5.007640
 23
6.631680
  0
POLYLINE
  8
0
  6
CONTINUOUS
 66
     1
 40
0.000000
 41
0.000000
  0
VERTEX
  8
0
  6
CONTINUOUS
 10
4.208600
 20
6.748280
  0
VERTEX
  8
0
  6
CONTINUOUS
 10
4.897200
 20
6.776000
  0
VERTEX
  8
0
  6
CONTINUOUS
 10
5.007640
 20
6.631680
  0
VERTEX
  8
0
  6
CONTINUOUS
 10
4.319040
 20
6.603960
  0
VERTEX
  8
0
  6
CONTINUOUS
 10
4.208600
 20
6.748280
  0
SEQEND
  8
0
  0
SOLID
  8
0
 62
    15
 10
4.319040
 20
6.603960
 11
5.007640
 21
6.631680
 12
4.437400
 22
6.453480
 13
5.126000
 23
6.481640
  0
POLYLINE
  8
0
  6
CONTINUOUS
 66
     1
 40
0.000000
 41
0.000000
  0
VERTEX
  8
0
  6
CONTINUOUS
 10
4.319040
 20
6.603960
  0
VERTEX
  8
0
  6
CONTINUOUS
 10
5.007640
 20
6.631680
  0
VERTEX
  8
0
  6
CONTINUOUS
 10
5.126000
 20
6.481640
  0
VERTEX
  8
0
  6
CONTINUOUS
 10
4.437400
 20
6.453480
  0
VERTEX
  8
0
  6
CONTINUOUS
 10
4.319040
 20
6.603960
  0
SEQEND
  8
0
  0
SOLID
  8
0
 62
    15
 10
4.437400
 20
6.453480
 11
5.126000
 21
6.481640
 12
4.563680
 22
6.296840
 13
5.252280
 23
6.324560
  0
POLYLINE
  8
0
  6
CONTINUOUS
 66
     1
 40
0.000000
 41
0.000000
  0
VERTEX
  8
0
  6
CONTINUOUS
 10
4.437400
 20
6.453480
  0
VERTEX
  8
0
  6
CONTINUOUS
 10
5.126000
 20
6.481640
  0
VERTEX
  8
0
  6
CONTINUOUS
 10
5.252280
 20
6.324560
  0
VERTEX
  8
0
  6
CONTINUOUS
 10
4.563680
 20
6.296840
  0
VERTEX
  8
0
  6
CONTINUOUS
 10
4.437400
 20
6.453480
  0
SEQEND
  8
0
  0
SOLID
  8
0
 62
    15
 10
4.563680
 20
6.296840
 11
5.252280
 21
6.324560
 12
4.697880
 22
6.133160
 13
5.386480
 23
6.160880
  0
POLYLINE
  8
0
  6
CONTINUOUS
 66
     1
 40
0.000000
 41
0.000000
  0
VERTEX
  8
0
  6
CONTINUOUS
 10
4.563680
 20
6.296840
  0
VERTEX
  8
0
  6
CONTINUOUS
 10
5.252280
 20
6.324560
  0
VERTEX
  8
0
  6
CONTINUOUS
 10
5.386480
 20
6.160880
  0
VERTEX
  8
0
  6
CONTINUOUS
 10
4.697880
 20
6.133160
  0
VERTEX
  8
0
  6
CONTINUOUS
 10
4.563680
 20
6.296840
  0
SEQEND
  8
0
  0
SOLID
  8
0
 62
    15
 10
4.697880
 20
6.133160
 11
5.386480
 21
6.160880
 12
4.840440
 22
5.962000
 13
5.529040
 23
5.989720
  0
POLYLINE
  8
0
  6
CONTINUOUS
 66
     1
 40
0.000000
 41
0.000000
  0
VERTEX
  8
0
  6
CONTINUOUS
 10
4.697880
 20
6.133160
  0
VERTEX
  8
0
  6
CONTINUOUS
 10
5.386480
 20
6.160880
  0
VERTEX
  8
0
  6
CONTINUOUS
 10
5.529040
 20
5.989720
  0
VERTEX
  8
0
  6
CONTINUOUS
 10
4.840440
 20
5.962000
  0
VERTEX
  8
0
  6
CONTINUOUS
 10
4.697880
 20
6.133160
  0
SEQEND
  8
0
  0
SOLID
  8
0
 62
    15
 10
4.840440
 20
5.962000
 11
5.529040
 21
5.989720
 12
4.991360
 22
5.783800
 13
5.679960
 23
5.811520
  0
POLYLINE
  8
0
  6
CONTINUOUS
 66
     1
 40
0.000000
 41
0.000000
  0
VERTEX
  8
0
  6
CONTINUOUS
 10
4.840440
 20
5.962000
  0
VERTEX
  8
0
  6
CONTINUOUS
 10
5.529040
 20
5.989720
  0
VERTEX
  8
0
  6
CONTINUOUS
 10
5.679960
 20
5.811520
  0
VERTEX
  8
0
  6
CONTINUOUS
 10
4.991360
 20
5.783800
  0
VERTEX
  8
0
  6
CONTINUOUS
 10
4.840440
 20
5.962000
  0
SEQEND
  8
0
  0
SOLID
  8
0
 62
    15
 10
5.150640
 20
5.597680
 11
5.839240
 21
5.625400
 12
5.148440
 22
5.596360
 13
5.836600
 23
5.624080
  0
POLYLINE
  8
0
  6
CONTINUOUS
 66
     1
 40
0.000000
 41
0.000000
  0
VERTEX
  8
0
  6
CONTINUOUS
 10
5.150640
 20
5.597680
  0
VERTEX
  8
0
  6
CONTINUOUS
 10
5.839240
 20
5.625400
  0
VERTEX
  8
0
  6
CONTINUOUS
 10
5.836600
 20
5.624080
  0
VERTEX
  8
0
  6
CONTINUOUS
 10
5.148440
 20
5.596360
  0
VERTEX
  8
0
  6
CONTINUOUS
 10
5.150640
 20
5.597680
  0
SEQEND
  8
0
  0
SOLID
  8
0
 62
    15
 10
4.991360
 20
5.783800
 11
5.679960
 21
5.811520
 12
5.150640
 22
5.597680
 13
5.839240
 23
5.625400
  0
POLYLINE
  8
0
  6
CONTINUOUS
 66
     1
 40
0.000000
 41
0.000000
  0
VERTEX
  8
0
  6
CONTINUOUS
 10
4.991360
 20
5.783800
  0
VERTEX
  8
0
  6
CONTINUOUS
 10
5.679960
 20
5.811520
  0
VERTEX
  8
0
  6
CONTINUOUS
 10
5.839240
 20
5.625400
  0
VERTEX
  8
0
  6
CONTINUOUS
 10
5.150640
 20
5.597680
  0
VERTEX
  8
0
  6
CONTINUOUS
 10
4.991360
 20
5.783800
  0
SEQEND
  8
0
  0
POLYLINE
  8
0
  6
CONTINUOUS
 66
     1
 40
0.000000
 41
0.000000
  0
VERTEX
  8
0
  6
CONTINUOUS
 10
5.148440
 20
5.596360
  0
VERTEX
  8
0
  6
CONTINUOUS
 10
4.532880
 20
5.225440
  0
VERTEX
  8
0
  6
CONTINUOUS
 10
2.160400
 20
9.159040
  0
VERTEX
  8
0
  6
CONTINUOUS
 10
2.157320
 20
9.161680
  0
VERTEX
  8
0
  6
CONTINUOUS
 10
2.829200
 20
9.909680
  0
VERTEX
  8
0
  6
CONTINUOUS
 10
3.560480
 20
9.184560
  0
VERTEX
  8
0
  6
CONTINUOUS
 10
3.561800
 20
9.177520
  0
VERTEX
  8
0
  6
CONTINUOUS
 10
3.488760
 20
9.012080
  0
VERTEX
  8
0
  6
CONTINUOUS
 10
3.434200
 20
8.849720
  0
VERTEX
  8
0
  6
CONTINUOUS
 10
3.398120
 20
8.688680
  0
VERTEX
  8
0
  6
CONTINUOUS
 10
3.381840
 20
8.525440
  0
VERTEX
  8
0
  6
CONTINUOUS
 10
3.386680
 20
8.358680
  0
VERTEX
  8
0
  6
CONTINUOUS
 10
3.397680
 20
8.273320
  0
VERTEX
  8
0
  6
CONTINUOUS
 10
3.413960
 20
8.185760
  0
VERTEX
  8
0
  6
CONTINUOUS
 10
3.436400
 20
8.096440
  0
VERTEX
  8
0
  6
CONTINUOUS
 10
3.464560
 20
8.004480
  0
VERTEX
  8
0
  6
CONTINUOUS
 10
3.498880
 20
7.909880
  0
VERTEX
  8
0
  6
CONTINUOUS
 10
3.539800
 20
7.811760
  0
VERTEX
  8
0
  6
CONTINUOUS
 10
3.586440
 20
7.711000
  0
VERTEX
  8
0
  6
CONTINUOUS
 10
3.640120
 20
7.606280
  0
VERTEX
  8
0
  6
CONTINUOUS
 10
3.700400
 20
7.497600
  0
VERTEX
  8
0
  6
CONTINUOUS
 10
3.767280
 20
7.384960
  0
VERTEX
  8
0
  6
CONTINUOUS
 10
3.841200
 20
7.267920
  0
VERTEX
  8
0
  6
CONTINUOUS
 10
3.921720
 20
7.145600
  0
VERTEX
  8
0
  6
CONTINUOUS
 10
4.010160
 20
7.018880
  0
VERTEX
  8
0
  6
CONTINUOUS
 10
4.105640
 20
6.886440
  0
VERTEX
  8
0
  6
CONTINUOUS
 10
4.208600
 20
6.748280
  0
VERTEX
  8
0
  6
CONTINUOUS
 10
4.319040
 20
6.603960
  0
VERTEX
  8
0
  6
CONTINUOUS
 10
4.437400
 20
6.453480
  0
VERTEX
  8
0
  6
CONTINUOUS
 10
4.563680
 20
6.296840
  0
VERTEX
  8
0
  6
CONTINUOUS
 10
4.697880
 20
6.133160
  0
VERTEX
  8
0
  6
CONTINUOUS
 10
4.840440
 20
5.962000
  0
VERTEX
  8
0
  6
CONTINUOUS
 10
4.991360
 20
5.783800
  0
VERTEX
  8
0
  6
CONTINUOUS
 10
5.150640
 20
5.597680
  0
VERTEX
  8
0
  6
CONTINUOUS
 10
5.148440
 20
5.596360
  0
SEQEND
  8
0
  0
SOLID
  8
0
 62
    15
 10
7.098080
 20
3.045240
 11
7.854000
 21
3.076040
 12
7.153080
 22
2.950200
 13
7.908560
 23
2.980560
  0
POLYLINE
  8
0
  6
CONTINUOUS
 66
     1
 40
0.000000
 41
0.000000
  0
VERTEX
  8
0
  6
CONTINUOUS
 10
7.098080
 20
3.045240
  0
VERTEX
  8
0
  6
CONTINUOUS
 10
7.854000
 20
3.076040
  0
VERTEX
  8
0
  6
CONTINUOUS
 10
7.908560
 20
2.980560
  0
VERTEX
  8
0
  6
CONTINUOUS
 10
7.153080
 20
2.950200
  0
VERTEX
  8
0
  6
CONTINUOUS
 10
7.098080
 20
3.045240
  0
SEQEND
  8
0
  0
SOLID
  8
0
 62
    15
 10
6.880720
 20
1.329680
 11
7.636640
 21
1.360040
 12
6.883360
 22
1.327920
 13
7.638840
 23
1.358280
  0
POLYLINE
  8
0
  6
CONTINUOUS
 66
     1
 40
0.000000
 41
0.000000
  0
VERTEX
  8
0
  6
CONTINUOUS
 10
6.880720
 20
1.329680
  0
VERTEX
  8
0
  6
CONTINUOUS
 10
7.636640
 20
1.360040
  0
VERTEX
  8
0
  6
CONTINUOUS
 10
7.638840
 20
1.358280
  0
VERTEX
  8
0
  6
CONTINUOUS
 10
6.883360
 20
1.327920
  0
VERTEX
  8
0
  6
CONTINUOUS
 10
6.880720
 20
1.329680
  0
SEQEND
  8
0
  0
SOLID
  8
0
 62
    15
 10
4.706680
 20
5.338960
 11
5.462600
 21
5.369320
 12
4.707560
 22
5.334560
 13
5.463480
 23
5.365360
  0
POLYLINE
  8
0
  6
CONTINUOUS
 66
     1
 40
0.000000
 41
0.000000
  0
VERTEX
  8
0
  6
CONTINUOUS
 10
4.706680
 20
5.338960
  0
VERTEX
  8
0
  6
CONTINUOUS
 10
5.462600
 20
5.369320
  0
VERTEX
  8
0
  6
CONTINUOUS
 10
5.463480
 20
5.365360
  0
VERTEX
  8
0
  6
CONTINUOUS
 10
4.707560
 20
5.334560
  0
VERTEX
  8
0
  6
CONTINUOUS
 10
4.706680
 20
5.338960
  0
SEQEND
  8
0
  0
SOLID
  8
0
 62
    15
 10
4.707560
 20
5.334560
 11
5.463480
 21
5.365360
 12
4.837360
 22
5.119840
 13
5.592840
 23
5.150640
  0
POLYLINE
  8
0
  6
CONTINUOUS
 66
     1
 40
0.000000
 41
0.000000
  0
VERTEX
  8
0
  6
CONTINUOUS
 10
4.707560
 20
5.334560
  0
VERTEX
  8
0
  6
CONTINUOUS
 10
5.463480
 20
5.365360
  0
VERTEX
  8
0
  6
CONTINUOUS
 10
5.592840
 20
5.150640
  0
VERTEX
  8
0
  6
CONTINUOUS
 10
4.837360
 20
5.119840
  0
VERTEX
  8
0
  6
CONTINUOUS
 10
4.707560
 20
5.334560
  0
SEQEND
  8
0
  0
SOLID
  8
0
 62
    15
 10
5.346000
 20
5.724400
 11
6.101920
 21
5.755200
 12
5.352600
 22
5.719120
 13
6.108080
 23
5.749480
  0
POLYLINE
  8
0
  6
CONTINUOUS
 66
     1
 40
0.000000
 41
0.000000
  0
VERTEX
  8
0
  6
CONTINUOUS
 10
5.346000
 20
5.724400
  0
VERTEX
  8
0
  6
CONTINUOUS
 10
6.101920
 20
5.755200
  0
VERTEX
  8
0
  6
CONTINUOUS
 10
6.108080
 20
5.749480
  0
VERTEX
  8
0
  6
CONTINUOUS
 10
5.352600
 20
5.719120
  0
VERTEX
  8
0
  6
CONTINUOUS
 10
5.346000
 20
5.724400
  0
SEQEND
  8
0
  0
SOLID
  8
0
 62
    15
 10
5.352600
 20
5.719120
 11
6.108080
 21
5.749480
 12
5.729680
 22
5.276920
 13
6.485600
 23
5.307280
  0
POLYLINE
  8
0
  6
CONTINUOUS
 66
     1
 40
0.000000
 41
0.000000
  0
VERTEX
  8
0
  6
CONTINUOUS
 10
5.352600
 20
5.719120
  0
VERTEX
  8
0
  6
CONTINUOUS
 10
6.108080
 20
5.749480
  0
VERTEX
  8
0
  6
CONTINUOUS
 10
6.485600
 20
5.307280
  0
VERTEX
  8
0
  6
CONTINUOUS
 10
5.729680
 20
5.276920
  0
VERTEX
  8
0
  6
CONTINUOUS
 10
5.352600
 20
5.719120
  0
SEQEND
  8
0
  0
SOLID
  8
0
 62
    15
 10
5.729680
 20
5.276920
 11
6.485600
 21
5.307280
 12
5.592400
 22
5.161200
 13
6.347880
 23
5.192000
  0
POLYLINE
  8
0
  6
CONTINUOUS
 66
     1
 40
0.000000
 41
0.000000
  0
VERTEX
  8
0
  6
CONTINUOUS
 10
5.729680
 20
5.276920
  0
VERTEX
  8
0
  6
CONTINUOUS
 10
6.485600
 20
5.307280
  0
VERTEX
  8
0
  6
CONTINUOUS
 10
6.347880
 20
5.192000
  0
VERTEX
  8
0
  6
CONTINUOUS
 10
5.592400
 20
5.161200
  0
VERTEX
  8
0
  6
CONTINUOUS
 10
5.729680
 20
5.276920
  0
SEQEND
  8
0
  0
SOLID
  8
0
 62
    15
 10
5.592400
 20
5.161200
 11
6.347880
 21
5.192000
 12
6.291560
 22
4.376240
 13
7.047480
 23
4.407040
  0
POLYLINE
  8
0
  6
CONTINUOUS
 66
     1
 40
0.000000
 41
0.000000
  0
VERTEX
  8
0
  6
CONTINUOUS
 10
5.592400
 20
5.161200
  0
VERTEX
  8
0
  6
CONTINUOUS
 10
6.347880
 20
5.192000
  0
VERTEX
  8
0
  6
CONTINUOUS
 10
7.047480
 20
4.407040
  0
VERTEX
  8
0
  6
CONTINUOUS
 10
6.291560
 20
4.376240
  0
VERTEX
  8
0
  6
CONTINUOUS
 10
5.592400
 20
5.161200
  0
SEQEND
  8
0
  0
SOLID
  8
0
 62
    15
 10
6.391440
 20
4.438280
 11
7.146920
 21
4.468640
 12
6.793160
 22
3.978480
 13
7.549080
 23
4.008840
  0
POLYLINE
  8
0
  6
CONTINUOUS
 66
     1
 40
0.000000
 41
0.000000
  0
VERTEX
  8
0
  6
CONTINUOUS
 10
6.391440
 20
4.438280
  0
VERTEX
  8
0
  6
CONTINUOUS
 10
7.146920
 20
4.468640
  0
VERTEX
  8
0
  6
CONTINUOUS
 10
7.549080
 20
4.008840
  0
VERTEX
  8
0
  6
CONTINUOUS
 10
6.793160
 20
3.978480
  0
VERTEX
  8
0
  6
CONTINUOUS
 10
6.391440
 20
4.438280
  0
SEQEND
  8
0
  0
SOLID
  8
0
 62
    15
 10
6.793160
 20
3.978480
 11
7.549080
 21
4.008840
 12
6.634760
 22
3.835920
 13
7.390680
 23
3.866720
  0
POLYLINE
  8
0
  6
CONTINUOUS
 66
     1
 40
0.000000
 41
0.000000
  0
VERTEX
  8
0
  6
CONTINUOUS
 10
6.793160
 20
3.978480
  0
VERTEX
  8
0
  6
CONTINUOUS
 10
7.549080
 20
4.008840
  0
VERTEX
  8
0
  6
CONTINUOUS
 10
7.390680
 20
3.866720
  0
VERTEX
  8
0
  6
CONTINUOUS
 10
6.634760
 20
3.835920
  0
VERTEX
  8
0
  6
CONTINUOUS
 10
6.793160
 20
3.978480
  0
SEQEND
  8
0
  0
SOLID
  8
0
 62
    15
 10
6.634760
 20
3.835920
 11
7.390680
 21
3.866720
 12
6.883800
 22
3.554760
 13
7.639280
 23
3.585560
  0
POLYLINE
  8
0
  6
CONTINUOUS
 66
     1
 40
0.000000
 41
0.000000
  0
VERTEX
  8
0
  6
CONTINUOUS
 10
6.634760
 20
3.835920
  0
VERTEX
  8
0
  6
CONTINUOUS
 10
7.390680
 20
3.866720
  0
VERTEX
  8
0
  6
CONTINUOUS
 10
7.639280
 20
3.585560
  0
VERTEX
  8
0
  6
CONTINUOUS
 10
6.883800
 20
3.554760
  0
VERTEX
  8
0
  6
CONTINUOUS
 10
6.634760
 20
3.835920
  0
SEQEND
  8
0
  0
SOLID
  8
0
 62
    15
 10
6.883800
 20
3.554760
 11
7.639280
 21
3.585560
 12
6.812960
 22
3.457960
 13
7.568880
 23
3.488320
  0
POLYLINE
  8
0
  6
CONTINUOUS
 66
     1
 40
0.000000
 41
0.000000
  0
VERTEX
  8
0
  6
CONTINUOUS
 10
6.883800
 20
3.554760
  0
VERTEX
  8
0
  6
CONTINUOUS
 10
7.639280
 20
3.585560
  0
VERTEX
  8
0
  6
CONTINUOUS
 10
7.568880
 20
3.488320
  0
VERTEX
  8
0
  6
CONTINUOUS
 10
6.812960
 20
3.457960
  0
VERTEX
  8
0
  6
CONTINUOUS
 10
6.883800
 20
3.554760
  0
SEQEND
  8
0
  0
SOLID
  8
0
 62
    15
 10
6.812960
 20
3.457960
 11
7.568880
 21
3.488320
 12
6.811200
 22
3.453560
 13
7.566680
 23
3.483920
  0
POLYLINE
  8
0
  6
CONTINUOUS
 66
     1
 40
0.000000
 41
0.000000
  0
VERTEX
  8
0
  6
CONTINUOUS
 10
6.812960
 20
3.457960
  0
VERTEX
  8
0
  6
CONTINUOUS
 10
7.568880
 20
3.488320
  0
VERTEX
  8
0
  6
CONTINUOUS
 10
7.566680
 20
3.483920
  0
VERTEX
  8
0
  6
CONTINUOUS
 10
6.811200
 20
3.453560
  0
VERTEX
  8
0
  6
CONTINUOUS
 10
6.812960
 20
3.457960
  0
SEQEND
  8
0
  0
SOLID
  8
0
 62
    15
 10
6.811200
 20
3.453560
 11
7.566680
 21
3.483920
 12
6.893480
 22
3.347520
 13
7.648960
 23
3.377880
  0
POLYLINE
  8
0
  6
CONTINUOUS
 66
     1
 40
0.000000
 41
0.000000
  0
VERTEX
  8
0
  6
CONTINUOUS
 10
6.811200
 20
3.453560
  0
VERTEX
  8
0
  6
CONTINUOUS
 10
7.566680
 20
3.483920
  0
VERTEX
  8
0
  6
CONTINUOUS
 10
7.648960
 20
3.377880
  0
VERTEX
  8
0
  6
CONTINUOUS
 10
6.893480
 20
3.347520
  0
VERTEX
  8
0
  6
CONTINUOUS
 10
6.811200
 20
3.453560
  0
SEQEND
  8
0
  0
SOLID
  8
0
 62
    15
 10
6.893480
 20
3.347520
 11
7.648960
 21
3.377880
 12
6.968720
 22
3.244120
 13
7.724200
 23
3.274920
  0
POLYLINE
  8
0
  6
CONTINUOUS
 66
     1
 40
0.000000
 41
0.000000
  0
VERTEX
  8
0
  6
CONTINUOUS
 10
6.893480
 20
3.347520
  0
VERTEX
  8
0
  6
CONTINUOUS
 10
7.648960
 20
3.377880
  0
VERTEX
  8
0
  6
CONTINUOUS
 10
7.724200
 20
3.274920
  0
VERTEX
  8
0
  6
CONTINUOUS
 10
6.968720
 20
3.244120
  0
VERTEX
  8
0
  6
CONTINUOUS
 10
6.893480
 20
3.347520
  0
SEQEND
  8
0
  0
SOLID
  8
0
 62
    15
 10
6.968720
 20
3.244120
 11
7.724200
 21
3.274920
 12
7.036920
 22
3.143360
 13
7.792400
 23
3.174160
  0
POLYLINE
  8
0
  6
CONTINUOUS
 66
     1
 40
0.000000
 41
0.000000
  0
VERTEX
  8
0
  6
CONTINUOUS
 10
6.968720
 20
3.244120
  0
VERTEX
  8
0
  6
CONTINUOUS
 10
7.724200
 20
3.274920
  0
VERTEX
  8
0
  6
CONTINUOUS
 10
7.792400
 20
3.174160
  0
VERTEX
  8
0
  6
CONTINUOUS
 10
7.036920
 20
3.143360
  0
VERTEX
  8
0
  6
CONTINUOUS
 10
6.968720
 20
3.244120
  0
SEQEND
  8
0
  0
SOLID
  8
0
 62
    15
 10
7.036920
 20
3.143360
 11
7.792400
 21
3.174160
 12
7.098080
 22
3.045240
 13
7.854000
 23
3.076040
  0
POLYLINE
  8
0
  6
CONTINUOUS
 66
     1
 40
0.000000
 41
0.000000
  0
VERTEX
  8
0
  6
CONTINUOUS
 10
7.036920
 20
3.143360
  0
VERTEX
  8
0
  6
CONTINUOUS
 10
7.792400
 20
3.174160
  0
VERTEX
  8
0
  6
CONTINUOUS
 10
7.854000
 20
3.076040
  0
VERTEX
  8
0
  6
CONTINUOUS
 10
7.098080
 20
3.045240
  0
VERTEX
  8
0
  6
CONTINUOUS
 10
7.036920
 20
3.143360
  0
SEQEND
  8
0
  0
SOLID
  8
0
 62
    15
 10
6.910640
 20
1.347280
 11
7.666120
 21
1.378080
 12
6.880720
 22
1.329680
 13
7.636640
 23
1.360040
  0
POLYLINE
  8
0
  6
CONTINUOUS
 66
     1
 40
0.000000
 41
0.000000
  0
VERTEX
  8
0
  6
CONTINUOUS
 10
6.910640
 20
1.347280
  0
VERTEX
  8
0
  6
CONTINUOUS
 10
7.666120
 20
1.378080
  0
VERTEX
  8
0
  6
CONTINUOUS
 10
7.636640
 20
1.360040
  0
VERTEX
  8
0
  6
CONTINUOUS
 10
6.880720
 20
1.329680
  0
VERTEX
  8
0
  6
CONTINUOUS
 10
6.910640
 20
1.347280
  0
SEQEND
  8
0
  0
SOLID
  8
0
 62
    15
 10
7.153080
 20
2.950200
 11
7.908560
 21
2.980560
 12
7.201480
 22
2.857360
 13
7.956960
 23
2.887720
  0
POLYLINE
  8
0
  6
CONTINUOUS
 66
     1
 40
0.000000
 41
0.000000
  0
VERTEX
  8
0
  6
CONTINUOUS
 10
7.153080
 20
2.950200
  0
VERTEX
  8
0
  6
CONTINUOUS
 10
7.908560
 20
2.980560
  0
VERTEX
  8
0
  6
CONTINUOUS
 10
7.956960
 20
2.887720
  0
VERTEX
  8
0
  6
CONTINUOUS
 10
7.201480
 20
2.857360
  0
VERTEX
  8
0
  6
CONTINUOUS
 10
7.153080
 20
2.950200
  0
SEQEND
  8
0
  0
SOLID
  8
0
 62
    15
 10
7.201480
 20
2.857360
 11
7.956960
 21
2.887720
 12
7.243280
 22
2.767160
 13
7.999200
 23
2.797520
  0
POLYLINE
  8
0
  6
CONTINUOUS
 66
     1
 40
0.000000
 41
0.000000
  0
VERTEX
  8
0
  6
CONTINUOUS
 10
7.201480
 20
2.857360
  0
VERTEX
  8
0
  6
CONTINUOUS
 10
7.956960
 20
2.887720
  0
VERTEX
  8
0
  6
CONTINUOUS
 10
7.999200
 20
2.797520
  0
VERTEX
  8
0
  6
CONTINUOUS
 10
7.243280
 20
2.767160
  0
VERTEX
  8
0
  6
CONTINUOUS
 10
7.201480
 20
2.857360
  0
SEQEND
  8
0
  0
SOLID
  8
0
 62
    15
 10
7.243280
 20
2.767160
 11
7.999200
 21
2.797520
 12
7.279800
 22
2.679600
 13
8.035280
 23
2.709960
  0
POLYLINE
  8
0
  6
CONTINUOUS
 66
     1
 40
0.000000
 41
0.000000
  0
VERTEX
  8
0
  6
CONTINUOUS
 10
7.243280
 20
2.767160
  0
VERTEX
  8
0
  6
CONTINUOUS
 10
7.999200
 20
2.797520
  0
VERTEX
  8
0
  6
CONTINUOUS
 10
8.035280
 20
2.709960
  0
VERTEX
  8
0
  6
CONTINUOUS
 10
7.279800
 20
2.679600
  0
VERTEX
  8
0
  6
CONTINUOUS
 10
7.243280
 20
2.767160
  0
SEQEND
  8
0
  0
SOLID
  8
0
 62
    15
 10
7.279800
 20
2.679600
 11
8.035280
 21
2.709960
 12
7.310160
 22
2.594680
 13
8.065640
 23
2.625040
  0
POLYLINE
  8
0
  6
CONTINUOUS
 66
     1
 40
0.000000
 41
0.000000
  0
VERTEX
  8
0
  6
CONTINUOUS
 10
7.279800
 20
2.679600
  0
VERTEX
  8
0
  6
CONTINUOUS
 10
8.035280
 20
2.709960
  0
VERTEX
  8
0
  6
CONTINUOUS
 10
8.065640
 20
2.625040
  0
VERTEX
  8
0
  6
CONTINUOUS
 10
7.310160
 20
2.594680
  0
VERTEX
  8
0
  6
CONTINUOUS
 10
7.279800
 20
2.679600
  0
SEQEND
  8
0
  0
SOLID
  8
0
 62
    15
 10
7.310160
 20
2.594680
 11
8.065640
 21
2.625040
 12
7.334800
 22
2.511960
 13
8.090280
 23
2.542760
  0
POLYLINE
  8
0
  6
CONTINUOUS
 66
     1
 40
0.000000
 41
0.000000
  0
VERTEX
  8
0
  6
CONTINUOUS
 10
7.310160
 20
2.594680
  0
VERTEX
  8
0
  6
CONTINUOUS
 10
8.065640
 20
2.625040
  0
VERTEX
  8
0
  6
CONTINUOUS
 10
8.090280
 20
2.542760
  0
VERTEX
  8
0
  6
CONTINUOUS
 10
7.334800
 20
2.511960
  0
VERTEX
  8
0
  6
CONTINUOUS
 10
7.310160
 20
2.594680
  0
SEQEND
  8
0
  0
SOLID
  8
0
 62
    15
 10
7.334800
 20
2.511960
 11
8.090280
 21
2.542760
 12
7.368680
 22
2.354880
 13
8.124160
 23
2.385680
  0
POLYLINE
  8
0
  6
CONTINUOUS
 66
     1
 40
0.000000
 41
0.000000
  0
VERTEX
  8
0
  6
CONTINUOUS
 10
7.334800
 20
2.511960
  0
VERTEX
  8
0
  6
CONTINUOUS
 10
8.090280
 20
2.542760
  0
VERTEX
  8
0
  6
CONTINUOUS
 10
8.124160
 20
2.385680
  0
VERTEX
  8
0
  6
CONTINUOUS
 10
7.368680
 20
2.354880
  0
VERTEX
  8
0
  6
CONTINUOUS
 10
7.334800
 20
2.511960
  0
SEQEND
  8
0
  0
SOLID
  8
0
 62
    15
 10
7.368680
 20
2.354880
 11
8.124160
 21
2.385680
 12
7.382320
 22
2.207920
 13
8.138240
 23
2.238720
  0
POLYLINE
  8
0
  6
CONTINUOUS
 66
     1
 40
0.000000
 41
0.000000
  0
VERTEX
  8
0
  6
CONTINUOUS
 10
7.368680
 20
2.354880
  0
VERTEX
  8
0
  6
CONTINUOUS
 10
8.124160
 20
2.385680
  0
VERTEX
  8
0
  6
CONTINUOUS
 10
8.138240
 20
2.238720
  0
VERTEX
  8
0
  6
CONTINUOUS
 10
7.382320
 20
2.207920
  0
VERTEX
  8
0
  6
CONTINUOUS
 10
7.368680
 20
2.354880
  0
SEQEND
  8
0
  0
SOLID
  8
0
 62
    15
 10
7.382320
 20
2.207920
 11
8.138240
 21
2.238720
 12
7.378360
 22
2.071520
 13
8.134280
 23
2.101880
  0
POLYLINE
  8
0
  6
CONTINUOUS
 66
     1
 40
0.000000
 41
0.000000
  0
VERTEX
  8
0
  6
CONTINUOUS
 10
7.382320
 20
2.207920
  0
VERTEX
  8
0
  6
CONTINUOUS
 10
8.138240
 20
2.238720
  0
VERTEX
  8
0
  6
CONTINUOUS
 10
8.134280
 20
2.101880
  0
VERTEX
  8
0
  6
CONTINUOUS
 10
7.378360
 20
2.071520
  0
VERTEX
  8
0
  6
CONTINUOUS
 10
7.382320
 20
2.207920
  0
SEQEND
  8
0
  0
SOLID
  8
0
 62
    15
 10
7.378360
 20
2.071520
 11
8.134280
 21
2.101880
 12
7.358120
 22
1.944800
 13
8.113600
 23
1.975600
  0
POLYLINE
  8
0
  6
CONTINUOUS
 66
     1
 40
0.000000
 41
0.000000
  0
VERTEX
  8
0
  6
CONTINUOUS
 10
7.378360
 20
2.071520
  0
VERTEX
  8
0
  6
CONTINUOUS
 10
8.134280
 20
2.101880
  0
VERTEX
  8
0
  6
CONTINUOUS
 10
8.113600
 20
1.975600
  0
VERTEX
  8
0
  6
CONTINUOUS
 10
7.358120
 20
1.944800
  0
VERTEX
  8
0
  6
CONTINUOUS
 10
7.378360
 20
2.071520
  0
SEQEND
  8
0
  0
SOLID
  8
0
 62
    15
 10
7.358120
 20
1.944800
 11
8.113600
 21
1.975600
 12
7.322920
 22
1.828640
 13
8.078400
 23
1.859000
  0
POLYLINE
  8
0
  6
CONTINUOUS
 66
     1
 40
0.000000
 41
0.000000
  0
VERTEX
  8
0
  6
CONTINUOUS
 10
7.358120
 20
1.944800
  0
VERTEX
  8
0
  6
CONTINUOUS
 10
8.113600
 20
1.975600
  0
VERTEX
  8
0
  6
CONTINUOUS
 10
8.078400
 20
1.859000
  0
VERTEX
  8
0
  6
CONTINUOUS
 10
7.322920
 20
1.828640
  0
VERTEX
  8
0
  6
CONTINUOUS
 10
7.358120
 20
1.944800
  0
SEQEND
  8
0
  0
SOLID
  8
0
 62
    15
 10
7.322920
 20
1.828640
 11
8.078400
 21
1.859000
 12
7.274520
 22
1.722160
 13
8.030440
 23
1.752520
  0
POLYLINE
  8
0
  6
CONTINUOUS
 66
     1
 40
0.000000
 41
0.000000
  0
VERTEX
  8
0
  6
CONTINUOUS
 10
7.322920
 20
1.828640
  0
VERTEX
  8
0
  6
CONTINUOUS
 10
8.078400
 20
1.859000
  0
VERTEX
  8
0
  6
CONTINUOUS
 10
8.030440
 20
1.752520
  0
VERTEX
  8
0
  6
CONTINUOUS
 10
7.274520
 20
1.722160
  0
VERTEX
  8
0
  6
CONTINUOUS
 10
7.322920
 20
1.828640
  0
SEQEND
  8
0
  0
SOLID
  8
0
 62
    15
 10
7.274520
 20
1.722160
 11
8.030440
 21
1.752520
 12
7.215120
 22
1.625800
 13
7.971040
 23
1.656160
  0
POLYLINE
  8
0
  6
CONTINUOUS
 66
     1
 40
0.000000
 41
0.000000
  0
VERTEX
  8
0
  6
CONTINUOUS
 10
7.274520
 20
1.722160
  0
VERTEX
  8
0
  6
CONTINUOUS
 10
8.030440
 20
1.752520
  0
VERTEX
  8
0
  6
CONTINUOUS
 10
7.971040
 20
1.656160
  0
VERTEX
  8
0
  6
CONTINUOUS
 10
7.215120
 20
1.625800
  0
VERTEX
  8
0
  6
CONTINUOUS
 10
7.274520
 20
1.722160
  0
SEQEND
  8
0
  0
SOLID
  8
0
 62
    15
 10
7.215120
 20
1.625800
 11
7.971040
 21
1.656160
 12
7.146040
 22
1.539120
 13
7.901960
 23
1.569480
  0
POLYLINE
  8
0
  6
CONTINUOUS
 66
     1
 40
0.000000
 41
0.000000
  0
VERTEX
  8
0
  6
CONTINUOUS
 10
7.215120
 20
1.625800
  0
VERTEX
  8
0
  6
CONTINUOUS
 10
7.971040
 20
1.656160
  0
VERTEX
  8
0
  6
CONTINUOUS
 10
7.901960
 20
1.569480
  0
VERTEX
  8
0
  6
CONTINUOUS
 10
7.146040
 20
1.539120
  0
VERTEX
  8
0
  6
CONTINUOUS
 10
7.215120
 20
1.625800
  0
SEQEND
  8
0
  0
SOLID
  8
0
 62
    15
 10
7.146040
 20
1.539120
 11
7.901960
 21
1.569480
 12
7.069040
 22
1.462120
 13
7.824520
 23
1.492920
  0
POLYLINE
  8
0
  6
CONTINUOUS
 66
     1
 40
0.000000
 41
0.000000
  0
VERTEX
  8
0
  6
CONTINUOUS
 10
7.146040
 20
1.539120
  0
VERTEX
  8
0
  6
CONTINUOUS
 10
7.901960
 20
1.569480
  0
VERTEX
  8
0
  6
CONTINUOUS
 10
7.824520
 20
1.492920
  0
VERTEX
  8
0
  6
CONTINUOUS
 10
7.069040
 20
1.462120
  0
VERTEX
  8
0
  6
CONTINUOUS
 10
7.146040
 20
1.539120
  0
SEQEND
  8
0
  0
SOLID
  8
0
 62
    15
 10
7.069040
 20
1.462120
 11
7.824520
 21
1.492920
 12
6.985440
 22
1.395240
 13
7.741360
 23
1.426040
  0
POLYLINE
  8
0
  6
CONTINUOUS
 66
     1
 40
0.000000
 41
0.000000
  0
VERTEX
  8
0
  6
CONTINUOUS
 10
7.069040
 20
1.462120
  0
VERTEX
  8
0
  6
CONTINUOUS
 10
7.824520
 20
1.492920
  0
VERTEX
  8
0
  6
CONTINUOUS
 10
7.741360
 20
1.426040
  0
VERTEX
  8
0
  6
CONTINUOUS
 10
6.985440
 20
1.395240
  0
VERTEX
  8
0
  6
CONTINUOUS
 10
7.069040
 20
1.462120
  0
SEQEND
  8
0
  0
SOLID
  8
0
 62
    15
 10
6.985440
 20
1.395240
 11
7.741360
 21
1.426040
 12
6.897440
 22
1.338040
 13
7.653360
 23
1.368400
  0
POLYLINE
  8
0
  6
CONTINUOUS
 66
     1
 40
0.000000
 41
0.000000
  0
VERTEX
  8
0
  6
CONTINUOUS
 10
6.985440
 20
1.395240
  0
VERTEX
  8
0
  6
CONTINUOUS
 10
7.741360
 20
1.426040
  0
VERTEX
  8
0
  6
CONTINUOUS
 10
7.653360
 20
1.368400
  0
VERTEX
  8
0
  6
CONTINUOUS
 10
6.897440
 20
1.338040
  0
VERTEX
  8
0
  6
CONTINUOUS
 10
6.985440
 20
1.395240
  0
SEQEND
  8
0
  0
POLYLINE
  8
0
  6
CONTINUOUS
 66
     1
 40
0.000000
 41
0.000000
  0
VERTEX
  8
0
  6
CONTINUOUS
 10
6.910640
 20
1.347280
  0
VERTEX
  8
0
  6
CONTINUOUS
 10
6.880720
 20
1.329680
  0
VERTEX
  8
0
  6
CONTINUOUS
 10
6.883360
 20
1.327920
  0
VERTEX
  8
0
  6
CONTINUOUS
 10
4.528480
 20
5.231160
  0
VERTEX
  8
0
  6
CONTINUOUS
 10
4.706680
 20
5.338960
  0
VERTEX
  8
0
  6
CONTINUOUS
 10
4.707560
 20
5.334560
  0
VERTEX
  8
0
  6
CONTINUOUS
 10
4.837360
 20
5.119840
  0
VERTEX
  8
0
  6
CONTINUOUS
 10
5.026560
 20
5.234240
  0
VERTEX
  8
0
  6
CONTINUOUS
 10
4.895000
 20
5.452480
  0
VERTEX
  8
0
  6
CONTINUOUS
 10
5.346000
 20
5.724400
  0
VERTEX
  8
0
  6
CONTINUOUS
 10
5.352600
 20
5.719120
  0
VERTEX
  8
0
  6
CONTINUOUS
 10
5.729680
 20
5.276920
  0
VERTEX
  8
0
  6
CONTINUOUS
 10
5.592400
 20
5.161200
  0
VERTEX
  8
0
  6
CONTINUOUS
 10
6.291560
 20
4.376240
  0
VERTEX
  8
0
  6
CONTINUOUS
 10
6.391880
 20
4.436960
  0
VERTEX
  8
0
  6
CONTINUOUS
 10
6.391440
 20
4.438280
  0
VERTEX
  8
0
  6
CONTINUOUS
 10
6.793160
 20
3.978480
  0
VERTEX
  8
0
  6
CONTINUOUS
 10
6.634760
 20
3.835920
  0
VERTEX
  8
0
  6
CONTINUOUS
 10
6.883800
 20
3.554760
  0
VERTEX
  8
0
  6
CONTINUOUS
 10
6.812960
 20
3.457960
  0
VERTEX
  8
0
  6
CONTINUOUS
 10
6.811200
 20
3.453560
  0
VERTEX
  8
0
  6
CONTINUOUS
 10
6.893480
 20
3.347520
  0
VERTEX
  8
0
  6
CONTINUOUS
 10
6.968720
 20
3.244120
  0
VERTEX
  8
0
  6
CONTINUOUS
 10
7.036920
 20
3.143360
  0
VERTEX
  8
0
  6
CONTINUOUS
 10
7.098080
 20
3.045240
  0
VERTEX
  8
0
  6
CONTINUOUS
 10
7.153080
 20
2.950200
  0
VERTEX
  8
0
  6
CONTINUOUS
 10
7.201480
 20
2.857360
  0
VERTEX
  8
0
  6
CONTINUOUS
 10
7.243280
 20
2.767160
  0
VERTEX
  8
0
  6
CONTINUOUS
 10
7.279800
 20
2.679600
  0
VERTEX
  8
0
  6
CONTINUOUS
 10
7.310160
 20
2.594680
  0
VERTEX
  8
0
  6
CONTINUOUS
 10
7.334800
 20
2.511960
  0
VERTEX
  8
0
  6
CONTINUOUS
 10
7.368680
 20
2.354880
  0
VERTEX
  8
0
  6
CONTINUOUS
 10
7.382320
 20
2.207920
  0
VERTEX
  8
0
  6
CONTINUOUS
 10
7.378360
 20
2.071520
  0
VERTEX
  8
0
  6
CONTINUOUS
 10
7.358120
 20
1.944800
  0
VERTEX
  8
0
  6
CONTINUOUS
 10
7.322920
 20
1.828640
  0
VERTEX
  8
0
  6
CONTINUOUS
 10
7.274520
 20
1.722160
  0
VERTEX
  8
0
  6
CONTINUOUS
 10
7.215120
 20
1.625800
  0
VERTEX
  8
0
  6
CONTINUOUS
 10
7.146040
 20
1.539120
  0
VERTEX
  8
0
  6
CONTINUOUS
 10
7.069040
 20
1.462120
  0
VERTEX
  8
0
  6
CONTINUOUS
 10
6.985440
 20
1.395240
  0
VERTEX
  8
0
  6
CONTINUOUS
 10
6.897440
 20
1.338040
  0
VERTEX
  8
0
  6
CONTINUOUS
 10
6.910640
 20
1.347280
  0
SEQEND
  8
0
  0
LINE
  8
0
  6
CONTINUOUS
 10
4.709320
 20
5.331480
 11
4.898520
 21
5.445440
  0
POLYLINE
  8
0
  6
CONTINUOUS
 66
     1
 40
0.000000
 41
0.000000
  0
VERTEX
  8
0
  6
CONTINUOUS
 10
5.151960
 20
5.591960
  0
VERTEX
  8
0
  6
CONTINUOUS
 10
4.902040
 20
5.441480
  0
VERTEX
  8
0
  6
CONTINUOUS
 10
4.903800
 20
5.441040
  0
VERTEX
  8
0
  6
CONTINUOUS
 10
5.033600
 20
5.225000
  0
VERTEX
  8
0
  6
CONTINUOUS
 10
5.030960
 20
5.225000
  0
VERTEX
  8
0
  6
CONTINUOUS
 10
4.844840
 20
5.112360
  0
VERTEX
  8
0
  6
CONTINUOUS
 10
4.715480
 20
5.327080
  0
VERTEX
  8
0
  6
CONTINUOUS
 10
4.535960
 20
5.219280
  0
VERTEX
  8
0
  6
CONTINUOUS
 10
2.157320
 20
9.162560
  0
VERTEX
  8
0
  6
CONTINUOUS
 10
2.154240
 20
9.165200
  0
VERTEX
  8
0
  6
CONTINUOUS
 10
2.825680
 20
9.912760
  0
VERTEX
  8
0
  6
CONTINUOUS
 10
3.557400
 20
9.188080
  0
VERTEX
  8
0
  6
CONTINUOUS
 10
3.558280
 20
9.181040
  0
VERTEX
  8
0
  6
CONTINUOUS
 10
3.501960
 20
9.056520
  0
VERTEX
  8
0
  6
CONTINUOUS
 10
3.455760
 20
8.934200
  0
VERTEX
  8
0
  6
CONTINUOUS
 10
3.430680
 20
8.853240
  0
VERTEX
  8
0
  6
CONTINUOUS
 10
3.410000
 20
8.772280
  0
VERTEX
  8
0
  6
CONTINUOUS
 10
3.394600
 20
8.691760
  0
VERTEX
  8
0
  6
CONTINUOUS
 10
3.388440
 20
8.651280
  0
VERTEX
  8
0
  6
CONTINUOUS
 10
3.380520
 20
8.569880
  0
VERTEX
  8
0
  6
CONTINUOUS
 10
3.377440
 20
8.487600
  0
VERTEX
  8
0
  6
CONTINUOUS
 10
3.380080
 20
8.404000
  0
VERTEX
  8
0
  6
CONTINUOUS
 10
3.383160
 20
8.361760
  0
VERTEX
  8
0
  6
CONTINUOUS
 10
3.394160
 20
8.275960
  0
VERTEX
  8
0
  6
CONTINUOUS
 10
3.410440
 20
8.188840
  0
VERTEX
  8
0
  6
CONTINUOUS
 10
3.432440
 20
8.099080
  0
VERTEX
  8
0
  6
CONTINUOUS
 10
3.461040
 20
8.007120
  0
VERTEX
  8
0
  6
CONTINUOUS
 10
3.494920
 20
7.912080
  0
VERTEX
  8
0
  6
CONTINUOUS
 10
3.558280
 20
7.764240
  0
VERTEX
  8
0
  6
CONTINUOUS
 10
3.608440
 20
7.661280
  0
VERTEX
  8
0
  6
CONTINUOUS
 10
3.665200
 20
7.554800
  0
VERTEX
  8
0
  6
CONTINUOUS
 10
3.728560
 20
7.444360
  0
VERTEX
  8
0
  6
CONTINUOUS
 10
3.798960
 20
7.329080
  0
VERTEX
  8
0
  6
CONTINUOUS
 10
3.917320
 20
7.147800
  0
VERTEX
  8
0
  6
CONTINUOUS
 10
4.052400
 20
6.955080
  0
VERTEX
  8
0
  6
CONTINUOUS
 10
4.203760
 20
6.750040
  0
VERTEX
  8
0
  6
CONTINUOUS
 10
4.402640
 20
6.493520
  0
VERTEX
  8
0
  6
CONTINUOUS
 10
4.591840
 20
6.258120
  0
VERTEX
  8
0
  6
CONTINUOUS
 10
4.872560
 20
5.919760
  0
VERTEX
  8
0
  6
CONTINUOUS
 10
5.151960
 20
5.591960
  0
SEQEND
  8
0
  0
TEXT
  8
0
 10
2.399760
 20
9.023520
 40
0.138212
  1
84A
 41
1.000000
  7
SN0
 71
     0
 72
     5
 11
2.695612
 21
9.023520
  0
TEXT
  8
0
 10
5.115440
 20
4.537720
 40
0.138212
  1
84B
 41
1.000000
  7
SN0
 71
     0
 72
     5
 11
5.411292
 21
4.537720
  0
TEXT
  8
0
 10
5.349080
 20
1.554960
 40
0.138212
  1
BA  84 A &B
 41
1.000000
  7
SN0
 71
     0
 72
     5
 11
6.274566
 21
1.554960
  0
TEXT
  8
0
 10
5.239520
 20
1.363120
 40
0.138212
  1
1-5/16" x 9-1/2"
 41
1.000000
  7
SN0
 71
     0
 72
     5
 11
6.385473
 21
1.363120
  0
ENDSEC
  0
EOF
