  0
SECTION
  2
HEADER
  9
$ACADVER
  1
AC1006
  9
$EXTMIN
 10
2.340360
 20
4.322560
  9
$EXTMAX
 10
6.159120
 20
6.677000
  9
$LTSCALE
 40
0.044000
  9
$PDMODE
 70
    35
  9
$PDSIZE
 40
0.035200
  0
ENDSEC
  0
SECTION
  2
TABLES
  0
TABLE
  2
LTYPE
 70
     9
  0
LTYPE
  2
CONTINUOUS
 70
    64
  3
Solid line
 72
    65
 73
     0
 40
0.000000
  0
LTYPE
  2
DASHED
 70
    64
  3
__ __ __ __ __ __ __ __ __ __ __ __ __ __ __
 72
    65
 73
     2
 40
0.000330
 49
0.000220
 49
-0.000110
  0
LTYPE
  2
HIDDEN
 70
    64
  3
 _ _ _ _ _ _ _ _ _ _ _ _ _ _ _ _ _ _ _ _ _ _
 72
    65
 73
     2
 40
0.000165
 49
0.000110
 49
-0.000055
  0
LTYPE
  2
CENTER
 70
    64
  3
____ _ ____ _ ____ _ ____ _ ____ _ ____ _ ____
 72
    65
 73
     4
 40
0.000880
 49
0.000550
 49
-0.000110
 49
0.000110
 49
-0.000110
  0
LTYPE
  2
PHANTOM
 70
    64
  3
_____ _ _ _____ _ _ _____ _ _ _____ _ _ ____
 72
    65
 73
     6
 40
0.001100
 49
0.000550
 49
-0.000110
 49
0.000110
 49
-0.000110
 49
0.000110
 49
-0.000110
  0
LTYPE
  2
DOT
 70
    64
  3
...............................................
 72
    65
 73
     2
 40
0.000110
 49
0.000000
 49
-0.000110
  0
LTYPE
  2
DASHDOT
 70
    64
  3
__ . __ . __ . __ . __ . __ . __ . __ . __ . __
 72
    65
 73
     4
 40
0.000440
 49
0.000220
 49
-0.000110
 49
0.000000
 49
-0.000110
  0
LTYPE
  2
BORDER
 70
    64
  3
__ __ . __ __ . __ __ . __ __ . __ __ . __ __
 72
    65
 73
     6
 40
0.000770
 49
0.000220
 49
-0.000110
 49
0.000220
 49
-0.000110
 49
0.000000
 49
-0.000110
  0
LTYPE
  2
DIVIDE
 70
    64
  3
__ . . __ . . __ . . __ . . __ . . __ . . __
 72
    65
 73
     6
 40
0.000550
 49
0.000220
 49
-0.000110
 49
0.000000
 49
-0.000110
 49
0.000000
 49
-0.000110
  0
LTYPE
  2
DOTDOT
 70
    64
  3
 . .  . .  . .  . .  . .  . . 
 72
    65
 73
     5
 40
0.000242
 49
-0.000110
 49
0.000000
 49
-0.000110
 49
0.000000
 49
-0.000110
  0
ENDTAB
  0
TABLE
  2
STYLE
 70
     2
  0
STYLE
 70
     0
  2
SN0
 40
0.000000
 41
0.000440
 50
0.000000
 71
     0
 42
0.000000
  3
ROMAND
  0
STYLE
 70
    68
  2
SV0
 40
0.000000
 41
0.000440
 50
0.000000
 71
     0
 42
0.000000
  3
ROMAND
  0
ENDTAB
  0
TABLE
  2
LAYER
 70
     3
  0
LAYER
  2
FOREGROUND
 70
    64
 62
     7
  6
CONTINUOUS
  0
LAYER
  2
BACKGROUND
 70
    65
 62
    -7
  6
CONTINUOUS
  0
LAYER
  2
0
 70
    64
 62
     7
  6
CONTINUOUS
  0
ENDTAB
  0
ENDSEC
  0
SECTION
  2
ENTITIES
  0
POLYLINE
  8
FOREGROUND
  6
CONTINUOUS
 66
     1
 40
0.000000
 41
0.000000
  0
VERTEX
  8
FOREGROUND
  6
CONTINUOUS
 10
0.000000
 20
10.999560
  0
VERTEX
  8
FOREGROUND
  6
CONTINUOUS
 10
8.499920
 20
10.999560
  0
VERTEX
  8
FOREGROUND
  6
CONTINUOUS
 10
8.499920
 20
-0.000440
  0
VERTEX
  8
FOREGROUND
  6
CONTINUOUS
 10
0.000000
 20
-0.000440
  0
VERTEX
  8
FOREGROUND
  6
CONTINUOUS
 10
0.000000
 20
10.999560
  0
SEQEND
  8
0
  0
POLYLINE
  8
FOREGROUND
  6
CONTINUOUS
 66
     1
 40
0.000000
 41
0.000000
  0
VERTEX
  8
FOREGROUND
  6
CONTINUOUS
 10
0.000000
 20
10.999560
  0
VERTEX
  8
FOREGROUND
  6
CONTINUOUS
 10
8.499920
 20
10.999560
  0
VERTEX
  8
FOREGROUND
  6
CONTINUOUS
 10
8.499920
 20
-0.000440
  0
VERTEX
  8
FOREGROUND
  6
CONTINUOUS
 10
0.000000
 20
-0.000440
  0
VERTEX
  8
FOREGROUND
  6
CONTINUOUS
 10
0.000000
 20
10.999560
  0
SEQEND
  8
0
  0
SOLID
  8
0
 62
    15
 10
5.078040
 20
5.863880
 11
5.719560
 21
6.237000
 12
5.174840
 22
5.756960
 13
5.816360
 23
6.130520
  0
POLYLINE
  8
0
  6
CONTINUOUS
 66
     1
 40
0.000000
 41
0.000000
  0
VERTEX
  8
0
  6
CONTINUOUS
 10
5.078040
 20
5.863880
  0
VERTEX
  8
0
  6
CONTINUOUS
 10
5.719560
 20
6.237000
  0
VERTEX
  8
0
  6
CONTINUOUS
 10
5.816360
 20
6.130520
  0
VERTEX
  8
0
  6
CONTINUOUS
 10
5.174840
 20
5.756960
  0
VERTEX
  8
0
  6
CONTINUOUS
 10
5.078040
 20
5.863880
  0
SEQEND
  8
0
  0
SOLID
  8
0
 62
    15
 10
4.170760
 20
6.295520
 11
4.812280
 21
6.668640
 12
4.319920
 22
6.272640
 13
4.961440
 23
6.645760
  0
POLYLINE
  8
0
  6
CONTINUOUS
 66
     1
 40
0.000000
 41
0.000000
  0
VERTEX
  8
0
  6
CONTINUOUS
 10
4.170760
 20
6.295520
  0
VERTEX
  8
0
  6
CONTINUOUS
 10
4.812280
 20
6.668640
  0
VERTEX
  8
0
  6
CONTINUOUS
 10
4.961440
 20
6.645760
  0
VERTEX
  8
0
  6
CONTINUOUS
 10
4.319920
 20
6.272640
  0
VERTEX
  8
0
  6
CONTINUOUS
 10
4.170760
 20
6.295520
  0
SEQEND
  8
0
  0
SOLID
  8
0
 62
    15
 10
4.319920
 20
6.272640
 11
4.961440
 21
6.645760
 12
4.463360
 22
6.235680
 13
5.104880
 23
6.608800
  0
POLYLINE
  8
0
  6
CONTINUOUS
 66
     1
 40
0.000000
 41
0.000000
  0
VERTEX
  8
0
  6
CONTINUOUS
 10
4.319920
 20
6.272640
  0
VERTEX
  8
0
  6
CONTINUOUS
 10
4.961440
 20
6.645760
  0
VERTEX
  8
0
  6
CONTINUOUS
 10
5.104880
 20
6.608800
  0
VERTEX
  8
0
  6
CONTINUOUS
 10
4.463360
 20
6.235680
  0
VERTEX
  8
0
  6
CONTINUOUS
 10
4.319920
 20
6.272640
  0
SEQEND
  8
0
  0
SOLID
  8
0
 62
    15
 10
4.463360
 20
6.235680
 11
5.104880
 21
6.608800
 12
4.601080
 22
6.185080
 13
5.242600
 23
6.558200
  0
POLYLINE
  8
0
  6
CONTINUOUS
 66
     1
 40
0.000000
 41
0.000000
  0
VERTEX
  8
0
  6
CONTINUOUS
 10
4.463360
 20
6.235680
  0
VERTEX
  8
0
  6
CONTINUOUS
 10
5.104880
 20
6.608800
  0
VERTEX
  8
0
  6
CONTINUOUS
 10
5.242600
 20
6.558200
  0
VERTEX
  8
0
  6
CONTINUOUS
 10
4.601080
 20
6.185080
  0
VERTEX
  8
0
  6
CONTINUOUS
 10
4.463360
 20
6.235680
  0
SEQEND
  8
0
  0
SOLID
  8
0
 62
    15
 10
4.601080
 20
6.185080
 11
5.242600
 21
6.558200
 12
4.732640
 22
6.122160
 13
5.373720
 23
6.495280
  0
POLYLINE
  8
0
  6
CONTINUOUS
 66
     1
 40
0.000000
 41
0.000000
  0
VERTEX
  8
0
  6
CONTINUOUS
 10
4.601080
 20
6.185080
  0
VERTEX
  8
0
  6
CONTINUOUS
 10
5.242600
 20
6.558200
  0
VERTEX
  8
0
  6
CONTINUOUS
 10
5.373720
 20
6.495280
  0
VERTEX
  8
0
  6
CONTINUOUS
 10
4.732640
 20
6.122160
  0
VERTEX
  8
0
  6
CONTINUOUS
 10
4.601080
 20
6.185080
  0
SEQEND
  8
0
  0
SOLID
  8
0
 62
    15
 10
4.732640
 20
6.122160
 11
5.373720
 21
6.495280
 12
4.856280
 22
6.046920
 13
5.497800
 23
6.420040
  0
POLYLINE
  8
0
  6
CONTINUOUS
 66
     1
 40
0.000000
 41
0.000000
  0
VERTEX
  8
0
  6
CONTINUOUS
 10
4.732640
 20
6.122160
  0
VERTEX
  8
0
  6
CONTINUOUS
 10
5.373720
 20
6.495280
  0
VERTEX
  8
0
  6
CONTINUOUS
 10
5.497800
 20
6.420040
  0
VERTEX
  8
0
  6
CONTINUOUS
 10
4.856280
 20
6.046920
  0
VERTEX
  8
0
  6
CONTINUOUS
 10
4.732640
 20
6.122160
  0
SEQEND
  8
0
  0
SOLID
  8
0
 62
    15
 10
4.856280
 20
6.046920
 11
5.497800
 21
6.420040
 12
4.971560
 22
5.960680
 13
5.613080
 23
6.333800
  0
POLYLINE
  8
0
  6
CONTINUOUS
 66
     1
 40
0.000000
 41
0.000000
  0
VERTEX
  8
0
  6
CONTINUOUS
 10
4.856280
 20
6.046920
  0
VERTEX
  8
0
  6
CONTINUOUS
 10
5.497800
 20
6.420040
  0
VERTEX
  8
0
  6
CONTINUOUS
 10
5.613080
 20
6.333800
  0
VERTEX
  8
0
  6
CONTINUOUS
 10
4.971560
 20
5.960680
  0
VERTEX
  8
0
  6
CONTINUOUS
 10
4.856280
 20
6.046920
  0
SEQEND
  8
0
  0
SOLID
  8
0
 62
    15
 10
4.971560
 20
5.960680
 11
5.613080
 21
6.333800
 12
5.078040
 22
5.863880
 13
5.719560
 23
6.237000
  0
POLYLINE
  8
0
  6
CONTINUOUS
 66
     1
 40
0.000000
 41
0.000000
  0
VERTEX
  8
0
  6
CONTINUOUS
 10
4.971560
 20
5.960680
  0
VERTEX
  8
0
  6
CONTINUOUS
 10
5.613080
 20
6.333800
  0
VERTEX
  8
0
  6
CONTINUOUS
 10
5.719560
 20
6.237000
  0
VERTEX
  8
0
  6
CONTINUOUS
 10
5.078040
 20
5.863880
  0
VERTEX
  8
0
  6
CONTINUOUS
 10
4.971560
 20
5.960680
  0
SEQEND
  8
0
  0
SOLID
  8
0
 62
    15
 10
4.017640
 20
6.303000
 11
4.659160
 21
6.676120
 12
4.170760
 22
6.295520
 13
4.812280
 23
6.668640
  0
POLYLINE
  8
0
  6
CONTINUOUS
 66
     1
 40
0.000000
 41
0.000000
  0
VERTEX
  8
0
  6
CONTINUOUS
 10
4.017640
 20
6.303000
  0
VERTEX
  8
0
  6
CONTINUOUS
 10
4.659160
 20
6.676120
  0
VERTEX
  8
0
  6
CONTINUOUS
 10
4.812280
 20
6.668640
  0
VERTEX
  8
0
  6
CONTINUOUS
 10
4.170760
 20
6.295520
  0
VERTEX
  8
0
  6
CONTINUOUS
 10
4.017640
 20
6.303000
  0
SEQEND
  8
0
  0
SOLID
  8
0
 62
    15
 10
5.174840
 20
5.756960
 11
5.816360
 21
6.130520
 12
5.261080
 22
5.641680
 13
5.902600
 23
6.014800
  0
POLYLINE
  8
0
  6
CONTINUOUS
 66
     1
 40
0.000000
 41
0.000000
  0
VERTEX
  8
0
  6
CONTINUOUS
 10
5.174840
 20
5.756960
  0
VERTEX
  8
0
  6
CONTINUOUS
 10
5.816360
 20
6.130520
  0
VERTEX
  8
0
  6
CONTINUOUS
 10
5.902600
 20
6.014800
  0
VERTEX
  8
0
  6
CONTINUOUS
 10
5.261080
 20
5.641680
  0
VERTEX
  8
0
  6
CONTINUOUS
 10
5.174840
 20
5.756960
  0
SEQEND
  8
0
  0
SOLID
  8
0
 62
    15
 10
5.261080
 20
5.641680
 11
5.902600
 21
6.014800
 12
5.336320
 22
5.518040
 13
5.977840
 23
5.891160
  0
POLYLINE
  8
0
  6
CONTINUOUS
 66
     1
 40
0.000000
 41
0.000000
  0
VERTEX
  8
0
  6
CONTINUOUS
 10
5.261080
 20
5.641680
  0
VERTEX
  8
0
  6
CONTINUOUS
 10
5.902600
 20
6.014800
  0
VERTEX
  8
0
  6
CONTINUOUS
 10
5.977840
 20
5.891160
  0
VERTEX
  8
0
  6
CONTINUOUS
 10
5.336320
 20
5.518040
  0
VERTEX
  8
0
  6
CONTINUOUS
 10
5.261080
 20
5.641680
  0
SEQEND
  8
0
  0
SOLID
  8
0
 62
    15
 10
5.336320
 20
5.518040
 11
5.977840
 21
5.891160
 12
5.399680
 22
5.386920
 13
6.041200
 23
5.760040
  0
POLYLINE
  8
0
  6
CONTINUOUS
 66
     1
 40
0.000000
 41
0.000000
  0
VERTEX
  8
0
  6
CONTINUOUS
 10
5.336320
 20
5.518040
  0
VERTEX
  8
0
  6
CONTINUOUS
 10
5.977840
 20
5.891160
  0
VERTEX
  8
0
  6
CONTINUOUS
 10
6.041200
 20
5.760040
  0
VERTEX
  8
0
  6
CONTINUOUS
 10
5.399680
 20
5.386920
  0
VERTEX
  8
0
  6
CONTINUOUS
 10
5.336320
 20
5.518040
  0
SEQEND
  8
0
  0
SOLID
  8
0
 62
    15
 10
5.399680
 20
5.386920
 11
6.041200
 21
5.760040
 12
5.449840
 22
5.249200
 13
6.091360
 23
5.622320
  0
POLYLINE
  8
0
  6
CONTINUOUS
 66
     1
 40
0.000000
 41
0.000000
  0
VERTEX
  8
0
  6
CONTINUOUS
 10
5.399680
 20
5.386920
  0
VERTEX
  8
0
  6
CONTINUOUS
 10
6.041200
 20
5.760040
  0
VERTEX
  8
0
  6
CONTINUOUS
 10
6.091360
 20
5.622320
  0
VERTEX
  8
0
  6
CONTINUOUS
 10
5.449840
 20
5.249200
  0
VERTEX
  8
0
  6
CONTINUOUS
 10
5.399680
 20
5.386920
  0
SEQEND
  8
0
  0
SOLID
  8
0
 62
    15
 10
5.449840
 20
5.249200
 11
6.091360
 21
5.622320
 12
5.486800
 22
5.105320
 13
6.128320
 23
5.478440
  0
POLYLINE
  8
0
  6
CONTINUOUS
 66
     1
 40
0.000000
 41
0.000000
  0
VERTEX
  8
0
  6
CONTINUOUS
 10
5.449840
 20
5.249200
  0
VERTEX
  8
0
  6
CONTINUOUS
 10
6.091360
 20
5.622320
  0
VERTEX
  8
0
  6
CONTINUOUS
 10
6.128320
 20
5.478440
  0
VERTEX
  8
0
  6
CONTINUOUS
 10
5.486800
 20
5.105320
  0
VERTEX
  8
0
  6
CONTINUOUS
 10
5.449840
 20
5.249200
  0
SEQEND
  8
0
  0
SOLID
  8
0
 62
    15
 10
5.486800
 20
5.105320
 11
6.128320
 21
5.478440
 12
5.509680
 22
4.956600
 13
6.151200
 23
5.329720
  0
POLYLINE
  8
0
  6
CONTINUOUS
 66
     1
 40
0.000000
 41
0.000000
  0
VERTEX
  8
0
  6
CONTINUOUS
 10
5.486800
 20
5.105320
  0
VERTEX
  8
0
  6
CONTINUOUS
 10
6.128320
 20
5.478440
  0
VERTEX
  8
0
  6
CONTINUOUS
 10
6.151200
 20
5.329720
  0
VERTEX
  8
0
  6
CONTINUOUS
 10
5.509680
 20
4.956600
  0
VERTEX
  8
0
  6
CONTINUOUS
 10
5.486800
 20
5.105320
  0
SEQEND
  8
0
  0
SOLID
  8
0
 62
    15
 10
5.509680
 20
4.956600
 11
6.151200
 21
5.329720
 12
5.517600
 22
4.803040
 13
6.159120
 23
5.176160
  0
POLYLINE
  8
0
  6
CONTINUOUS
 66
     1
 40
0.000000
 41
0.000000
  0
VERTEX
  8
0
  6
CONTINUOUS
 10
5.509680
 20
4.956600
  0
VERTEX
  8
0
  6
CONTINUOUS
 10
6.151200
 20
5.329720
  0
VERTEX
  8
0
  6
CONTINUOUS
 10
6.159120
 20
5.176160
  0
VERTEX
  8
0
  6
CONTINUOUS
 10
5.517600
 20
4.803040
  0
VERTEX
  8
0
  6
CONTINUOUS
 10
5.509680
 20
4.956600
  0
SEQEND
  8
0
  0
POLYLINE
  8
0
  6
CONTINUOUS
 66
     1
 40
0.000000
 41
0.000000
  0
VERTEX
  8
0
  6
CONTINUOUS
 10
5.517600
 20
4.804360
  0
VERTEX
  8
0
  6
CONTINUOUS
 10
4.017640
 20
4.804360
  0
VERTEX
  8
0
  6
CONTINUOUS
 10
4.017640
 20
6.303000
  0
VERTEX
  8
0
  6
CONTINUOUS
 10
4.170760
 20
6.295520
  0
VERTEX
  8
0
  6
CONTINUOUS
 10
4.319920
 20
6.272640
  0
VERTEX
  8
0
  6
CONTINUOUS
 10
4.463360
 20
6.235680
  0
VERTEX
  8
0
  6
CONTINUOUS
 10
4.601080
 20
6.185080
  0
VERTEX
  8
0
  6
CONTINUOUS
 10
4.732640
 20
6.122160
  0
VERTEX
  8
0
  6
CONTINUOUS
 10
4.856280
 20
6.046920
  0
VERTEX
  8
0
  6
CONTINUOUS
 10
4.971560
 20
5.960680
  0
VERTEX
  8
0
  6
CONTINUOUS
 10
5.078040
 20
5.863880
  0
VERTEX
  8
0
  6
CONTINUOUS
 10
5.174840
 20
5.756960
  0
VERTEX
  8
0
  6
CONTINUOUS
 10
5.261080
 20
5.641680
  0
VERTEX
  8
0
  6
CONTINUOUS
 10
5.336320
 20
5.518040
  0
VERTEX
  8
0
  6
CONTINUOUS
 10
5.399680
 20
5.386920
  0
VERTEX
  8
0
  6
CONTINUOUS
 10
5.449840
 20
5.249200
  0
VERTEX
  8
0
  6
CONTINUOUS
 10
5.486800
 20
5.105320
  0
VERTEX
  8
0
  6
CONTINUOUS
 10
5.509680
 20
4.956600
  0
VERTEX
  8
0
  6
CONTINUOUS
 10
5.517600
 20
4.803040
  0
VERTEX
  8
0
  6
CONTINUOUS
 10
5.517600
 20
4.804360
  0
SEQEND
  8
0
  0
TEXT
  8
0
 10
4.840000
 20
4.558840
 40
0.138101
  1
BA  82
 41
1.000000
  7
SN0
 71
     0
 72
     5
 11
5.337966
 21
4.558840
  0
TEXT
  8
0
 10
4.870360
 20
4.367000
 40
0.138101
  1
1-1/2"
 41
1.000000
  7
SN0
 71
     0
 72
     5
 11
5.307035
 21
4.367000
  0
POLYLINE
  8
0
  6
CONTINUOUS
 66
     1
 40
0.014080
 41
0.014080
  0
VERTEX
  8
0
  6
CONTINUOUS
 10
3.848240
 20
4.864200
  0
VERTEX
  8
0
  6
CONTINUOUS
 10
2.348280
 20
4.864200
  0
VERTEX
  8
0
  6
CONTINUOUS
 10
2.348280
 20
6.362840
  0
VERTEX
  8
0
  6
CONTINUOUS
 10
2.425280
 20
6.361080
  0
VERTEX
  8
0
  6
CONTINUOUS
 10
2.501400
 20
6.354920
  0
VERTEX
  8
0
  6
CONTINUOUS
 10
2.576640
 20
6.345680
  0
VERTEX
  8
0
  6
CONTINUOUS
 10
2.650560
 20
6.332480
  0
VERTEX
  8
0
  6
CONTINUOUS
 10
2.723160
 20
6.315760
  0
VERTEX
  8
0
  6
CONTINUOUS
 10
2.794000
 20
6.295520
  0
VERTEX
  8
0
  6
CONTINUOUS
 10
2.863960
 20
6.271760
  0
VERTEX
  8
0
  6
CONTINUOUS
 10
2.965600
 20
6.230400
  0
VERTEX
  8
0
  6
CONTINUOUS
 10
3.031160
 20
6.198720
  0
VERTEX
  8
0
  6
CONTINUOUS
 10
3.094960
 20
6.163960
  0
VERTEX
  8
0
  6
CONTINUOUS
 10
3.186920
 20
6.106760
  0
VERTEX
  8
0
  6
CONTINUOUS
 10
3.274040
 20
6.042960
  0
VERTEX
  8
0
  6
CONTINUOUS
 10
3.356760
 20
5.973000
  0
VERTEX
  8
0
  6
CONTINUOUS
 10
3.433760
 20
5.897760
  0
VERTEX
  8
0
  6
CONTINUOUS
 10
3.482160
 20
5.844520
  0
VERTEX
  8
0
  6
CONTINUOUS
 10
3.550360
 20
5.760040
  0
VERTEX
  8
0
  6
CONTINUOUS
 10
3.592160
 20
5.701520
  0
VERTEX
  8
0
  6
CONTINUOUS
 10
3.649360
 20
5.609560
  0
VERTEX
  8
0
  6
CONTINUOUS
 10
3.700400
 20
5.513200
  0
VERTEX
  8
0
  6
CONTINUOUS
 10
3.730320
 20
5.446760
  0
VERTEX
  8
0
  6
CONTINUOUS
 10
3.769480
 20
5.343800
  0
VERTEX
  8
0
  6
CONTINUOUS
 10
3.791480
 20
5.273400
  0
VERTEX
  8
0
  6
CONTINUOUS
 10
3.809960
 20
5.201680
  0
VERTEX
  8
0
  6
CONTINUOUS
 10
3.824920
 20
5.128200
  0
VERTEX
  8
0
  6
CONTINUOUS
 10
3.836360
 20
5.053840
  0
VERTEX
  8
0
  6
CONTINUOUS
 10
3.843840
 20
4.978160
  0
VERTEX
  8
0
  6
CONTINUOUS
 10
3.847800
 20
4.901600
  0
VERTEX
  8
0
  6
CONTINUOUS
 10
3.848240
 20
4.862880
  0
SEQEND
  8
0
  0
TEXT
  8
0
 10
2.844160
 20
5.176160
 40
0.138101
  1
BA  82
 41
1.000000
  7
SN0
 71
     0
 72
     5
 11
3.342126
 21
5.176160
  0
TEXT
  8
0
 10
2.874960
 20
4.984320
 40
0.138101
  1
1-1/2"
 41
1.000000
  7
SN0
 71
     0
 72
     5
 11
3.311635
 21
4.984320
  0
ENDSEC
  0
EOF
