  0
SECTION
  2
HEADER
  9
$ACADVER
  1
AC1006
  9
$EXTMIN
 10
3.872440
 20
0.341880
  9
$EXTMAX
 10
8.015040
 20
2.761440
  9
$LTSCALE
 40
0.044000
  9
$PDMODE
 70
    35
  9
$PDSIZE
 40
0.035200
  0
ENDSEC
  0
SECTION
  2
TABLES
  0
TABLE
  2
LTYPE
 70
     9
  0
LTYPE
  2
CONTINUOUS
 70
    64
  3
Solid line
 72
    65
 73
     0
 40
0.000000
  0
LTYPE
  2
DASHED
 70
    64
  3
__ __ __ __ __ __ __ __ __ __ __ __ __ __ __
 72
    65
 73
     2
 40
0.000330
 49
0.000220
 49
-0.000110
  0
LTYPE
  2
HIDDEN
 70
    64
  3
 _ _ _ _ _ _ _ _ _ _ _ _ _ _ _ _ _ _ _ _ _ _
 72
    65
 73
     2
 40
0.000165
 49
0.000110
 49
-0.000055
  0
LTYPE
  2
CENTER
 70
    64
  3
____ _ ____ _ ____ _ ____ _ ____ _ ____ _ ____
 72
    65
 73
     4
 40
0.000880
 49
0.000550
 49
-0.000110
 49
0.000110
 49
-0.000110
  0
LTYPE
  2
PHANTOM
 70
    64
  3
_____ _ _ _____ _ _ _____ _ _ _____ _ _ ____
 72
    65
 73
     6
 40
0.001100
 49
0.000550
 49
-0.000110
 49
0.000110
 49
-0.000110
 49
0.000110
 49
-0.000110
  0
LTYPE
  2
DOT
 70
    64
  3
...............................................
 72
    65
 73
     2
 40
0.000110
 49
0.000000
 49
-0.000110
  0
LTYPE
  2
DASHDOT
 70
    64
  3
__ . __ . __ . __ . __ . __ . __ . __ . __ . __
 72
    65
 73
     4
 40
0.000440
 49
0.000220
 49
-0.000110
 49
0.000000
 49
-0.000110
  0
LTYPE
  2
BORDER
 70
    64
  3
__ __ . __ __ . __ __ . __ __ . __ __ . __ __
 72
    65
 73
     6
 40
0.000770
 49
0.000220
 49
-0.000110
 49
0.000220
 49
-0.000110
 49
0.000000
 49
-0.000110
  0
LTYPE
  2
DIVIDE
 70
    64
  3
__ . . __ . . __ . . __ . . __ . . __ . . __
 72
    65
 73
     6
 40
0.000550
 49
0.000220
 49
-0.000110
 49
0.000000
 49
-0.000110
 49
0.000000
 49
-0.000110
  0
LTYPE
  2
DOTDOT
 70
    64
  3
 . .  . .  . .  . .  . .  . . 
 72
    65
 73
     5
 40
0.000242
 49
-0.000110
 49
0.000000
 49
-0.000110
 49
0.000000
 49
-0.000110
  0
ENDTAB
  0
TABLE
  2
STYLE
 70
     2
  0
STYLE
 70
     0
  2
SN0
 40
0.000000
 41
0.000440
 50
0.000000
 71
     0
 42
0.000000
  3
ROMAND
  0
STYLE
 70
    68
  2
SV0
 40
0.000000
 41
0.000440
 50
0.000000
 71
     0
 42
0.000000
  3
ROMAND
  0
ENDTAB
  0
TABLE
  2
LAYER
 70
     3
  0
LAYER
  2
FOREGROUND
 70
    64
 62
     7
  6
CONTINUOUS
  0
LAYER
  2
BACKGROUND
 70
    65
 62
    -7
  6
CONTINUOUS
  0
LAYER
  2
0
 70
    64
 62
     7
  6
CONTINUOUS
  0
ENDTAB
  0
ENDSEC
  0
SECTION
  2
ENTITIES
  0
POLYLINE
  8
FOREGROUND
  6
CONTINUOUS
 66
     1
 40
0.000000
 41
0.000000
  0
VERTEX
  8
FOREGROUND
  6
CONTINUOUS
 10
0.000000
 20
3.103320
  0
VERTEX
  8
FOREGROUND
  6
CONTINUOUS
 10
8.499920
 20
3.103320
  0
VERTEX
  8
FOREGROUND
  6
CONTINUOUS
 10
8.499920
 20
-7.896680
  0
VERTEX
  8
FOREGROUND
  6
CONTINUOUS
 10
0.000000
 20
-7.896680
  0
VERTEX
  8
FOREGROUND
  6
CONTINUOUS
 10
0.000000
 20
3.103320
  0
SEQEND
  8
0
  0
POLYLINE
  8
FOREGROUND
  6
CONTINUOUS
 66
     1
 40
0.000000
 41
0.000000
  0
VERTEX
  8
FOREGROUND
  6
CONTINUOUS
 10
0.000000
 20
3.103320
  0
VERTEX
  8
FOREGROUND
  6
CONTINUOUS
 10
8.499920
 20
3.103320
  0
VERTEX
  8
FOREGROUND
  6
CONTINUOUS
 10
8.499920
 20
-7.896680
  0
VERTEX
  8
FOREGROUND
  6
CONTINUOUS
 10
0.000000
 20
-7.896680
  0
VERTEX
  8
FOREGROUND
  6
CONTINUOUS
 10
0.000000
 20
3.103320
  0
SEQEND
  8
0
  0
POLYLINE
  8
0
  6
CONTINUOUS
 66
     1
 40
0.014080
 41
0.014080
  0
VERTEX
  8
0
  6
CONTINUOUS
 10
3.914680
 20
2.658040
  0
VERTEX
  8
0
  6
CONTINUOUS
 10
3.880360
 20
2.658040
  0
VERTEX
  8
0
  6
CONTINUOUS
 10
3.880360
 20
2.610080
  0
VERTEX
  8
0
  6
CONTINUOUS
 10
3.884320
 20
2.587640
  0
VERTEX
  8
0
  6
CONTINUOUS
 10
3.892240
 20
2.568720
  0
VERTEX
  8
0
  6
CONTINUOUS
 10
3.903680
 20
2.552880
  0
VERTEX
  8
0
  6
CONTINUOUS
 10
3.919520
 20
2.540120
  0
VERTEX
  8
0
  6
CONTINUOUS
 10
3.940200
 20
2.530440
  0
VERTEX
  8
0
  6
CONTINUOUS
 10
3.966160
 20
2.523400
  0
VERTEX
  8
0
  6
CONTINUOUS
 10
3.997400
 20
2.519440
  0
VERTEX
  8
0
  6
CONTINUOUS
 10
4.036120
 20
2.517680
  0
VERTEX
  8
0
  6
CONTINUOUS
 10
4.036120
 20
2.413840
  0
VERTEX
  8
0
  6
CONTINUOUS
 10
3.991240
 20
2.412960
  0
VERTEX
  8
0
  6
CONTINUOUS
 10
3.964400
 20
2.410320
  0
VERTEX
  8
0
  6
CONTINUOUS
 10
3.934040
 20
2.402400
  0
VERTEX
  8
0
  6
CONTINUOUS
 10
3.919960
 20
2.393600
  0
VERTEX
  8
0
  6
CONTINUOUS
 10
3.909400
 20
2.381720
  0
VERTEX
  8
0
  6
CONTINUOUS
 10
3.902360
 20
2.365000
  0
VERTEX
  8
0
  6
CONTINUOUS
 10
3.898840
 20
2.343440
  0
VERTEX
  8
0
  6
CONTINUOUS
 10
3.897520
 20
2.315280
  0
VERTEX
  8
0
  6
CONTINUOUS
 10
3.897520
 20
2.272600
  0
VERTEX
  8
0
  6
CONTINUOUS
 10
6.152080
 20
2.272600
  0
VERTEX
  8
0
  6
CONTINUOUS
 10
6.155600
 20
2.337720
  0
VERTEX
  8
0
  6
CONTINUOUS
 10
6.161760
 20
2.365880
  0
VERTEX
  8
0
  6
CONTINUOUS
 10
6.171000
 20
2.381280
  0
VERTEX
  8
0
  6
CONTINUOUS
 10
6.177160
 20
2.387880
  0
VERTEX
  8
0
  6
CONTINUOUS
 10
6.194320
 20
2.398000
  0
VERTEX
  8
0
  6
CONTINUOUS
 10
6.229960
 20
2.405480
  0
VERTEX
  8
0
  6
CONTINUOUS
 10
6.257240
 20
2.415160
  0
VERTEX
  8
0
  6
CONTINUOUS
 10
6.276600
 20
2.426600
  0
VERTEX
  8
0
  6
CONTINUOUS
 10
6.288920
 20
2.440240
  0
VERTEX
  8
0
  6
CONTINUOUS
 10
6.294640
 20
2.454760
  0
VERTEX
  8
0
  6
CONTINUOUS
 10
6.294640
 20
2.464440
  0
VERTEX
  8
0
  6
CONTINUOUS
 10
6.290240
 20
2.478960
  0
VERTEX
  8
0
  6
CONTINUOUS
 10
6.284080
 20
2.488200
  0
VERTEX
  8
0
  6
CONTINUOUS
 10
6.276160
 20
2.496560
  0
VERTEX
  8
0
  6
CONTINUOUS
 10
6.253280
 20
2.510640
  0
VERTEX
  8
0
  6
CONTINUOUS
 10
6.223800
 20
2.519000
  0
VERTEX
  8
0
  6
CONTINUOUS
 10
6.196080
 20
2.522960
  0
VERTEX
  8
0
  6
CONTINUOUS
 10
6.178920
 20
2.529560
  0
VERTEX
  8
0
  6
CONTINUOUS
 10
6.167480
 20
2.538360
  0
VERTEX
  8
0
  6
CONTINUOUS
 10
6.160000
 20
2.550680
  0
VERTEX
  8
0
  6
CONTINUOUS
 10
6.154720
 20
2.576200
  0
VERTEX
  8
0
  6
CONTINUOUS
 10
6.153400
 20
2.611840
  0
VERTEX
  8
0
  6
CONTINUOUS
 10
6.153400
 20
2.658040
  0
VERTEX
  8
0
  6
CONTINUOUS
 10
3.901480
 20
2.658040
  0
VERTEX
  8
0
  6
CONTINUOUS
 10
3.914680
 20
2.658040
  0
SEQEND
  8
0
  0
SOLID
  8
0
 62
    15
 10
7.434240
 20
1.001880
 11
7.428080
 21
1.779360
 12
7.435120
 22
0.992200
 13
7.429400
 23
1.769680
  0
POLYLINE
  8
0
  6
CONTINUOUS
 66
     1
 40
0.000000
 41
0.000000
  0
VERTEX
  8
0
  6
CONTINUOUS
 10
7.434240
 20
1.001880
  0
VERTEX
  8
0
  6
CONTINUOUS
 10
7.428080
 20
1.779360
  0
VERTEX
  8
0
  6
CONTINUOUS
 10
7.429400
 20
1.769680
  0
VERTEX
  8
0
  6
CONTINUOUS
 10
7.435120
 20
0.992200
  0
VERTEX
  8
0
  6
CONTINUOUS
 10
7.434240
 20
1.001880
  0
SEQEND
  8
0
  0
SOLID
  8
0
 62
    15
 10
7.295200
 20
1.108800
 11
7.289040
 21
1.886280
 12
7.297840
 22
1.090760
 13
7.292120
 23
1.868240
  0
POLYLINE
  8
0
  6
CONTINUOUS
 66
     1
 40
0.000000
 41
0.000000
  0
VERTEX
  8
0
  6
CONTINUOUS
 10
7.295200
 20
1.108800
  0
VERTEX
  8
0
  6
CONTINUOUS
 10
7.289040
 20
1.886280
  0
VERTEX
  8
0
  6
CONTINUOUS
 10
7.292120
 20
1.868240
  0
VERTEX
  8
0
  6
CONTINUOUS
 10
7.297840
 20
1.090760
  0
VERTEX
  8
0
  6
CONTINUOUS
 10
7.295200
 20
1.108800
  0
SEQEND
  8
0
  0
SOLID
  8
0
 62
    15
 10
7.293880
 20
1.131240
 11
7.288160
 21
1.908280
 12
7.295200
 22
1.108800
 13
7.289040
 23
1.886280
  0
POLYLINE
  8
0
  6
CONTINUOUS
 66
     1
 40
0.000000
 41
0.000000
  0
VERTEX
  8
0
  6
CONTINUOUS
 10
7.293880
 20
1.131240
  0
VERTEX
  8
0
  6
CONTINUOUS
 10
7.288160
 20
1.908280
  0
VERTEX
  8
0
  6
CONTINUOUS
 10
7.289040
 20
1.886280
  0
VERTEX
  8
0
  6
CONTINUOUS
 10
7.295200
 20
1.108800
  0
VERTEX
  8
0
  6
CONTINUOUS
 10
7.293880
 20
1.131240
  0
SEQEND
  8
0
  0
SOLID
  8
0
 62
    15
 10
7.297840
 20
1.090760
 11
7.292120
 21
1.868240
 12
7.303560
 22
1.076680
 13
7.297840
 23
1.854160
  0
POLYLINE
  8
0
  6
CONTINUOUS
 66
     1
 40
0.000000
 41
0.000000
  0
VERTEX
  8
0
  6
CONTINUOUS
 10
7.297840
 20
1.090760
  0
VERTEX
  8
0
  6
CONTINUOUS
 10
7.292120
 20
1.868240
  0
VERTEX
  8
0
  6
CONTINUOUS
 10
7.297840
 20
1.854160
  0
VERTEX
  8
0
  6
CONTINUOUS
 10
7.303560
 20
1.076680
  0
VERTEX
  8
0
  6
CONTINUOUS
 10
7.297840
 20
1.090760
  0
SEQEND
  8
0
  0
SOLID
  8
0
 62
    15
 10
7.303560
 20
1.076680
 11
7.297840
 21
1.854160
 12
7.313240
 22
1.066120
 13
7.307080
 23
1.843160
  0
POLYLINE
  8
0
  6
CONTINUOUS
 66
     1
 40
0.000000
 41
0.000000
  0
VERTEX
  8
0
  6
CONTINUOUS
 10
7.303560
 20
1.076680
  0
VERTEX
  8
0
  6
CONTINUOUS
 10
7.297840
 20
1.854160
  0
VERTEX
  8
0
  6
CONTINUOUS
 10
7.307080
 20
1.843160
  0
VERTEX
  8
0
  6
CONTINUOUS
 10
7.313240
 20
1.066120
  0
VERTEX
  8
0
  6
CONTINUOUS
 10
7.303560
 20
1.076680
  0
SEQEND
  8
0
  0
SOLID
  8
0
 62
    15
 10
7.313240
 20
1.066120
 11
7.307080
 21
1.843160
 12
7.327320
 22
1.058200
 13
7.321600
 23
1.835680
  0
POLYLINE
  8
0
  6
CONTINUOUS
 66
     1
 40
0.000000
 41
0.000000
  0
VERTEX
  8
0
  6
CONTINUOUS
 10
7.313240
 20
1.066120
  0
VERTEX
  8
0
  6
CONTINUOUS
 10
7.307080
 20
1.843160
  0
VERTEX
  8
0
  6
CONTINUOUS
 10
7.321600
 20
1.835680
  0
VERTEX
  8
0
  6
CONTINUOUS
 10
7.327320
 20
1.058200
  0
VERTEX
  8
0
  6
CONTINUOUS
 10
7.313240
 20
1.066120
  0
SEQEND
  8
0
  0
SOLID
  8
0
 62
    15
 10
7.327320
 20
1.058200
 11
7.321600
 21
1.835680
 12
7.347120
 22
1.052920
 13
7.341400
 23
1.830400
  0
POLYLINE
  8
0
  6
CONTINUOUS
 66
     1
 40
0.000000
 41
0.000000
  0
VERTEX
  8
0
  6
CONTINUOUS
 10
7.327320
 20
1.058200
  0
VERTEX
  8
0
  6
CONTINUOUS
 10
7.321600
 20
1.835680
  0
VERTEX
  8
0
  6
CONTINUOUS
 10
7.341400
 20
1.830400
  0
VERTEX
  8
0
  6
CONTINUOUS
 10
7.347120
 20
1.052920
  0
VERTEX
  8
0
  6
CONTINUOUS
 10
7.327320
 20
1.058200
  0
SEQEND
  8
0
  0
SOLID
  8
0
 62
    15
 10
7.347120
 20
1.052920
 11
7.341400
 21
1.830400
 12
7.364280
 22
1.051600
 13
7.358120
 23
1.828640
  0
POLYLINE
  8
0
  6
CONTINUOUS
 66
     1
 40
0.000000
 41
0.000000
  0
VERTEX
  8
0
  6
CONTINUOUS
 10
7.347120
 20
1.052920
  0
VERTEX
  8
0
  6
CONTINUOUS
 10
7.341400
 20
1.830400
  0
VERTEX
  8
0
  6
CONTINUOUS
 10
7.358120
 20
1.828640
  0
VERTEX
  8
0
  6
CONTINUOUS
 10
7.364280
 20
1.051600
  0
VERTEX
  8
0
  6
CONTINUOUS
 10
7.347120
 20
1.052920
  0
SEQEND
  8
0
  0
SOLID
  8
0
 62
    15
 10
7.364280
 20
1.051600
 11
7.358120
 21
1.828640
 12
7.379680
 22
1.048080
 13
7.373960
 23
1.825120
  0
POLYLINE
  8
0
  6
CONTINUOUS
 66
     1
 40
0.000000
 41
0.000000
  0
VERTEX
  8
0
  6
CONTINUOUS
 10
7.364280
 20
1.051600
  0
VERTEX
  8
0
  6
CONTINUOUS
 10
7.358120
 20
1.828640
  0
VERTEX
  8
0
  6
CONTINUOUS
 10
7.373960
 20
1.825120
  0
VERTEX
  8
0
  6
CONTINUOUS
 10
7.379680
 20
1.048080
  0
VERTEX
  8
0
  6
CONTINUOUS
 10
7.364280
 20
1.051600
  0
SEQEND
  8
0
  0
SOLID
  8
0
 62
    15
 10
7.379680
 20
1.048080
 11
7.373960
 21
1.825120
 12
7.393760
 22
1.042800
 13
7.388040
 23
1.820280
  0
POLYLINE
  8
0
  6
CONTINUOUS
 66
     1
 40
0.000000
 41
0.000000
  0
VERTEX
  8
0
  6
CONTINUOUS
 10
7.379680
 20
1.048080
  0
VERTEX
  8
0
  6
CONTINUOUS
 10
7.373960
 20
1.825120
  0
VERTEX
  8
0
  6
CONTINUOUS
 10
7.388040
 20
1.820280
  0
VERTEX
  8
0
  6
CONTINUOUS
 10
7.393760
 20
1.042800
  0
VERTEX
  8
0
  6
CONTINUOUS
 10
7.379680
 20
1.048080
  0
SEQEND
  8
0
  0
SOLID
  8
0
 62
    15
 10
7.393760
 20
1.042800
 11
7.388040
 21
1.820280
 12
7.406080
 22
1.036640
 13
7.399920
 23
1.813680
  0
POLYLINE
  8
0
  6
CONTINUOUS
 66
     1
 40
0.000000
 41
0.000000
  0
VERTEX
  8
0
  6
CONTINUOUS
 10
7.393760
 20
1.042800
  0
VERTEX
  8
0
  6
CONTINUOUS
 10
7.388040
 20
1.820280
  0
VERTEX
  8
0
  6
CONTINUOUS
 10
7.399920
 20
1.813680
  0
VERTEX
  8
0
  6
CONTINUOUS
 10
7.406080
 20
1.036640
  0
VERTEX
  8
0
  6
CONTINUOUS
 10
7.393760
 20
1.042800
  0
SEQEND
  8
0
  0
SOLID
  8
0
 62
    15
 10
7.406080
 20
1.036640
 11
7.399920
 21
1.813680
 12
7.416200
 22
1.029160
 13
7.410480
 23
1.806200
  0
POLYLINE
  8
0
  6
CONTINUOUS
 66
     1
 40
0.000000
 41
0.000000
  0
VERTEX
  8
0
  6
CONTINUOUS
 10
7.406080
 20
1.036640
  0
VERTEX
  8
0
  6
CONTINUOUS
 10
7.399920
 20
1.813680
  0
VERTEX
  8
0
  6
CONTINUOUS
 10
7.410480
 20
1.806200
  0
VERTEX
  8
0
  6
CONTINUOUS
 10
7.416200
 20
1.029160
  0
VERTEX
  8
0
  6
CONTINUOUS
 10
7.406080
 20
1.036640
  0
SEQEND
  8
0
  0
SOLID
  8
0
 62
    15
 10
7.416200
 20
1.029160
 11
7.410480
 21
1.806200
 12
7.424560
 22
1.020360
 13
7.418840
 23
1.797840
  0
POLYLINE
  8
0
  6
CONTINUOUS
 66
     1
 40
0.000000
 41
0.000000
  0
VERTEX
  8
0
  6
CONTINUOUS
 10
7.416200
 20
1.029160
  0
VERTEX
  8
0
  6
CONTINUOUS
 10
7.410480
 20
1.806200
  0
VERTEX
  8
0
  6
CONTINUOUS
 10
7.418840
 20
1.797840
  0
VERTEX
  8
0
  6
CONTINUOUS
 10
7.424560
 20
1.020360
  0
VERTEX
  8
0
  6
CONTINUOUS
 10
7.416200
 20
1.029160
  0
SEQEND
  8
0
  0
SOLID
  8
0
 62
    15
 10
7.424560
 20
1.020360
 11
7.418840
 21
1.797840
 12
7.430280
 22
1.011560
 13
7.424560
 23
1.789040
  0
POLYLINE
  8
0
  6
CONTINUOUS
 66
     1
 40
0.000000
 41
0.000000
  0
VERTEX
  8
0
  6
CONTINUOUS
 10
7.424560
 20
1.020360
  0
VERTEX
  8
0
  6
CONTINUOUS
 10
7.418840
 20
1.797840
  0
VERTEX
  8
0
  6
CONTINUOUS
 10
7.424560
 20
1.789040
  0
VERTEX
  8
0
  6
CONTINUOUS
 10
7.430280
 20
1.011560
  0
VERTEX
  8
0
  6
CONTINUOUS
 10
7.424560
 20
1.020360
  0
SEQEND
  8
0
  0
SOLID
  8
0
 62
    15
 10
5.042840
 20
0.897600
 11
5.036680
 21
1.674640
 12
5.049440
 22
0.913880
 13
5.043720
 23
1.691360
  0
POLYLINE
  8
0
  6
CONTINUOUS
 66
     1
 40
0.000000
 41
0.000000
  0
VERTEX
  8
0
  6
CONTINUOUS
 10
5.042840
 20
0.897600
  0
VERTEX
  8
0
  6
CONTINUOUS
 10
5.036680
 20
1.674640
  0
VERTEX
  8
0
  6
CONTINUOUS
 10
5.043720
 20
1.691360
  0
VERTEX
  8
0
  6
CONTINUOUS
 10
5.049440
 20
0.913880
  0
VERTEX
  8
0
  6
CONTINUOUS
 10
5.042840
 20
0.897600
  0
SEQEND
  8
0
  0
SOLID
  8
0
 62
    15
 10
7.430280
 20
1.011560
 11
7.424560
 21
1.789040
 12
7.434240
 22
1.001880
 13
7.428080
 23
1.779360
  0
POLYLINE
  8
0
  6
CONTINUOUS
 66
     1
 40
0.000000
 41
0.000000
  0
VERTEX
  8
0
  6
CONTINUOUS
 10
7.430280
 20
1.011560
  0
VERTEX
  8
0
  6
CONTINUOUS
 10
7.424560
 20
1.789040
  0
VERTEX
  8
0
  6
CONTINUOUS
 10
7.428080
 20
1.779360
  0
VERTEX
  8
0
  6
CONTINUOUS
 10
7.434240
 20
1.001880
  0
VERTEX
  8
0
  6
CONTINUOUS
 10
7.430280
 20
1.011560
  0
SEQEND
  8
0
  0
SOLID
  8
0
 62
    15
 10
5.037560
 20
0.805200
 11
5.031840
 21
1.582240
 12
5.037560
 22
0.849200
 13
5.031840
 23
1.626240
  0
POLYLINE
  8
0
  6
CONTINUOUS
 66
     1
 40
0.000000
 41
0.000000
  0
VERTEX
  8
0
  6
CONTINUOUS
 10
5.037560
 20
0.805200
  0
VERTEX
  8
0
  6
CONTINUOUS
 10
5.031840
 20
1.582240
  0
VERTEX
  8
0
  6
CONTINUOUS
 10
5.031840
 20
1.626240
  0
VERTEX
  8
0
  6
CONTINUOUS
 10
5.037560
 20
0.849200
  0
VERTEX
  8
0
  6
CONTINUOUS
 10
5.037560
 20
0.805200
  0
SEQEND
  8
0
  0
SOLID
  8
0
 62
    15
 10
5.037560
 20
0.849200
 11
5.031840
 21
1.626240
 12
5.038880
 22
0.876040
 13
5.033160
 23
1.653520
  0
POLYLINE
  8
0
  6
CONTINUOUS
 66
     1
 40
0.000000
 41
0.000000
  0
VERTEX
  8
0
  6
CONTINUOUS
 10
5.037560
 20
0.849200
  0
VERTEX
  8
0
  6
CONTINUOUS
 10
5.031840
 20
1.626240
  0
VERTEX
  8
0
  6
CONTINUOUS
 10
5.033160
 20
1.653520
  0
VERTEX
  8
0
  6
CONTINUOUS
 10
5.038880
 20
0.876040
  0
VERTEX
  8
0
  6
CONTINUOUS
 10
5.037560
 20
0.849200
  0
SEQEND
  8
0
  0
SOLID
  8
0
 62
    15
 10
5.038880
 20
0.876040
 11
5.033160
 21
1.653520
 12
5.042840
 22
0.897600
 13
5.036680
 23
1.674640
  0
POLYLINE
  8
0
  6
CONTINUOUS
 66
     1
 40
0.000000
 41
0.000000
  0
VERTEX
  8
0
  6
CONTINUOUS
 10
5.038880
 20
0.876040
  0
VERTEX
  8
0
  6
CONTINUOUS
 10
5.033160
 20
1.653520
  0
VERTEX
  8
0
  6
CONTINUOUS
 10
5.036680
 20
1.674640
  0
VERTEX
  8
0
  6
CONTINUOUS
 10
5.042840
 20
0.897600
  0
VERTEX
  8
0
  6
CONTINUOUS
 10
5.038880
 20
0.876040
  0
SEQEND
  8
0
  0
SOLID
  8
0
 62
    15
 10
5.049440
 20
0.913880
 11
5.043720
 21
1.691360
 12
5.060000
 22
0.926200
 13
5.054280
 23
1.703680
  0
POLYLINE
  8
0
  6
CONTINUOUS
 66
     1
 40
0.000000
 41
0.000000
  0
VERTEX
  8
0
  6
CONTINUOUS
 10
5.049440
 20
0.913880
  0
VERTEX
  8
0
  6
CONTINUOUS
 10
5.043720
 20
1.691360
  0
VERTEX
  8
0
  6
CONTINUOUS
 10
5.054280
 20
1.703680
  0
VERTEX
  8
0
  6
CONTINUOUS
 10
5.060000
 20
0.926200
  0
VERTEX
  8
0
  6
CONTINUOUS
 10
5.049440
 20
0.913880
  0
SEQEND
  8
0
  0
SOLID
  8
0
 62
    15
 10
5.060000
 20
0.926200
 11
5.054280
 21
1.703680
 12
5.074520
 22
0.935000
 13
5.068800
 23
1.712480
  0
POLYLINE
  8
0
  6
CONTINUOUS
 66
     1
 40
0.000000
 41
0.000000
  0
VERTEX
  8
0
  6
CONTINUOUS
 10
5.060000
 20
0.926200
  0
VERTEX
  8
0
  6
CONTINUOUS
 10
5.054280
 20
1.703680
  0
VERTEX
  8
0
  6
CONTINUOUS
 10
5.068800
 20
1.712480
  0
VERTEX
  8
0
  6
CONTINUOUS
 10
5.074520
 20
0.935000
  0
VERTEX
  8
0
  6
CONTINUOUS
 10
5.060000
 20
0.926200
  0
SEQEND
  8
0
  0
SOLID
  8
0
 62
    15
 10
5.074520
 20
0.935000
 11
5.068800
 21
1.712480
 12
5.093440
 22
0.940720
 13
5.087720
 23
1.718200
  0
POLYLINE
  8
0
  6
CONTINUOUS
 66
     1
 40
0.000000
 41
0.000000
  0
VERTEX
  8
0
  6
CONTINUOUS
 10
5.074520
 20
0.935000
  0
VERTEX
  8
0
  6
CONTINUOUS
 10
5.068800
 20
1.712480
  0
VERTEX
  8
0
  6
CONTINUOUS
 10
5.087720
 20
1.718200
  0
VERTEX
  8
0
  6
CONTINUOUS
 10
5.093440
 20
0.940720
  0
VERTEX
  8
0
  6
CONTINUOUS
 10
5.074520
 20
0.935000
  0
SEQEND
  8
0
  0
SOLID
  8
0
 62
    15
 10
5.093440
 20
0.940720
 11
5.087720
 21
1.718200
 12
5.117640
 22
0.944240
 13
5.111480
 23
1.721720
  0
POLYLINE
  8
0
  6
CONTINUOUS
 66
     1
 40
0.000000
 41
0.000000
  0
VERTEX
  8
0
  6
CONTINUOUS
 10
5.093440
 20
0.940720
  0
VERTEX
  8
0
  6
CONTINUOUS
 10
5.087720
 20
1.718200
  0
VERTEX
  8
0
  6
CONTINUOUS
 10
5.111480
 20
1.721720
  0
VERTEX
  8
0
  6
CONTINUOUS
 10
5.117640
 20
0.944240
  0
VERTEX
  8
0
  6
CONTINUOUS
 10
5.093440
 20
0.940720
  0
SEQEND
  8
0
  0
SOLID
  8
0
 62
    15
 10
5.117640
 20
0.944240
 11
5.111480
 21
1.721720
 12
5.147120
 22
0.946440
 13
5.141400
 23
1.723920
  0
POLYLINE
  8
0
  6
CONTINUOUS
 66
     1
 40
0.000000
 41
0.000000
  0
VERTEX
  8
0
  6
CONTINUOUS
 10
5.117640
 20
0.944240
  0
VERTEX
  8
0
  6
CONTINUOUS
 10
5.111480
 20
1.721720
  0
VERTEX
  8
0
  6
CONTINUOUS
 10
5.141400
 20
1.723920
  0
VERTEX
  8
0
  6
CONTINUOUS
 10
5.147120
 20
0.946440
  0
VERTEX
  8
0
  6
CONTINUOUS
 10
5.117640
 20
0.944240
  0
SEQEND
  8
0
  0
SOLID
  8
0
 62
    15
 10
5.147120
 20
0.946440
 11
5.141400
 21
1.723920
 12
5.176600
 22
0.946440
 13
5.170440
 23
1.723920
  0
POLYLINE
  8
0
  6
CONTINUOUS
 66
     1
 40
0.000000
 41
0.000000
  0
VERTEX
  8
0
  6
CONTINUOUS
 10
5.147120
 20
0.946440
  0
VERTEX
  8
0
  6
CONTINUOUS
 10
5.141400
 20
1.723920
  0
VERTEX
  8
0
  6
CONTINUOUS
 10
5.170440
 20
1.723920
  0
VERTEX
  8
0
  6
CONTINUOUS
 10
5.176600
 20
0.946440
  0
VERTEX
  8
0
  6
CONTINUOUS
 10
5.147120
 20
0.946440
  0
SEQEND
  8
0
  0
SOLID
  8
0
 62
    15
 10
5.176600
 20
0.946440
 11
5.170440
 21
1.723920
 12
5.176600
 22
1.050280
 13
5.170440
 23
1.827760
  0
POLYLINE
  8
0
  6
CONTINUOUS
 66
     1
 40
0.000000
 41
0.000000
  0
VERTEX
  8
0
  6
CONTINUOUS
 10
5.176600
 20
0.946440
  0
VERTEX
  8
0
  6
CONTINUOUS
 10
5.170440
 20
1.723920
  0
VERTEX
  8
0
  6
CONTINUOUS
 10
5.170440
 20
1.827760
  0
VERTEX
  8
0
  6
CONTINUOUS
 10
5.176600
 20
1.050280
  0
VERTEX
  8
0
  6
CONTINUOUS
 10
5.176600
 20
0.946440
  0
SEQEND
  8
0
  0
SOLID
  8
0
 62
    15
 10
5.041960
 20
1.190200
 11
5.035800
 21
1.967680
 12
7.293880
 22
1.190200
 13
7.288160
 23
1.967680
  0
POLYLINE
  8
0
  6
CONTINUOUS
 66
     1
 40
0.000000
 41
0.000000
  0
VERTEX
  8
0
  6
CONTINUOUS
 10
5.041960
 20
1.190200
  0
VERTEX
  8
0
  6
CONTINUOUS
 10
5.035800
 20
1.967680
  0
VERTEX
  8
0
  6
CONTINUOUS
 10
7.288160
 20
1.967680
  0
VERTEX
  8
0
  6
CONTINUOUS
 10
7.293880
 20
1.190200
  0
VERTEX
  8
0
  6
CONTINUOUS
 10
5.041960
 20
1.190200
  0
SEQEND
  8
0
  0
SOLID
  8
0
 62
    15
 10
5.020400
 20
1.142240
 11
5.014680
 21
1.919720
 12
5.020400
 22
1.190200
 13
5.014680
 23
1.967680
  0
POLYLINE
  8
0
  6
CONTINUOUS
 66
     1
 40
0.000000
 41
0.000000
  0
VERTEX
  8
0
  6
CONTINUOUS
 10
5.020400
 20
1.142240
  0
VERTEX
  8
0
  6
CONTINUOUS
 10
5.014680
 20
1.919720
  0
VERTEX
  8
0
  6
CONTINUOUS
 10
5.014680
 20
1.967680
  0
VERTEX
  8
0
  6
CONTINUOUS
 10
5.020400
 20
1.190200
  0
VERTEX
  8
0
  6
CONTINUOUS
 10
5.020400
 20
1.142240
  0
SEQEND
  8
0
  0
SOLID
  8
0
 62
    15
 10
5.020400
 20
1.190200
 11
5.014680
 21
1.967680
 12
5.055160
 22
1.190200
 13
5.049000
 23
1.967680
  0
POLYLINE
  8
0
  6
CONTINUOUS
 66
     1
 40
0.000000
 41
0.000000
  0
VERTEX
  8
0
  6
CONTINUOUS
 10
5.020400
 20
1.190200
  0
VERTEX
  8
0
  6
CONTINUOUS
 10
5.014680
 20
1.967680
  0
VERTEX
  8
0
  6
CONTINUOUS
 10
5.049000
 20
1.967680
  0
VERTEX
  8
0
  6
CONTINUOUS
 10
5.055160
 20
1.190200
  0
VERTEX
  8
0
  6
CONTINUOUS
 10
5.020400
 20
1.190200
  0
SEQEND
  8
0
  0
POLYLINE
  8
0
  6
CONTINUOUS
 66
     1
 40
0.000000
 41
0.000000
  0
VERTEX
  8
0
  6
CONTINUOUS
 10
5.041960
 20
1.190200
  0
VERTEX
  8
0
  6
CONTINUOUS
 10
7.293880
 20
1.190200
  0
VERTEX
  8
0
  6
CONTINUOUS
 10
7.293880
 20
1.131240
  0
VERTEX
  8
0
  6
CONTINUOUS
 10
7.295200
 20
1.108800
  0
VERTEX
  8
0
  6
CONTINUOUS
 10
7.297840
 20
1.090760
  0
VERTEX
  8
0
  6
CONTINUOUS
 10
7.303560
 20
1.076680
  0
VERTEX
  8
0
  6
CONTINUOUS
 10
7.313240
 20
1.066120
  0
VERTEX
  8
0
  6
CONTINUOUS
 10
7.327320
 20
1.058200
  0
VERTEX
  8
0
  6
CONTINUOUS
 10
7.347120
 20
1.052920
  0
VERTEX
  8
0
  6
CONTINUOUS
 10
7.364280
 20
1.051600
  0
VERTEX
  8
0
  6
CONTINUOUS
 10
7.379680
 20
1.048080
  0
VERTEX
  8
0
  6
CONTINUOUS
 10
7.406080
 20
1.036640
  0
VERTEX
  8
0
  6
CONTINUOUS
 10
7.416200
 20
1.029160
  0
VERTEX
  8
0
  6
CONTINUOUS
 10
7.424560
 20
1.020360
  0
VERTEX
  8
0
  6
CONTINUOUS
 10
7.430280
 20
1.011560
  0
VERTEX
  8
0
  6
CONTINUOUS
 10
7.434240
 20
1.001880
  0
VERTEX
  8
0
  6
CONTINUOUS
 10
7.435120
 20
0.992200
  0
VERTEX
  8
0
  6
CONTINUOUS
 10
7.433360
 20
0.982520
  0
VERTEX
  8
0
  6
CONTINUOUS
 10
7.428960
 20
0.972840
  0
VERTEX
  8
0
  6
CONTINUOUS
 10
7.421480
 20
0.963600
  0
VERTEX
  8
0
  6
CONTINUOUS
 10
7.411360
 20
0.955240
  0
VERTEX
  8
0
  6
CONTINUOUS
 10
7.397280
 20
0.947320
  0
VERTEX
  8
0
  6
CONTINUOUS
 10
7.380120
 20
0.941160
  0
VERTEX
  8
0
  6
CONTINUOUS
 10
7.345800
 20
0.933680
  0
VERTEX
  8
0
  6
CONTINUOUS
 10
7.325120
 20
0.925760
  0
VERTEX
  8
0
  6
CONTINUOUS
 10
7.317200
 20
0.920040
  0
VERTEX
  8
0
  6
CONTINUOUS
 10
7.306200
 20
0.906400
  0
VERTEX
  8
0
  6
CONTINUOUS
 10
7.299160
 20
0.889240
  0
VERTEX
  8
0
  6
CONTINUOUS
 10
7.295640
 20
0.869880
  0
VERTEX
  8
0
  6
CONTINUOUS
 10
7.292560
 20
0.805200
  0
VERTEX
  8
0
  6
CONTINUOUS
 10
5.037560
 20
0.805200
  0
VERTEX
  8
0
  6
CONTINUOUS
 10
5.037560
 20
0.849200
  0
VERTEX
  8
0
  6
CONTINUOUS
 10
5.038880
 20
0.876040
  0
VERTEX
  8
0
  6
CONTINUOUS
 10
5.042840
 20
0.897600
  0
VERTEX
  8
0
  6
CONTINUOUS
 10
5.049440
 20
0.913880
  0
VERTEX
  8
0
  6
CONTINUOUS
 10
5.060000
 20
0.926200
  0
VERTEX
  8
0
  6
CONTINUOUS
 10
5.074520
 20
0.935000
  0
VERTEX
  8
0
  6
CONTINUOUS
 10
5.093440
 20
0.940720
  0
VERTEX
  8
0
  6
CONTINUOUS
 10
5.117640
 20
0.944240
  0
VERTEX
  8
0
  6
CONTINUOUS
 10
5.147120
 20
0.946440
  0
VERTEX
  8
0
  6
CONTINUOUS
 10
5.176600
 20
0.946440
  0
VERTEX
  8
0
  6
CONTINUOUS
 10
5.176600
 20
1.050280
  0
VERTEX
  8
0
  6
CONTINUOUS
 10
5.137880
 20
1.051600
  0
VERTEX
  8
0
  6
CONTINUOUS
 10
5.106200
 20
1.056000
  0
VERTEX
  8
0
  6
CONTINUOUS
 10
5.080240
 20
1.062600
  0
VERTEX
  8
0
  6
CONTINUOUS
 10
5.059560
 20
1.072280
  0
VERTEX
  8
0
  6
CONTINUOUS
 10
5.043720
 20
1.085040
  0
VERTEX
  8
0
  6
CONTINUOUS
 10
5.032280
 20
1.100880
  0
VERTEX
  8
0
  6
CONTINUOUS
 10
5.024360
 20
1.120240
  0
VERTEX
  8
0
  6
CONTINUOUS
 10
5.020400
 20
1.142240
  0
VERTEX
  8
0
  6
CONTINUOUS
 10
5.020400
 20
1.190200
  0
VERTEX
  8
0
  6
CONTINUOUS
 10
5.055160
 20
1.190200
  0
VERTEX
  8
0
  6
CONTINUOUS
 10
5.041960
 20
1.190200
  0
SEQEND
  8
0
  0
TEXT
  8
0
 10
5.975200
 20
0.576840
 40
0.138230
  1
BA  81
 41
1.000000
  7
SN0
 71
     0
 72
     5
 11
6.472726
 21
0.576840
  0
TEXT
  8
0
 10
5.773240
 20
0.385000
 40
0.138230
  1
3/8" x 2-3/8"
 41
1.000000
  7
SN0
 71
     0
 72
     5
 11
6.672806
 21
0.385000
  0
TEXT
  8
0
 10
7.017560
 20
2.609640
 40
0.138230
  1
panel/flooring
 41
1.000000
  7
SN0
 71
     0
 72
     5
 11
8.011991
 21
2.609640
  0
TEXT
  8
0
 10
7.423240
 20
2.417800
 40
0.138230
  1
81
 41
1.000000
  7
SN0
 71
     0
 72
     5
 11
7.608000
 21
2.417800
  0
ENDSEC
  0
EOF
