  0
SECTION
  2
HEADER
  9
$ACADVER
  1
AC1006
  9
$EXTMIN
 10
1.430000
 20
0.330880
  9
$EXTMAX
 10
8.087640
 20
3.138960
  9
$LTSCALE
 40
0.044000
  9
$PDMODE
 70
    35
  9
$PDSIZE
 40
0.035200
  0
ENDSEC
  0
SECTION
  2
TABLES
  0
TABLE
  2
LTYPE
 70
     9
  0
LTYPE
  2
CONTINUOUS
 70
    64
  3
Solid line
 72
    65
 73
     0
 40
0.000000
  0
LTYPE
  2
DASHED
 70
    64
  3
__ __ __ __ __ __ __ __ __ __ __ __ __ __ __
 72
    65
 73
     2
 40
0.000330
 49
0.000220
 49
-0.000110
  0
LTYPE
  2
HIDDEN
 70
    64
  3
 _ _ _ _ _ _ _ _ _ _ _ _ _ _ _ _ _ _ _ _ _ _
 72
    65
 73
     2
 40
0.000165
 49
0.000110
 49
-0.000055
  0
LTYPE
  2
CENTER
 70
    64
  3
____ _ ____ _ ____ _ ____ _ ____ _ ____ _ ____
 72
    65
 73
     4
 40
0.000880
 49
0.000550
 49
-0.000110
 49
0.000110
 49
-0.000110
  0
LTYPE
  2
PHANTOM
 70
    64
  3
_____ _ _ _____ _ _ _____ _ _ _____ _ _ ____
 72
    65
 73
     6
 40
0.001100
 49
0.000550
 49
-0.000110
 49
0.000110
 49
-0.000110
 49
0.000110
 49
-0.000110
  0
LTYPE
  2
DOT
 70
    64
  3
...............................................
 72
    65
 73
     2
 40
0.000110
 49
0.000000
 49
-0.000110
  0
LTYPE
  2
DASHDOT
 70
    64
  3
__ . __ . __ . __ . __ . __ . __ . __ . __ . __
 72
    65
 73
     4
 40
0.000440
 49
0.000220
 49
-0.000110
 49
0.000000
 49
-0.000110
  0
LTYPE
  2
BORDER
 70
    64
  3
__ __ . __ __ . __ __ . __ __ . __ __ . __ __
 72
    65
 73
     6
 40
0.000770
 49
0.000220
 49
-0.000110
 49
0.000220
 49
-0.000110
 49
0.000000
 49
-0.000110
  0
LTYPE
  2
DIVIDE
 70
    64
  3
__ . . __ . . __ . . __ . . __ . . __ . . __
 72
    65
 73
     6
 40
0.000550
 49
0.000220
 49
-0.000110
 49
0.000000
 49
-0.000110
 49
0.000000
 49
-0.000110
  0
LTYPE
  2
DOTDOT
 70
    64
  3
 . .  . .  . .  . .  . .  . . 
 72
    65
 73
     5
 40
0.000242
 49
-0.000110
 49
0.000000
 49
-0.000110
 49
0.000000
 49
-0.000110
  0
ENDTAB
  0
TABLE
  2
STYLE
 70
     2
  0
STYLE
 70
     0
  2
SN0
 40
0.000000
 41
0.000440
 50
0.000000
 71
     0
 42
0.000000
  3
ROMAND
  0
STYLE
 70
    68
  2
SV0
 40
0.000000
 41
0.000440
 50
0.000000
 71
     0
 42
0.000000
  3
ROMAND
  0
ENDTAB
  0
TABLE
  2
LAYER
 70
     3
  0
LAYER
  2
FOREGROUND
 70
    64
 62
     7
  6
CONTINUOUS
  0
LAYER
  2
BACKGROUND
 70
    65
 62
    -7
  6
CONTINUOUS
  0
LAYER
  2
0
 70
    64
 62
     7
  6
CONTINUOUS
  0
ENDTAB
  0
ENDSEC
  0
SECTION
  2
ENTITIES
  0
POLYLINE
  8
FOREGROUND
  6
CONTINUOUS
 66
     1
 40
0.000000
 41
0.000000
  0
VERTEX
  8
FOREGROUND
  6
CONTINUOUS
 10
0.000000
 20
3.469840
  0
VERTEX
  8
FOREGROUND
  6
CONTINUOUS
 10
8.499920
 20
3.469840
  0
VERTEX
  8
FOREGROUND
  6
CONTINUOUS
 10
8.499920
 20
-7.530160
  0
VERTEX
  8
FOREGROUND
  6
CONTINUOUS
 10
0.000000
 20
-7.530160
  0
VERTEX
  8
FOREGROUND
  6
CONTINUOUS
 10
0.000000
 20
3.469840
  0
SEQEND
  8
0
  0
POLYLINE
  8
FOREGROUND
  6
CONTINUOUS
 66
     1
 40
0.000000
 41
0.000000
  0
VERTEX
  8
FOREGROUND
  6
CONTINUOUS
 10
0.000000
 20
3.469840
  0
VERTEX
  8
FOREGROUND
  6
CONTINUOUS
 10
8.499920
 20
3.469840
  0
VERTEX
  8
FOREGROUND
  6
CONTINUOUS
 10
8.499920
 20
-7.530160
  0
VERTEX
  8
FOREGROUND
  6
CONTINUOUS
 10
0.000000
 20
-7.530160
  0
VERTEX
  8
FOREGROUND
  6
CONTINUOUS
 10
0.000000
 20
3.469840
  0
SEQEND
  8
0
  0
POLYLINE
  8
0
  6
CONTINUOUS
 66
     1
 40
0.014080
 41
0.014080
  0
VERTEX
  8
0
  6
CONTINUOUS
 10
5.501320
 20
2.497880
  0
VERTEX
  8
0
  6
CONTINUOUS
 10
5.635520
 20
2.494800
  0
VERTEX
  8
0
  6
CONTINUOUS
 10
5.760480
 20
2.489080
  0
VERTEX
  8
0
  6
CONTINUOUS
 10
5.876640
 20
2.479840
  0
VERTEX
  8
0
  6
CONTINUOUS
 10
5.984440
 20
2.467080
  0
VERTEX
  8
0
  6
CONTINUOUS
 10
6.084320
 20
2.451240
  0
VERTEX
  8
0
  6
CONTINUOUS
 10
6.176280
 20
2.432320
  0
VERTEX
  8
0
  6
CONTINUOUS
 10
6.260760
 20
2.409880
  0
VERTEX
  8
0
  6
CONTINUOUS
 10
6.337760
 20
2.384360
  0
VERTEX
  8
0
  6
CONTINUOUS
 10
6.408600
 20
2.354880
  0
VERTEX
  8
0
  6
CONTINUOUS
 10
6.452160
 20
2.333760
  0
VERTEX
  8
0
  6
CONTINUOUS
 10
6.512000
 20
2.299000
  0
VERTEX
  8
0
  6
CONTINUOUS
 10
6.566560
 20
2.260720
  0
VERTEX
  8
0
  6
CONTINUOUS
 10
6.615400
 20
2.218920
  0
VERTEX
  8
0
  6
CONTINUOUS
 10
6.658960
 20
2.173160
  0
VERTEX
  8
0
  6
CONTINUOUS
 10
6.697680
 20
2.124320
  0
VERTEX
  8
0
  6
CONTINUOUS
 10
6.721440
 20
2.089560
  0
VERTEX
  8
0
  6
CONTINUOUS
 10
6.743000
 20
2.053480
  0
VERTEX
  8
0
  6
CONTINUOUS
 10
6.762800
 20
2.015640
  0
VERTEX
  8
0
  6
CONTINUOUS
 10
6.780840
 20
1.976040
  0
VERTEX
  8
0
  6
CONTINUOUS
 10
6.812520
 20
1.892440
  0
VERTEX
  8
0
  6
CONTINUOUS
 10
6.826160
 20
1.848000
  0
VERTEX
  8
0
  6
CONTINUOUS
 10
6.849920
 20
1.753840
  0
VERTEX
  8
0
  6
CONTINUOUS
 10
6.860040
 20
1.700600
  0
VERTEX
  8
0
  6
CONTINUOUS
 10
7.321160
 20
1.700600
  0
VERTEX
  8
0
  6
CONTINUOUS
 10
7.321160
 20
1.387320
  0
VERTEX
  8
0
  6
CONTINUOUS
 10
4.572040
 20
1.387320
  0
VERTEX
  8
0
  6
CONTINUOUS
 10
4.572040
 20
2.732840
  0
VERTEX
  8
0
  6
CONTINUOUS
 10
5.490760
 20
2.732840
  0
VERTEX
  8
0
  6
CONTINUOUS
 10
5.490760
 20
2.498320
  0
VERTEX
  8
0
  6
CONTINUOUS
 10
5.501320
 20
2.497880
  0
SEQEND
  8
0
  0
SOLID
  8
0
 62
    15
 10
3.556520
 20
1.556720
 11
3.563120
 21
2.288440
 12
3.601400
 22
1.485880
 13
3.608000
 23
2.218040
  0
POLYLINE
  8
0
  6
CONTINUOUS
 66
     1
 40
0.000000
 41
0.000000
  0
VERTEX
  8
0
  6
CONTINUOUS
 10
3.556520
 20
1.556720
  0
VERTEX
  8
0
  6
CONTINUOUS
 10
3.563120
 20
2.288440
  0
VERTEX
  8
0
  6
CONTINUOUS
 10
3.608000
 20
2.218040
  0
VERTEX
  8
0
  6
CONTINUOUS
 10
3.601400
 20
1.485880
  0
VERTEX
  8
0
  6
CONTINUOUS
 10
3.556520
 20
1.556720
  0
SEQEND
  8
0
  0
SOLID
  8
0
 62
    15
 10
2.537040
 20
1.925880
 11
2.543640
 21
2.657600
 12
2.697640
 22
1.915760
 13
2.704240
 23
2.647480
  0
POLYLINE
  8
0
  6
CONTINUOUS
 66
     1
 40
0.000000
 41
0.000000
  0
VERTEX
  8
0
  6
CONTINUOUS
 10
2.537040
 20
1.925880
  0
VERTEX
  8
0
  6
CONTINUOUS
 10
2.543640
 20
2.657600
  0
VERTEX
  8
0
  6
CONTINUOUS
 10
2.704240
 20
2.647480
  0
VERTEX
  8
0
  6
CONTINUOUS
 10
2.697640
 20
1.915760
  0
VERTEX
  8
0
  6
CONTINUOUS
 10
2.537040
 20
1.925880
  0
SEQEND
  8
0
  0
SOLID
  8
0
 62
    15
 10
2.697640
 20
1.915760
 11
2.704240
 21
2.647480
 12
2.843280
 22
1.899920
 13
2.849880
 23
2.631640
  0
POLYLINE
  8
0
  6
CONTINUOUS
 66
     1
 40
0.000000
 41
0.000000
  0
VERTEX
  8
0
  6
CONTINUOUS
 10
2.697640
 20
1.915760
  0
VERTEX
  8
0
  6
CONTINUOUS
 10
2.704240
 20
2.647480
  0
VERTEX
  8
0
  6
CONTINUOUS
 10
2.849880
 20
2.631640
  0
VERTEX
  8
0
  6
CONTINUOUS
 10
2.843280
 20
1.899920
  0
VERTEX
  8
0
  6
CONTINUOUS
 10
2.697640
 20
1.915760
  0
SEQEND
  8
0
  0
SOLID
  8
0
 62
    15
 10
2.843280
 20
1.899920
 11
2.849880
 21
2.631640
 12
2.974400
 22
1.877920
 13
2.981000
 23
2.609640
  0
POLYLINE
  8
0
  6
CONTINUOUS
 66
     1
 40
0.000000
 41
0.000000
  0
VERTEX
  8
0
  6
CONTINUOUS
 10
2.843280
 20
1.899920
  0
VERTEX
  8
0
  6
CONTINUOUS
 10
2.849880
 20
2.631640
  0
VERTEX
  8
0
  6
CONTINUOUS
 10
2.981000
 20
2.609640
  0
VERTEX
  8
0
  6
CONTINUOUS
 10
2.974400
 20
1.877920
  0
VERTEX
  8
0
  6
CONTINUOUS
 10
2.843280
 20
1.899920
  0
SEQEND
  8
0
  0
SOLID
  8
0
 62
    15
 10
2.974400
 20
1.877920
 11
2.981000
 21
2.609640
 12
3.091880
 22
1.850200
 13
3.098480
 23
2.582360
  0
POLYLINE
  8
0
  6
CONTINUOUS
 66
     1
 40
0.000000
 41
0.000000
  0
VERTEX
  8
0
  6
CONTINUOUS
 10
2.974400
 20
1.877920
  0
VERTEX
  8
0
  6
CONTINUOUS
 10
2.981000
 20
2.609640
  0
VERTEX
  8
0
  6
CONTINUOUS
 10
3.098480
 20
2.582360
  0
VERTEX
  8
0
  6
CONTINUOUS
 10
3.091880
 20
1.850200
  0
VERTEX
  8
0
  6
CONTINUOUS
 10
2.974400
 20
1.877920
  0
SEQEND
  8
0
  0
SOLID
  8
0
 62
    15
 10
3.091880
 20
1.850200
 11
3.098480
 21
2.582360
 12
3.196600
 22
1.816760
 13
3.203200
 23
2.548480
  0
POLYLINE
  8
0
  6
CONTINUOUS
 66
     1
 40
0.000000
 41
0.000000
  0
VERTEX
  8
0
  6
CONTINUOUS
 10
3.091880
 20
1.850200
  0
VERTEX
  8
0
  6
CONTINUOUS
 10
3.098480
 20
2.582360
  0
VERTEX
  8
0
  6
CONTINUOUS
 10
3.203200
 20
2.548480
  0
VERTEX
  8
0
  6
CONTINUOUS
 10
3.196600
 20
1.816760
  0
VERTEX
  8
0
  6
CONTINUOUS
 10
3.091880
 20
1.850200
  0
SEQEND
  8
0
  0
SOLID
  8
0
 62
    15
 10
3.196600
 20
1.816760
 11
3.203200
 21
2.548480
 12
3.289440
 22
1.777160
 13
3.296040
 23
2.508880
  0
POLYLINE
  8
0
  6
CONTINUOUS
 66
     1
 40
0.000000
 41
0.000000
  0
VERTEX
  8
0
  6
CONTINUOUS
 10
3.196600
 20
1.816760
  0
VERTEX
  8
0
  6
CONTINUOUS
 10
3.203200
 20
2.548480
  0
VERTEX
  8
0
  6
CONTINUOUS
 10
3.296040
 20
2.508880
  0
VERTEX
  8
0
  6
CONTINUOUS
 10
3.289440
 20
1.777160
  0
VERTEX
  8
0
  6
CONTINUOUS
 10
3.196600
 20
1.816760
  0
SEQEND
  8
0
  0
SOLID
  8
0
 62
    15
 10
3.289440
 20
1.777160
 11
3.296040
 21
2.508880
 12
3.370840
 22
1.731400
 13
3.377440
 23
2.463120
  0
POLYLINE
  8
0
  6
CONTINUOUS
 66
     1
 40
0.000000
 41
0.000000
  0
VERTEX
  8
0
  6
CONTINUOUS
 10
3.289440
 20
1.777160
  0
VERTEX
  8
0
  6
CONTINUOUS
 10
3.296040
 20
2.508880
  0
VERTEX
  8
0
  6
CONTINUOUS
 10
3.377440
 20
2.463120
  0
VERTEX
  8
0
  6
CONTINUOUS
 10
3.370840
 20
1.731400
  0
VERTEX
  8
0
  6
CONTINUOUS
 10
3.289440
 20
1.777160
  0
SEQEND
  8
0
  0
SOLID
  8
0
 62
    15
 10
3.370840
 20
1.731400
 11
3.377440
 21
2.463120
 12
3.442120
 22
1.679480
 13
3.448280
 23
2.411200
  0
POLYLINE
  8
0
  6
CONTINUOUS
 66
     1
 40
0.000000
 41
0.000000
  0
VERTEX
  8
0
  6
CONTINUOUS
 10
3.370840
 20
1.731400
  0
VERTEX
  8
0
  6
CONTINUOUS
 10
3.377440
 20
2.463120
  0
VERTEX
  8
0
  6
CONTINUOUS
 10
3.448280
 20
2.411200
  0
VERTEX
  8
0
  6
CONTINUOUS
 10
3.442120
 20
1.679480
  0
VERTEX
  8
0
  6
CONTINUOUS
 10
3.370840
 20
1.731400
  0
SEQEND
  8
0
  0
SOLID
  8
0
 62
    15
 10
3.442120
 20
1.679480
 11
3.448280
 21
2.411200
 12
3.503720
 22
1.621400
 13
3.509880
 23
2.353120
  0
POLYLINE
  8
0
  6
CONTINUOUS
 66
     1
 40
0.000000
 41
0.000000
  0
VERTEX
  8
0
  6
CONTINUOUS
 10
3.442120
 20
1.679480
  0
VERTEX
  8
0
  6
CONTINUOUS
 10
3.448280
 20
2.411200
  0
VERTEX
  8
0
  6
CONTINUOUS
 10
3.509880
 20
2.353120
  0
VERTEX
  8
0
  6
CONTINUOUS
 10
3.503720
 20
1.621400
  0
VERTEX
  8
0
  6
CONTINUOUS
 10
3.442120
 20
1.679480
  0
SEQEND
  8
0
  0
SOLID
  8
0
 62
    15
 10
3.503720
 20
1.621400
 11
3.509880
 21
2.353120
 12
3.556520
 22
1.556720
 13
3.563120
 23
2.288440
  0
POLYLINE
  8
0
  6
CONTINUOUS
 66
     1
 40
0.000000
 41
0.000000
  0
VERTEX
  8
0
  6
CONTINUOUS
 10
3.503720
 20
1.621400
  0
VERTEX
  8
0
  6
CONTINUOUS
 10
3.509880
 20
2.353120
  0
VERTEX
  8
0
  6
CONTINUOUS
 10
3.563120
 20
2.288440
  0
VERTEX
  8
0
  6
CONTINUOUS
 10
3.556520
 20
1.556720
  0
VERTEX
  8
0
  6
CONTINUOUS
 10
3.503720
 20
1.621400
  0
SEQEND
  8
0
  0
SOLID
  8
0
 62
    15
 10
2.360160
 20
1.930720
 11
2.366320
 21
2.662440
 12
2.537040
 22
1.925880
 13
2.543640
 23
2.657600
  0
POLYLINE
  8
0
  6
CONTINUOUS
 66
     1
 40
0.000000
 41
0.000000
  0
VERTEX
  8
0
  6
CONTINUOUS
 10
2.360160
 20
1.930720
  0
VERTEX
  8
0
  6
CONTINUOUS
 10
2.366320
 20
2.662440
  0
VERTEX
  8
0
  6
CONTINUOUS
 10
2.543640
 20
2.657600
  0
VERTEX
  8
0
  6
CONTINUOUS
 10
2.537040
 20
1.925880
  0
VERTEX
  8
0
  6
CONTINUOUS
 10
2.360160
 20
1.930720
  0
SEQEND
  8
0
  0
SOLID
  8
0
 62
    15
 10
3.601400
 20
1.485880
 11
3.608000
 21
2.218040
 12
3.639240
 22
1.408880
 13
3.645840
 23
2.140600
  0
POLYLINE
  8
0
  6
CONTINUOUS
 66
     1
 40
0.000000
 41
0.000000
  0
VERTEX
  8
0
  6
CONTINUOUS
 10
3.601400
 20
1.485880
  0
VERTEX
  8
0
  6
CONTINUOUS
 10
3.608000
 20
2.218040
  0
VERTEX
  8
0
  6
CONTINUOUS
 10
3.645840
 20
2.140600
  0
VERTEX
  8
0
  6
CONTINUOUS
 10
3.639240
 20
1.408880
  0
VERTEX
  8
0
  6
CONTINUOUS
 10
3.601400
 20
1.485880
  0
SEQEND
  8
0
  0
SOLID
  8
0
 62
    15
 10
3.639240
 20
1.408880
 11
3.645840
 21
2.140600
 12
3.670920
 22
1.324840
 13
3.677520
 23
2.056560
  0
POLYLINE
  8
0
  6
CONTINUOUS
 66
     1
 40
0.000000
 41
0.000000
  0
VERTEX
  8
0
  6
CONTINUOUS
 10
3.639240
 20
1.408880
  0
VERTEX
  8
0
  6
CONTINUOUS
 10
3.645840
 20
2.140600
  0
VERTEX
  8
0
  6
CONTINUOUS
 10
3.677520
 20
2.056560
  0
VERTEX
  8
0
  6
CONTINUOUS
 10
3.670920
 20
1.324840
  0
VERTEX
  8
0
  6
CONTINUOUS
 10
3.639240
 20
1.408880
  0
SEQEND
  8
0
  0
SOLID
  8
0
 62
    15
 10
3.670920
 20
1.324840
 11
3.677520
 21
2.056560
 12
3.697320
 22
1.234200
 13
3.703480
 23
1.966360
  0
POLYLINE
  8
0
  6
CONTINUOUS
 66
     1
 40
0.000000
 41
0.000000
  0
VERTEX
  8
0
  6
CONTINUOUS
 10
3.670920
 20
1.324840
  0
VERTEX
  8
0
  6
CONTINUOUS
 10
3.677520
 20
2.056560
  0
VERTEX
  8
0
  6
CONTINUOUS
 10
3.703480
 20
1.966360
  0
VERTEX
  8
0
  6
CONTINUOUS
 10
3.697320
 20
1.234200
  0
VERTEX
  8
0
  6
CONTINUOUS
 10
3.670920
 20
1.324840
  0
SEQEND
  8
0
  0
SOLID
  8
0
 62
    15
 10
4.180000
 20
1.133440
 11
4.186600
 21
1.865160
 12
4.180000
 22
0.819720
 13
4.186600
 23
1.551880
  0
POLYLINE
  8
0
  6
CONTINUOUS
 66
     1
 40
0.000000
 41
0.000000
  0
VERTEX
  8
0
  6
CONTINUOUS
 10
4.180000
 20
1.133440
  0
VERTEX
  8
0
  6
CONTINUOUS
 10
4.186600
 20
1.865160
  0
VERTEX
  8
0
  6
CONTINUOUS
 10
4.186600
 20
1.551880
  0
VERTEX
  8
0
  6
CONTINUOUS
 10
4.180000
 20
0.819720
  0
VERTEX
  8
0
  6
CONTINUOUS
 10
4.180000
 20
1.133440
  0
SEQEND
  8
0
  0
SOLID
  8
0
 62
    15
 10
3.718880
 20
1.133440
 11
3.725040
 21
1.865160
 12
4.180000
 22
1.133440
 13
4.186600
 23
1.865160
  0
POLYLINE
  8
0
  6
CONTINUOUS
 66
     1
 40
0.000000
 41
0.000000
  0
VERTEX
  8
0
  6
CONTINUOUS
 10
3.718880
 20
1.133440
  0
VERTEX
  8
0
  6
CONTINUOUS
 10
3.725040
 20
1.865160
  0
VERTEX
  8
0
  6
CONTINUOUS
 10
4.186600
 20
1.865160
  0
VERTEX
  8
0
  6
CONTINUOUS
 10
4.180000
 20
1.133440
  0
VERTEX
  8
0
  6
CONTINUOUS
 10
3.718880
 20
1.133440
  0
SEQEND
  8
0
  0
SOLID
  8
0
 62
    15
 10
3.718880
 20
1.137400
 11
3.725040
 21
1.869120
 12
3.718880
 22
1.133440
 13
3.725040
 23
1.865160
  0
POLYLINE
  8
0
  6
CONTINUOUS
 66
     1
 40
0.000000
 41
0.000000
  0
VERTEX
  8
0
  6
CONTINUOUS
 10
3.718880
 20
1.137400
  0
VERTEX
  8
0
  6
CONTINUOUS
 10
3.725040
 20
1.869120
  0
VERTEX
  8
0
  6
CONTINUOUS
 10
3.725040
 20
1.865160
  0
VERTEX
  8
0
  6
CONTINUOUS
 10
3.718880
 20
1.133440
  0
VERTEX
  8
0
  6
CONTINUOUS
 10
3.718880
 20
1.137400
  0
SEQEND
  8
0
  0
SOLID
  8
0
 62
    15
 10
3.697320
 20
1.234200
 11
3.703480
 21
1.966360
 12
3.718880
 22
1.137400
 13
3.725040
 23
1.869120
  0
POLYLINE
  8
0
  6
CONTINUOUS
 66
     1
 40
0.000000
 41
0.000000
  0
VERTEX
  8
0
  6
CONTINUOUS
 10
3.697320
 20
1.234200
  0
VERTEX
  8
0
  6
CONTINUOUS
 10
3.703480
 20
1.966360
  0
VERTEX
  8
0
  6
CONTINUOUS
 10
3.725040
 20
1.869120
  0
VERTEX
  8
0
  6
CONTINUOUS
 10
3.718880
 20
1.137400
  0
VERTEX
  8
0
  6
CONTINUOUS
 10
3.697320
 20
1.234200
  0
SEQEND
  8
0
  0
SOLID
  8
0
 62
    15
 10
1.430880
 20
2.165240
 11
1.437040
 21
2.896960
 12
2.349160
 22
2.165240
 13
2.355760
 23
2.896960
  0
POLYLINE
  8
0
  6
CONTINUOUS
 66
     1
 40
0.000000
 41
0.000000
  0
VERTEX
  8
0
  6
CONTINUOUS
 10
1.430880
 20
2.165240
  0
VERTEX
  8
0
  6
CONTINUOUS
 10
1.437040
 20
2.896960
  0
VERTEX
  8
0
  6
CONTINUOUS
 10
2.355760
 20
2.896960
  0
VERTEX
  8
0
  6
CONTINUOUS
 10
2.349160
 20
2.165240
  0
VERTEX
  8
0
  6
CONTINUOUS
 10
1.430880
 20
2.165240
  0
SEQEND
  8
0
  0
SOLID
  8
0
 62
    15
 10
2.349160
 20
2.165240
 11
2.355760
 21
2.896960
 12
2.349160
 22
1.930720
 13
2.355760
 23
2.662440
  0
POLYLINE
  8
0
  6
CONTINUOUS
 66
     1
 40
0.000000
 41
0.000000
  0
VERTEX
  8
0
  6
CONTINUOUS
 10
2.349160
 20
2.165240
  0
VERTEX
  8
0
  6
CONTINUOUS
 10
2.355760
 20
2.896960
  0
VERTEX
  8
0
  6
CONTINUOUS
 10
2.355760
 20
2.662440
  0
VERTEX
  8
0
  6
CONTINUOUS
 10
2.349160
 20
1.930720
  0
VERTEX
  8
0
  6
CONTINUOUS
 10
2.349160
 20
2.165240
  0
SEQEND
  8
0
  0
SOLID
  8
0
 62
    15
 10
2.349160
 20
1.930720
 11
2.355760
 21
2.662440
 12
2.360160
 22
1.930720
 13
2.366320
 23
2.662440
  0
POLYLINE
  8
0
  6
CONTINUOUS
 66
     1
 40
0.000000
 41
0.000000
  0
VERTEX
  8
0
  6
CONTINUOUS
 10
2.349160
 20
1.930720
  0
VERTEX
  8
0
  6
CONTINUOUS
 10
2.355760
 20
2.662440
  0
VERTEX
  8
0
  6
CONTINUOUS
 10
2.366320
 20
2.662440
  0
VERTEX
  8
0
  6
CONTINUOUS
 10
2.360160
 20
1.930720
  0
VERTEX
  8
0
  6
CONTINUOUS
 10
2.349160
 20
1.930720
  0
SEQEND
  8
0
  0
POLYLINE
  8
0
  6
CONTINUOUS
 66
     1
 40
0.000000
 41
0.000000
  0
VERTEX
  8
0
  6
CONTINUOUS
 10
2.360160
 20
1.930720
  0
VERTEX
  8
0
  6
CONTINUOUS
 10
2.537040
 20
1.925880
  0
VERTEX
  8
0
  6
CONTINUOUS
 10
2.697640
 20
1.915760
  0
VERTEX
  8
0
  6
CONTINUOUS
 10
2.843280
 20
1.899920
  0
VERTEX
  8
0
  6
CONTINUOUS
 10
2.974400
 20
1.877920
  0
VERTEX
  8
0
  6
CONTINUOUS
 10
3.091880
 20
1.850200
  0
VERTEX
  8
0
  6
CONTINUOUS
 10
3.196600
 20
1.816760
  0
VERTEX
  8
0
  6
CONTINUOUS
 10
3.289440
 20
1.777160
  0
VERTEX
  8
0
  6
CONTINUOUS
 10
3.370840
 20
1.731400
  0
VERTEX
  8
0
  6
CONTINUOUS
 10
3.442120
 20
1.679480
  0
VERTEX
  8
0
  6
CONTINUOUS
 10
3.503720
 20
1.621400
  0
VERTEX
  8
0
  6
CONTINUOUS
 10
3.556520
 20
1.556720
  0
VERTEX
  8
0
  6
CONTINUOUS
 10
3.601400
 20
1.485880
  0
VERTEX
  8
0
  6
CONTINUOUS
 10
3.639240
 20
1.408880
  0
VERTEX
  8
0
  6
CONTINUOUS
 10
3.670920
 20
1.324840
  0
VERTEX
  8
0
  6
CONTINUOUS
 10
3.697320
 20
1.234200
  0
VERTEX
  8
0
  6
CONTINUOUS
 10
3.718880
 20
1.137400
  0
VERTEX
  8
0
  6
CONTINUOUS
 10
3.718880
 20
1.133440
  0
VERTEX
  8
0
  6
CONTINUOUS
 10
4.180000
 20
1.133440
  0
VERTEX
  8
0
  6
CONTINUOUS
 10
4.180000
 20
0.819720
  0
VERTEX
  8
0
  6
CONTINUOUS
 10
1.430880
 20
0.819720
  0
VERTEX
  8
0
  6
CONTINUOUS
 10
1.430880
 20
2.165240
  0
VERTEX
  8
0
  6
CONTINUOUS
 10
2.349160
 20
2.165240
  0
VERTEX
  8
0
  6
CONTINUOUS
 10
2.349160
 20
1.930720
  0
VERTEX
  8
0
  6
CONTINUOUS
 10
2.360160
 20
1.930720
  0
SEQEND
  8
0
  0
TEXT
  8
0
 10
2.559480
 20
0.565840
 40
0.138234
  1
BA  80
 41
1.000000
  7
SN0
 71
     0
 72
     5
 11
3.057139
 21
0.565840
  0
TEXT
  8
0
 10
2.283600
 20
0.374000
 40
0.138234
  1
1-3/8" x 2-3/4"
 41
1.000000
  7
SN0
 71
     0
 72
     5
 11
3.331513
 21
0.374000
  0
TEXT
  8
0
 10
7.717160
 20
2.988040
 40
0.138234
  1
band
 41
1.000000
  7
SN0
 71
     0
 72
     5
 11
8.086326
 21
2.988040
  0
TEXT
  8
0
 10
7.809120
 20
2.796640
 40
0.138234
  1
80
 41
1.000000
  7
SN0
 71
     0
 72
     5
 11
7.993870
 21
2.796640
  0
ENDSEC
  0
EOF
